0
SECTION
2
HEADER
9
$INSUNITS
70
4
9
$ACADVER
1
AC1014
9
$HANDSEED
5
FFFF
0
ENDSEC
0
SECTION
2
TABLES
0
TABLE
2
VPORT
5
8
100
AcDbSymbolTable
0
ENDTAB
0
TABLE
2
LTYPE
5
5
100
AcDbSymbolTable
0
LTYPE
5
14
100
AcDbSymbolTableRecord
100
AcDbLinetypeTableRecord
2
BYBLOCK
70
0
0
LTYPE
5
15
100
AcDbSymbolTableRecord
100
AcDbLinetypeTableRecord
2
BYLAYER
70
0
0
ENDTAB
0
TABLE
2
LAYER
5
2
100
AcDbSymbolTable
70
2
0
LAYER
5
50
100
AcDbSymbolTableRecord
100
AcDbLayerTableRecord
2
0
70
0
6
CONTINUOUS
0
ENDTAB
0
TABLE
2
STYLE
5
3
100
AcDbSymbolTable
70
1
0
STYLE
5
11
100
AcDbSymbolTableRecord
100
AcDbTextStyleTableRecord
2
STANDARD
70
0
0
ENDTAB
0
TABLE
2
VIEW
5
6
100
AcDbSymbolTable
70
0
0
ENDTAB
0
TABLE
2
UCS
5
7
100
AcDbSymbolTable
70
0
0
ENDTAB
0
TABLE
2
APPID
5
9
100
AcDbSymbolTable
70
2
0
APPID
5
12
100
AcDbSymbolTableRecord
100
AcDbRegAppTableRecord
2
ACAD
70
0
0
ENDTAB
0
TABLE
2
DIMSTYLE
5
A
100
AcDbSymbolTable
70
1
0
ENDTAB
0
TABLE
2
BLOCK_RECORD
5
1
100
AcDbSymbolTable
70
1
0
BLOCK_RECORD
5
1F
100
AcDbSymbolTableRecord
100
AcDbBlockTableRecord
2
*MODEL_SPACE
0
BLOCK_RECORD
5
1B
100
AcDbSymbolTableRecord
100
AcDbBlockTableRecord
2
*PAPER_SPACE
0
ENDTAB
0
ENDSEC
0
SECTION
2
BLOCKS
0
BLOCK
5
20
100
AcDbEntity
100
AcDbBlockBegin
2
*MODEL_SPACE
0
ENDBLK
5
21
100
AcDbEntity
100
AcDbBlockEnd
0
BLOCK
5
1C
100
AcDbEntity
100
AcDbBlockBegin
2
*PAPER_SPACE
0
ENDBLK
5
1D
100
AcDbEntity
100
AcDbBlockEnd
0
ENDSEC
0
SECTION
2
ENTITIES
0
CIRCLE
5
100
100
AcDbEntity
8
0
100
AcDbCircle
10
24.999999806284904
20
62.000000447034836
30
0
40
1.5500000000000003
210
0
220
0
230
1
0
CIRCLE
5
101
100
AcDbEntity
8
0
100
AcDbCircle
10
51.000000193715096
20
62.000000447034836
30
0
40
1.5500000000000003
210
0
220
0
230
1
0
LWPOLYLINE
5
102
100
AcDbEntity
8
0
100
AcDbPolyline
90
6
70
1
43
0.0
10
30.292893114505326
20
31.292893218813454
42
0.41421356237309509
10
30.292893114505326
20
32.707106781186546
10
23.156288590097173
20
39.843711305594709
42
0.75567428985203866
10
21.476041555920446
20
38.906391475233718
42
-0.11667343404787464
10
21.476041555920435
20
25.093608524766292
42
0.75567428985203322
10
23.156288590097173
20
24.156288694405312
0
LWPOLYLINE
5
103
100
AcDbEntity
8
0
100
AcDbPolyline
90
6
70
1
43
0.0
10
45.707106885494682
20
32.707106781186546
42
0.41421356237309509
10
45.707106885494682
20
31.292893218813454
10
52.843711409902951
20
24.156288694405195
42
0.75567428985204499
10
54.523958444079675
20
25.093608524766225
42
-0.11667343404787577
10
54.523958444079653
20
38.906391475233775
42
0.75567428985203633
10
52.843711409902916
20
39.843711305594788
0
LWPOLYLINE
5
104
100
AcDbEntity
8
0
100
AcDbPolyline
90
13
70
1
43
0.0
10
45.541963546755852
20
89.904588451214067
42
0.28365209075782499
10
43.750000134110458
20
87.000000819563866
10
43.750000134110451
20
81.000000730156898
42
0.3462372615207947
10
46.235294251757509
20
77.841247033919274
42
-0.3462372615207997
10
47.000000134110451
20
76.869322819692329
10
47.000000134110437
20
75.856415134462878
42
-0.57735018591267495
10
45.500000350470337
20
74.990389605763042
42
0.067833351620213367
10
41.750000154280407
20
76.52369538307488
42
-0.34199874472147668
10
41.000000044703484
20
77.491941247919371
10
41.000000044703484
20
98.078340362057702
42
-0.77700499114540988
10
42.877895617617874
20
98.557192492738267
10
43.581076175713243
20
97.2680281362301
42
-0.059937385968016982
10
46.05975678487745
20
91.055275842687919
42
-0.35527114759962775
0
LWPOLYLINE
5
105
100
AcDbEntity
8
0
100
AcDbPolyline
90
13
70
1
43
0.0
10
29.764705748242491
20
77.841247033919274
42
0.34623726152079448
10
32.249999865889542
20
81.000000730156898
10
32.249999865889549
20
87.000000819563866
42
0.28365209075782405
10
30.458036453244155
20
89.904588451214067
42
-0.35527114759961836
10
29.94024321512256
20
91.055275842687962
42
-0.059937385968016649
10
32.41892382428675
20
97.268028136230086
10
33.122104382382119
20
98.557192492738267
42
-0.77700499114541643
10
34.999999955296516
20
98.078340362057688
10
34.999999955296509
20
77.491941247919371
42
-0.34199874472147551
10
34.249999845719593
20
76.52369538307488
42
0.067833351620213367
10
30.499999649529677
20
74.990389605763028
42
-0.57735018591267873
10
28.999999865889549
20
75.856415134462878
10
28.999999865889556
20
76.869322819692329
42
-0.34623726152079792
0
LWPOLYLINE
5
106
100
AcDbEntity
8
0
100
AcDbPolyline
90
4
70
1
43
0.0
10
30.39999989569187
20
60.000000417232513
42
0.99999999999999989
10
31.59999989569187
20
60.000000417232513
10
31.599999895691873
20
64.000000476837158
42
0.99999999999999989
10
30.39999989569187
20
64.000000476837158
0
LWPOLYLINE
5
107
100
AcDbEntity
8
0
100
AcDbPolyline
90
4
70
1
43
0.0
10
44.400000104308134
20
60.000000417232513
42
0.99999999999999989
10
45.600000104308123
20
60.000000417232513
10
45.60000010430813
20
64.000000476837158
42
0.99999999999999989
10
44.400000104308134
20
64.000000476837158
0
LWPOLYLINE
5
108
100
AcDbEntity
8
0
100
AcDbPolyline
90
4
70
1
43
0.0
10
28.149999865889548
20
81.000000730156898
42
0.99999999999999989
10
29.849999865889547
20
81.000000730156898
10
29.849999865889547
20
87.000000819563866
42
0.99999999999999989
10
28.149999865889548
20
87.000000819563866
0
LWPOLYLINE
5
109
100
AcDbEntity
8
0
100
AcDbPolyline
90
4
70
1
43
0.0
10
46.150000134110449
20
81.000000730156898
42
0.99999999999999989
10
47.850000134110445
20
81.000000730156898
10
47.850000134110445
20
87.000000819563866
42
0.99999999999999989
10
46.150000134110449
20
87.000000819563866
0
CIRCLE
5
110
100
AcDbEntity
8
0
100
AcDbCircle
10
24.999999806284904
20
100.00000120699411
30
0
40
1.5500000000000003
210
0
220
0
230
1
0
CIRCLE
5
111
100
AcDbEntity
8
0
100
AcDbCircle
10
51.000000193715096
20
100.00000120699404
30
0
40
1.5500000000000003
210
0
220
0
230
1
0
CIRCLE
5
112
100
AcDbEntity
8
0
100
AcDbCircle
10
24.999999806284904
20
114.0000012069941
30
0
40
1.5500000000000003
210
0
220
0
230
1
0
CIRCLE
5
113
100
AcDbEntity
8
0
100
AcDbCircle
10
51.000000193715096
20
114.00000120699406
30
0
40
1.5500000000000003
210
0
220
0
230
1
0
CIRCLE
5
114
100
AcDbEntity
8
0
100
AcDbCircle
10
48
20
22
30
0
40
1.5500000000000003
210
0
220
0
230
1
0
CIRCLE
5
115
100
AcDbEntity
8
0
100
AcDbCircle
10
53.249999999999993
20
16.749999999999996
30
0
40
3.1000000000000005
210
0
220
0
230
1
0
CIRCLE
5
116
100
AcDbEntity
8
0
100
AcDbCircle
10
28
20
22
30
0
40
1.5500000000000003
210
0
220
0
230
1
0
CIRCLE
5
117
100
AcDbEntity
8
0
100
AcDbCircle
10
22.749999999999993
20
16.750000000000004
30
0
40
3.1000000000000005
210
0
220
0
230
1
0
CIRCLE
5
118
100
AcDbEntity
8
0
100
AcDbCircle
10
28
20
42
30
0
40
1.5500000000000003
210
0
220
0
230
1
0
CIRCLE
5
119
100
AcDbEntity
8
0
100
AcDbCircle
10
22.750000000000004
20
47.250000000000007
30
0
40
3.1000000000000005
210
0
220
0
230
1
0
CIRCLE
5
120
100
AcDbEntity
8
0
100
AcDbCircle
10
69.574088695053561
20
7.442375459404893
30
0
40
1.5500000000000025
210
0
220
0
230
1
0
CIRCLE
5
121
100
AcDbEntity
8
0
100
AcDbCircle
10
6.4259113049464318
20
7.442375459404893
30
0
40
1.5500000000000025
210
0
220
0
230
1
0
CIRCLE
5
122
100
AcDbEntity
8
0
100
AcDbCircle
10
6.425911304946947
20
56.557624540596827
30
0
40
1.5500000000000025
210
0
220
0
230
1
0
CIRCLE
5
123
100
AcDbEntity
8
0
100
AcDbCircle
10
48
20
42
30
0
40
1.5500000000000003
210
0
220
0
230
1
0
CIRCLE
5
124
100
AcDbEntity
8
0
100
AcDbCircle
10
53.25
20
47.250000000000007
30
0
40
3.1000000000000005
210
0
220
0
230
1
0
CIRCLE
5
125
100
AcDbEntity
8
0
100
AcDbCircle
10
69.574088695053049
20
56.557624540596827
30
0
40
1.5500000000000025
210
0
220
0
230
1
0
LWPOLYLINE
5
126
100
AcDbEntity
8
0
100
AcDbPolyline
90
8
70
1
43
0.0
10
41.240492362922183
20
54.376080703113388
42
0.52287811404097384
10
41.843842065599901
20
55.903708792345832
42
-0.31870494854493991
10
42.221153919167158
20
68.62811191968953
42
0.47547544174478107
10
41.850961614462832
20
70.134500865494587
42
0.22474898539631993
10
34.149038385537168
20
70.134500865494587
42
0.47547544174477924
10
33.778846080832842
20
68.62811191968953
42
-0.31870494854494014
10
34.156157934400106
20
55.903708792345824
42
0.52287811404097506
10
34.759507637077817
20
54.376080703113409
42
0.11605655350124455
0
LWPOLYLINE
5
127
100
AcDbEntity
8
0
100
AcDbPolyline
90
6
70
1
43
0.0
10
38.707106781186553
20
39.707106885494674
10
45.524815633631228
20
46.524815737939349
42
0.78871115652438961
10
44.507812995515351
20
48.182693026587117
42
-0.15885818231515594
10
31.492187004484641
20
48.182693026587124
42
0.78871115652438539
10
30.475184366368794
20
46.524815737939349
10
37.292893218813454
20
39.707106885494674
42
0.4142135623730932
0
LWPOLYLINE
5
128
100
AcDbEntity
8
0
100
AcDbPolyline
90
6
70
1
43
0.0
10
43.58578655683619
20
16.999999776482582
42
0.66817863791929955
10
44.292893338022736
20
18.707106557669132
10
38.707106781186546
20
24.292893114505326
42
0.41421356237309415
10
37.292893218813454
20
24.292893114505322
10
31.707106661977257
20
18.707106557669132
42
0.66817863791930054
10
32.414213443163796
20
16.999999776482582
0
LWPOLYLINE
5
129
100
AcDbEntity
8
0
100
AcDbPolyline
90
26
70
1
43
0.0
10
28.094211773966407
20
11.20299624288239
42
0.1625039258113305
10
16.080107495294403
20
7.1924083457590591
10
10.029642384940303
20
2.646217526037018
42
-0.98347700290516538
10
2.6643997276827425
20
12.115815228225344
10
6.075957414949464
20
14.861675744663057
42
0.4788027364291525
10
6.0759574149494107
20
49.138324255336997
10
2.6643997276827305
20
51.884184771774656
42
-0.98347700290516538
10
10.029642384940313
20
61.35378247396298
10
10.489245624205877
20
61.008446373522176
42
0.49007361723001031
10
17.350255559897185
20
62.884902923251069
42
0.098435895029332171
10
20.999999746680235
20
81.243955439713403
10
20.999999806284944
20
114.0000012069941
42
-0.57430513017456586
10
26.968228831990064
20
117.48225256242087
42
0.26305304810131197
10
49.031771168009904
20
117.48225256242085
42
-0.57430513017456242
10
55.000000193715096
20
114.00000120699406
10
55.000000193715096
20
81.243955503660104
42
0.098435895550202199
10
58.649744418381701
20
62.884902895682046
42
0.49007361659023885
10
65.510754350521395
20
61.008446354532786
10
65.970357615059683
20
61.35378247396298
42
-0.98347700290516538
10
73.335600272317265
20
51.884184771774656
10
69.924042585050657
20
49.138324255337047
42
0.47880273642914528
10
69.924042585050245
20
14.861675744663419
10
73.335600272317251
20
12.115815228225355
42
-0.98347700290516693
10
65.970357615059683
20
2.6462175260370202
10
59.919892504705594
20
7.1924083457590582
42
0.1625039258113305
10
47.905788226033586
20
11.20299624288239
0
ENDSEC
0
SECTION
2
OBJECTS
0
DICTIONARY
5
C
100
AcDbDictionary
3
ACAD_GROUP
350
D
3
ACAD_MLINESTYLE
350
17
0
DICTIONARY
5
D
100
AcDbDictionary
0
DICTIONARY
5
1A
330
C
100
AcDbDictionary
0
DICTIONARY
5
17
100
AcDbDictionary
0
ENDSEC
0
EOF
