0
SECTION
2
HEADER
9
$INSUNITS
70
4
9
$ACADVER
1
AC1014
9
$HANDSEED
5
FFFF
0
ENDSEC
0
SECTION
2
TABLES
0
TABLE
2
VPORT
5
8
100
AcDbSymbolTable
0
ENDTAB
0
TABLE
2
LTYPE
5
5
100
AcDbSymbolTable
0
LTYPE
5
14
100
AcDbSymbolTableRecord
100
AcDbLinetypeTableRecord
2
BYBLOCK
70
0
0
LTYPE
5
15
100
AcDbSymbolTableRecord
100
AcDbLinetypeTableRecord
2
BYLAYER
70
0
0
ENDTAB
0
TABLE
2
LAYER
5
2
100
AcDbSymbolTable
70
2
0
LAYER
5
50
100
AcDbSymbolTableRecord
100
AcDbLayerTableRecord
2
0
70
0
6
CONTINUOUS
0
ENDTAB
0
TABLE
2
STYLE
5
3
100
AcDbSymbolTable
70
1
0
STYLE
5
11
100
AcDbSymbolTableRecord
100
AcDbTextStyleTableRecord
2
STANDARD
70
0
0
ENDTAB
0
TABLE
2
VIEW
5
6
100
AcDbSymbolTable
70
0
0
ENDTAB
0
TABLE
2
UCS
5
7
100
AcDbSymbolTable
70
0
0
ENDTAB
0
TABLE
2
APPID
5
9
100
AcDbSymbolTable
70
2
0
APPID
5
12
100
AcDbSymbolTableRecord
100
AcDbRegAppTableRecord
2
ACAD
70
0
0
ENDTAB
0
TABLE
2
DIMSTYLE
5
A
100
AcDbSymbolTable
70
1
0
ENDTAB
0
TABLE
2
BLOCK_RECORD
5
1
100
AcDbSymbolTable
70
1
0
BLOCK_RECORD
5
1F
100
AcDbSymbolTableRecord
100
AcDbBlockTableRecord
2
*MODEL_SPACE
0
BLOCK_RECORD
5
1B
100
AcDbSymbolTableRecord
100
AcDbBlockTableRecord
2
*PAPER_SPACE
0
ENDTAB
0
ENDSEC
0
SECTION
2
BLOCKS
0
BLOCK
5
20
100
AcDbEntity
100
AcDbBlockBegin
2
*MODEL_SPACE
0
ENDBLK
5
21
100
AcDbEntity
100
AcDbBlockEnd
0
BLOCK
5
1C
100
AcDbEntity
100
AcDbBlockBegin
2
*PAPER_SPACE
0
ENDBLK
5
1D
100
AcDbEntity
100
AcDbBlockEnd
0
ENDSEC
0
SECTION
2
ENTITIES
0
ARC
5
100
100
AcDbEntity
8
0
100
AcDbCircle
10
26.229376367231882
20
7.7953402064512289e-05
30
0
40
10.000000000607494
210
0
220
0
230
1
100
AcDbArc
50
180.00089326024386
51
200.0792521648508
0
ARC
5
101
100
AcDbEntity
8
0
100
AcDbCircle
10
1.4210854715202004e-13
20
17.471536177872995
30
0
40
4.0000000000000284
210
0
220
0
230
1
100
AcDbArc
50
230.00093128520078
51
309.99906871479914
0
ARC
5
102
100
AcDbEntity
8
0
100
AcDbCircle
10
-26.22937636783935
20
7.7949969734397717e-05
30
0
40
9.9999999999997122
210
-0
220
0
230
1
100
AcDbArc
50
339.92074785481469
51
359.99910675934109
0
ARC
5
103
100
AcDbEntity
8
0
100
AcDbCircle
10
-26.229376367839528
20
-7.7949969904400618e-05
30
0
40
9.9999999987846504
210
0
220
-0
230
1
100
AcDbArc
50
0
51
20.079252145185823
0
ARC
5
104
100
AcDbEntity
8
0
100
AcDbCircle
10
-37.500000005836291
20
34.619601460271518
30
0
40
22.000000007723905
210
-0
220
0
230
1
100
AcDbArc
50
318.95877024968632
51
319.08386040948909
0
CIRCLE
5
105
100
AcDbEntity
8
0
100
AcDbCircle
10
-15.249999999999771
20
15.24984409999502
30
0
40
1.5000000000000002
210
0
220
0
230
1
0
ARC
5
106
100
AcDbEntity
8
0
100
AcDbCircle
10
26.229376367839627
20
-7.7949969988916346e-05
30
0
40
9.9999999999999467
210
0
220
0
230
1
100
AcDbArc
50
159.9207478548137
51
180
0
CIRCLE
5
107
100
AcDbEntity
8
0
100
AcDbCircle
10
-30.09924240491727
20
30.099086504912517
30
0
40
1.5000000000000002
210
0
220
-0
230
1
0
LINE
5
108
100
AcDbEntity
8
0
100
AcDbLine
10
-16.83719000886083
20
3.4331181373381696
30
0
11
-34.138779103762808
21
27.152538820132904
31
0
0
LINE
5
109
100
AcDbEntity
8
0
100
AcDbLine
10
-2.5711006332822417
20
14.40731661434052
30
0
11
-26.968720651551976
21
33.997782896234455
31
0
0
ARC
5
110
100
AcDbEntity
8
0
100
AcDbCircle
10
-30.09924240491727
20
30.099086504912517
30
0
40
5.0000000000000009
210
0
220
-0
230
1
100
AcDbArc
50
51.236710161470107
51
216.10802614603111
0
ARC
5
111
100
AcDbEntity
8
0
100
AcDbCircle
10
30.099242404917508
20
30.099086504912425
30
0
40
4.9999999999999973
210
-0
220
0
230
1
100
AcDbArc
50
-36.1080261460312
51
128.76328983852972
0
ARC
5
112
100
AcDbEntity
8
0
100
AcDbCircle
10
37.50000000583654
20
34.619601460271419
30
0
40
22.000000007723909
210
0
220
0
230
1
100
AcDbArc
50
220.91613959051074
51
221.04122975031351
0
CIRCLE
5
113
100
AcDbEntity
8
0
100
AcDbCircle
10
15.249999999999966
20
15.249844099994974
30
0
40
1.5000000000000002
210
0
220
0
230
1
0
CIRCLE
5
114
100
AcDbEntity
8
0
100
AcDbCircle
10
30.099242404917508
20
30.099086504912425
30
0
40
1.5000000000000002
210
0
220
-0
230
1
0
LINE
5
115
100
AcDbEntity
8
0
100
AcDbLine
10
2.571100633282434
20
14.407316614340511
30
0
11
26.968720651552225
21
33.997782896234376
31
0
0
LINE
5
116
100
AcDbEntity
8
0
100
AcDbLine
10
16.837190008860993
20
3.433118137338127
30
0
11
34.138779103763042
21
27.152538820132808
31
0
0
CIRCLE
5
117
100
AcDbEntity
8
0
100
AcDbCircle
10
-30.099178978622732
20
-30.099051944330949
30
0
40
1.5000000000000002
210
0
220
-0
230
1
0
ARC
5
118
100
AcDbEntity
8
0
100
AcDbCircle
10
-30.099178978622732
20
-30.099051944330949
30
0
40
4.9999999999999982
210
0
220
0
230
1
100
AcDbArc
50
143.89209459055922
51
308.76341057512002
0
LINE
5
119
100
AcDbEntity
8
0
100
AcDbLine
10
-2.571070273547047
20
-14.407224045088775
30
0
11
-26.96864900973242
21
-33.997741738849058
31
0
0
ARC
5
120
100
AcDbEntity
8
0
100
AcDbCircle
10
3.6816809450002097e-05
20
-17.471438190659999
30
0
40
4.0000000000000373
210
0
220
-0
230
1
100
AcDbArc
50
50.001052021790997
51
129.99918945138938
0
ARC
5
121
100
AcDbEntity
8
0
100
AcDbCircle
10
-37.499927053665544
20
-34.619582494933965
30
0
40
22.000000007723894
210
-0
220
0
230
1
100
AcDbArc
50
40.916260327101128
51
41.041350486903859
0
CIRCLE
5
122
100
AcDbEntity
8
0
100
AcDbCircle
10
-15.249967864819514
20
-15.249778248365111
30
0
40
1.5000000000000002
210
0
220
0
230
1
0
LINE
5
123
100
AcDbEntity
8
0
100
AcDbLine
10
-16.837182774484969
20
-3.4330556303422739
30
0
11
-34.138721886574942
21
-27.152512771875745
31
0
0
ARC
5
124
100
AcDbEntity
8
0
100
AcDbCircle
10
30.099242404917508
20
-30.099086504912425
30
0
40
5.0000000000000053
210
0
220
0
230
1
100
AcDbArc
50
-128.76328983852972
51
36.108026146031236
0
ARC
5
125
100
AcDbEntity
8
0
100
AcDbCircle
10
37.50000000583654
20
-34.619601460271419
30
0
40
22.000000007723912
210
0
220
0
230
1
100
AcDbArc
50
138.95877024968649
51
139.08386040948926
0
LINE
5
126
100
AcDbEntity
8
0
100
AcDbLine
10
2.5711006332824304
20
-14.407316614340511
30
0
11
26.968720651552225
21
-33.997782896234376
31
0
0
LINE
5
127
100
AcDbEntity
8
0
100
AcDbLine
10
16.837190008860993
20
-3.433118137338127
30
0
11
34.138779103763035
21
-27.152538820132808
31
0
0
CIRCLE
5
128
100
AcDbEntity
8
0
100
AcDbCircle
10
30.099242404917508
20
-30.099086504912425
30
0
40
1.5000000000000002
210
0
220
-0
230
1
0
CIRCLE
5
129
100
AcDbEntity
8
0
100
AcDbCircle
10
15.249999999999968
20
-15.249844099994974
30
0
40
1.5000000000000002
210
0
220
0
230
1
0
ENDSEC
0
SECTION
2
OBJECTS
0
DICTIONARY
5
C
100
AcDbDictionary
3
ACAD_GROUP
350
D
3
ACAD_MLINESTYLE
350
17
0
DICTIONARY
5
D
100
AcDbDictionary
0
DICTIONARY
5
1A
330
C
100
AcDbDictionary
0
DICTIONARY
5
17
100
AcDbDictionary
0
ENDSEC
0
EOF
