0
SECTION
2
HEADER
9
$INSUNITS
70
4
9
$ACADVER
1
AC1014
9
$HANDSEED
5
FFFF
0
ENDSEC
0
SECTION
2
TABLES
0
TABLE
2
VPORT
5
8
100
AcDbSymbolTable
0
ENDTAB
0
TABLE
2
LTYPE
5
5
100
AcDbSymbolTable
0
LTYPE
5
14
100
AcDbSymbolTableRecord
100
AcDbLinetypeTableRecord
2
BYBLOCK
70
0
0
LTYPE
5
15
100
AcDbSymbolTableRecord
100
AcDbLinetypeTableRecord
2
BYLAYER
70
0
0
ENDTAB
0
TABLE
2
LAYER
5
2
100
AcDbSymbolTable
70
2
0
LAYER
5
50
100
AcDbSymbolTableRecord
100
AcDbLayerTableRecord
2
0
70
0
6
CONTINUOUS
0
ENDTAB
0
TABLE
2
STYLE
5
3
100
AcDbSymbolTable
70
1
0
STYLE
5
11
100
AcDbSymbolTableRecord
100
AcDbTextStyleTableRecord
2
STANDARD
70
0
0
ENDTAB
0
TABLE
2
VIEW
5
6
100
AcDbSymbolTable
70
0
0
ENDTAB
0
TABLE
2
UCS
5
7
100
AcDbSymbolTable
70
0
0
ENDTAB
0
TABLE
2
APPID
5
9
100
AcDbSymbolTable
70
2
0
APPID
5
12
100
AcDbSymbolTableRecord
100
AcDbRegAppTableRecord
2
ACAD
70
0
0
ENDTAB
0
TABLE
2
DIMSTYLE
5
A
100
AcDbSymbolTable
70
1
0
ENDTAB
0
TABLE
2
BLOCK_RECORD
5
1
100
AcDbSymbolTable
70
1
0
BLOCK_RECORD
5
1F
100
AcDbSymbolTableRecord
100
AcDbBlockTableRecord
2
*MODEL_SPACE
0
BLOCK_RECORD
5
1B
100
AcDbSymbolTableRecord
100
AcDbBlockTableRecord
2
*PAPER_SPACE
0
ENDTAB
0
ENDSEC
0
SECTION
2
BLOCKS
0
BLOCK
5
20
100
AcDbEntity
100
AcDbBlockBegin
2
*MODEL_SPACE
0
ENDBLK
5
21
100
AcDbEntity
100
AcDbBlockEnd
0
BLOCK
5
1C
100
AcDbEntity
100
AcDbBlockBegin
2
*PAPER_SPACE
0
ENDBLK
5
1D
100
AcDbEntity
100
AcDbBlockEnd
0
ENDSEC
0
SECTION
2
ENTITIES
0
LWPOLYLINE
5
100
100
AcDbEntity
8
0
100
AcDbPolyline
90
76
70
1
43
0.0
10
2.5000000000000133
20
-36.660315704925033
42
0.30858453063525881
10
3.7701705922171804
20
-38.522397613847232
42
-0.38698635041848573
10
5.2607328013027725
20
-41.540157107526227
10
1.8935485855735166
20
-51.443796360717108
42
-0.7162233119421858
10
-1.8935485855734946
20
-51.443796360717108
10
-5.2607328013027459
20
-41.540157107526227
42
-0.38698635041848323
10
-3.770170592217168
20
-38.522397613847239
42
0.30858453063526031
10
-2.4999999999999889
20
-36.660315704925026
10
-2.4999999999999867
20
-19.500000000000004
42
0.41421356237309431
10
-5.4999999999999885
20
-16.5
10
-13.171572875253819
20
-16.5
42
0.66817863791930454
10
-13.525126265847092
20
-17.35355339059327
10
-12.964466094067269
20
-17.914213562373092
42
-0.41421356237309764
10
-12.964466094067266
20
-19.328427124746192
10
-13.67157287525381
20
-20.035533905932731
42
-0.41421356237309276
10
-15.085786437626902
20
-20.035533905932731
10
-20.035533905932734
20
-15.085786437626902
42
-0.41421356237309326
10
-20.035533905932738
20
-13.671572875253803
10
-19.328427124746199
20
-12.964466094067259
42
-0.4142135623730972
10
-17.914213562373096
20
-12.964466094067262
10
-17.35355339059328
20
-13.525126265847081
42
0.6681786379192971
10
-16.500000000000007
20
-13.171572875253808
10
-16.5
20
-5.4999999999999947
42
0.41421356237309531
10
-19.500000000000004
20
-2.4999999999999947
10
-36.660315704925026
20
-2.5000000000000044
42
0.30858453063526192
10
-38.522397613847239
20
-3.7701705922171729
42
-0.38698635041848578
10
-41.540157107526227
20
-5.2607328013027637
10
-51.443796360717101
20
-1.8935485855735044
42
-0.7162233119421858
10
-51.443796360717108
20
1.8935485855735035
10
-41.540157107526213
20
5.2607328013027574
42
-0.38698635041848423
10
-38.522397613847239
20
3.7701705922171769
42
0.30858453063526115
10
-36.660315704925026
20
2.4999999999999956
10
-19.500000000000007
20
2.4999999999999889
42
0.41421356237309465
10
-16.499999999999996
20
5.4999999999999893
10
-16.5
20
10.499999999999996
42
-0.41421356237309509
10
-10.499999999999998
20
16.499999999999996
10
-5.5000000000000142
20
16.499999999999996
42
0.41421356237309465
10
-2.5000000000000124
20
19.5
10
-2.5
20
36.660315704925033
42
0.30858453063526098
10
-3.7701705922171769
20
38.522397613847239
42
-0.38698635041848606
10
-5.2607328013027637
20
41.540157107526227
10
-1.8935485855735124
20
51.443796360717108
42
-0.71622331194218536
10
1.8935485855734946
20
51.443796360717108
10
5.2607328013027495
20
41.540157107526227
42
-0.38698635041848367
10
3.7701705922171702
20
38.522397613847239
42
0.30858453063526031
10
2.4999999999999889
20
36.660315704925026
10
2.5000000000000062
20
19.5
42
0.4142135623730942
10
5.5000000000000053
20
16.500000000000004
10
13.171572875253808
20
16.500000000000007
42
0.66817863791929699
10
13.525126265847081
20
17.35355339059328
10
12.964466094067262
20
17.914213562373096
42
-0.4142135623730972
10
12.964466094067264
20
19.328427124746195
10
13.671572875253805
20
20.035533905932738
42
-0.41421356237309326
10
15.085786437626902
20
20.035533905932734
10
20.035533905932734
20
15.085786437626902
42
-0.41421356237309276
10
20.035533905932734
20
13.671572875253808
10
19.328427124746192
20
12.964466094067266
42
-0.41421356237309764
10
17.914213562373096
20
12.964466094067266
10
17.353553390593273
20
13.525126265847089
42
0.66817863791930465
10
16.5
20
13.171572875253819
10
16.5
20
5.5000000000000204
42
0.4142135623730947
10
19.5
20
2.50000000000002
10
36.66031570492504
20
2.5000000000000111
42
0.30858453063526248
10
38.522397613847247
20
3.7701705922172026
42
-0.38698635041848461
10
41.540157107526234
20
5.2607328013027832
10
51.443796360717116
20
1.8935485855735334
42
-0.71622331194218236
10
51.443796360717116
20
-1.8935485855734813
10
41.540157107526227
20
-5.260732801302737
42
-0.38698635041848362
10
38.522397613847247
20
-3.7701705922171636
42
0.30858453063525859
10
36.660315704925033
20
-2.4999999999999822
10
19.499999999999996
20
-2.500000000000004
42
0.41421356237309404
10
16.5
20
-5.5000000000000062
10
16.5
20
-10.500000000000004
42
-0.41421356237309581
10
10.499999999999998
20
-16.499999999999996
10
5.5000000000000124
20
-16.5
42
0.41421356237309498
10
2.5000000000000142
20
-19.5
0
CIRCLE
5
101
100
AcDbEntity
8
0
100
AcDbCircle
10
40.850000000000009
20
2.857883832488668
30
0
40
0.69999999999999796
210
0
220
0
230
1
0
CIRCLE
5
102
100
AcDbEntity
8
0
100
AcDbCircle
10
-12.749999999999995
20
-12.750000000000005
30
0
40
1.0000000000000004
210
0
220
0
230
1
0
LWPOLYLINE
5
103
100
AcDbEntity
8
0
100
AcDbPolyline
90
4
70
1
43
0.0
10
0.70000000000001172
20
-45.799999999999997
10
0.70000000000000728
20
-49.800000000000004
42
-0.99999999999999989
10
-0.69999999999998508
20
-49.800000000000004
10
-0.69999999999998508
20
-45.799999999999997
42
-0.99999999999999989
0
LWPOLYLINE
5
104
100
AcDbEntity
8
0
100
AcDbPolyline
90
4
70
1
43
0.0
10
-45.799999999999997
20
-0.70000000000000284
42
0.99999999999999989
10
-45.799999999999997
20
0.69999999999999396
10
-49.800000000000004
20
0.69999999999999396
42
0.99999999999999989
10
-49.800000000000004
20
-0.70000000000000284
0
CIRCLE
5
105
100
AcDbEntity
8
0
100
AcDbCircle
10
-2.8578838324886546
20
40.850000000000001
30
0
40
0.69999999999999796
210
0
220
0
230
1
0
CIRCLE
5
106
100
AcDbEntity
8
0
100
AcDbCircle
10
-42.5
20
0
30
0
40
2.0000000000000009
210
0
220
0
230
1
0
LWPOLYLINE
5
107
100
AcDbEntity
8
0
100
AcDbPolyline
90
4
70
1
43
0.0
10
49.800000000000004
20
-0.6999999999999762
10
45.79999999999999
20
-0.6999999999999762
42
-0.99999999999999989
10
45.800000000000011
20
0.70000000000003393
10
49.800000000000004
20
0.70000000000004725
42
-0.99999999999999989
0
CIRCLE
5
108
100
AcDbEntity
8
0
100
AcDbCircle
10
2.8578838324886369
20
40.850000000000001
30
0
40
0.69999999999999796
210
0
220
0
230
1
0
CIRCLE
5
109
100
AcDbEntity
8
0
100
AcDbCircle
10
-8.8817841970012523e-15
20
42.5
30
0
40
2.0000000000000009
210
0
220
0
230
1
0
CIRCLE
5
110
100
AcDbEntity
8
0
100
AcDbCircle
10
-2.8578838324886302
20
-40.850000000000009
30
0
40
0.69999999999999796
210
0
220
0
230
1
0
LWPOLYLINE
5
111
100
AcDbEntity
8
0
100
AcDbPolyline
90
4
70
1
43
0.0
10
-0.70000000000000728
20
45.799999999999997
10
-0.70000000000001172
20
49.800000000000004
42
-0.99999999999999989
10
0.69999999999999396
20
49.800000000000004
10
0.69999999999999396
20
45.799999999999997
42
-0.99999999999999989
0
CIRCLE
5
112
100
AcDbEntity
8
0
100
AcDbCircle
10
12.749999999999995
20
12.750000000000005
30
0
40
0.99999999999999911
210
0
220
0
230
1
0
CIRCLE
5
113
100
AcDbEntity
8
0
100
AcDbCircle
10
40.850000000000009
20
-2.8578838324886235
30
0
40
0.69999999999999796
210
0
220
0
230
1
0
CIRCLE
5
114
100
AcDbEntity
8
0
100
AcDbCircle
10
42.5
20
1.7763568394002505e-14
30
0
40
2.0000000000000009
210
0
220
0
230
1
0
CIRCLE
5
115
100
AcDbEntity
8
0
100
AcDbCircle
10
12.750000000000005
20
-12.749999999999995
30
0
40
0.99999999999999933
210
0
220
0
230
1
0
CIRCLE
5
116
100
AcDbEntity
8
0
100
AcDbCircle
10
-40.850000000000001
20
-2.857883832488648
30
0
40
0.69999999999999796
210
0
220
0
230
1
0
CIRCLE
5
117
100
AcDbEntity
8
0
100
AcDbCircle
10
-12.750000000000005
20
12.749999999999995
30
0
40
1.0000000000000004
210
0
220
0
230
1
0
CIRCLE
5
118
100
AcDbEntity
8
0
100
AcDbCircle
10
-40.850000000000001
20
2.8578838324886457
30
0
40
0.69999999999999796
210
0
220
0
230
1
0
CIRCLE
5
119
100
AcDbEntity
8
0
100
AcDbCircle
10
8.8817841970012523e-15
20
-42.5
30
0
40
2.0000000000000009
210
0
220
0
230
1
0
CIRCLE
5
120
100
AcDbEntity
8
0
100
AcDbCircle
10
2.8578838324886546
20
-40.850000000000001
30
0
40
0.69999999999999796
210
0
220
0
230
1
0
LWPOLYLINE
5
121
100
AcDbEntity
8
0
100
AcDbPolyline
90
6
70
1
43
0.0
10
12.292893218813452
20
-2.5000000000000093
10
3.0000000000000133
20
-2.5000000000000089
42
0.41421356237309537
10
2.5000000000000133
20
-3.0000000000000089
10
2.5000000000000124
20
-12.29289321881345
42
0.66817863791929821
10
3.3535533905932868
20
-12.64644660940673
10
12.64644660940673
20
-3.3535533905932855
42
0.66817863791930165
0
LWPOLYLINE
5
122
100
AcDbEntity
8
0
100
AcDbPolyline
90
10
70
1
43
0.0
10
-5.5000000000000142
20
-2.5000000000000089
10
-13
20
-2.5000000000000115
42
0.41421356237309243
10
-13.5
20
-3.0000000000000093
10
-13.5
20
-9.7604348142246593
42
0.43886622996571628
10
-12.958333333333332
20
-10.258695678520551
42
-0.46397445803647064
10
-10.258695678520539
20
-12.958333333333336
42
0.43886622996571145
10
-9.7604348142246451
20
-13.5
10
-3.0000000000000138
20
-13.5
42
0.41421356237309243
10
-2.5000000000000133
20
-13
10
-2.5000000000000142
20
-5.500000000000008
42
0.41421356237309503
0
LWPOLYLINE
5
123
100
AcDbEntity
8
0
100
AcDbPolyline
90
6
70
1
43
0.0
10
-12.292893218813452
20
2.5000000000000093
10
-3.0000000000000133
20
2.5000000000000089
42
0.41421356237309537
10
-2.5000000000000133
20
3.0000000000000089
10
-2.5000000000000124
20
12.29289321881345
42
0.66817863791929821
10
-3.3535533905932868
20
12.64644660940673
10
-12.64644660940673
20
3.3535533905932855
42
0.66817863791930165
0
LWPOLYLINE
5
124
100
AcDbEntity
8
0
100
AcDbPolyline
90
10
70
1
43
0.0
10
5.5000000000000142
20
2.5000000000000089
10
13
20
2.5000000000000115
42
0.41421356237309243
10
13.5
20
3.0000000000000093
10
13.5
20
9.7604348142246575
42
0.438866229965717
10
12.958333333333334
20
10.258695678520549
42
-0.46397445803647086
10
10.258695678520537
20
12.958333333333336
42
0.43886622996571145
10
9.7604348142246433
20
13.5
10
3.0000000000000151
20
13.5
42
0.41421356237309309
10
2.5000000000000133
20
13
10
2.5000000000000142
20
5.500000000000008
42
0.41421356237309503
0
ENDSEC
0
SECTION
2
OBJECTS
0
DICTIONARY
5
C
100
AcDbDictionary
3
ACAD_GROUP
350
D
3
ACAD_MLINESTYLE
350
17
0
DICTIONARY
5
D
100
AcDbDictionary
0
DICTIONARY
5
1A
330
C
100
AcDbDictionary
0
DICTIONARY
5
17
100
AcDbDictionary
0
ENDSEC
0
EOF
