0
SECTION
2
HEADER
9
$INSUNITS
70
4
9
$ACADVER
1
AC1014
9
$HANDSEED
5
FFFF
0
ENDSEC
0
SECTION
2
TABLES
0
TABLE
2
VPORT
5
8
100
AcDbSymbolTable
0
ENDTAB
0
TABLE
2
LTYPE
5
5
100
AcDbSymbolTable
0
LTYPE
5
14
100
AcDbSymbolTableRecord
100
AcDbLinetypeTableRecord
2
BYBLOCK
70
0
0
LTYPE
5
15
100
AcDbSymbolTableRecord
100
AcDbLinetypeTableRecord
2
BYLAYER
70
0
0
ENDTAB
0
TABLE
2
LAYER
5
2
100
AcDbSymbolTable
70
2
0
LAYER
5
50
100
AcDbSymbolTableRecord
100
AcDbLayerTableRecord
2
0
70
0
6
CONTINUOUS
0
ENDTAB
0
TABLE
2
STYLE
5
3
100
AcDbSymbolTable
70
1
0
STYLE
5
11
100
AcDbSymbolTableRecord
100
AcDbTextStyleTableRecord
2
STANDARD
70
0
0
ENDTAB
0
TABLE
2
VIEW
5
6
100
AcDbSymbolTable
70
0
0
ENDTAB
0
TABLE
2
UCS
5
7
100
AcDbSymbolTable
70
0
0
ENDTAB
0
TABLE
2
APPID
5
9
100
AcDbSymbolTable
70
2
0
APPID
5
12
100
AcDbSymbolTableRecord
100
AcDbRegAppTableRecord
2
ACAD
70
0
0
ENDTAB
0
TABLE
2
DIMSTYLE
5
A
100
AcDbSymbolTable
70
1
0
ENDTAB
0
TABLE
2
BLOCK_RECORD
5
1
100
AcDbSymbolTable
70
1
0
BLOCK_RECORD
5
1F
100
AcDbSymbolTableRecord
100
AcDbBlockTableRecord
2
*MODEL_SPACE
0
BLOCK_RECORD
5
1B
100
AcDbSymbolTableRecord
100
AcDbBlockTableRecord
2
*PAPER_SPACE
0
ENDTAB
0
ENDSEC
0
SECTION
2
BLOCKS
0
BLOCK
5
20
100
AcDbEntity
100
AcDbBlockBegin
2
*MODEL_SPACE
0
ENDBLK
5
21
100
AcDbEntity
100
AcDbBlockEnd
0
BLOCK
5
1C
100
AcDbEntity
100
AcDbBlockBegin
2
*PAPER_SPACE
0
ENDBLK
5
1D
100
AcDbEntity
100
AcDbBlockEnd
0
ENDSEC
0
SECTION
2
ENTITIES
0
CIRCLE
5
100
100
AcDbEntity
8
0
100
AcDbCircle
10
-10
20
-10
30
0
40
1.5000000000000009
210
0
220
0
230
1
0
CIRCLE
5
101
100
AcDbEntity
8
0
100
AcDbCircle
10
10
20
-10
30
0
40
1.4999999999999996
210
0
220
0
230
1
0
CIRCLE
5
102
100
AcDbEntity
8
0
100
AcDbCircle
10
10
20
10
30
0
40
1.5000000000000004
210
0
220
0
230
1
0
CIRCLE
5
103
100
AcDbEntity
8
0
100
AcDbCircle
10
-10
20
10
30
0
40
1.5
210
0
220
0
230
1
0
CIRCLE
5
104
100
AcDbEntity
8
0
100
AcDbCircle
10
0
20
0
30
0
40
4
210
0
220
0
230
1
0
LWPOLYLINE
5
105
100
AcDbEntity
8
0
100
AcDbPolyline
90
4
70
1
43
0.0
10
18.75
20
9.5000000000000036
42
-0.99999999999999989
10
21.749999999999989
20
9.5
10
21.75
20
4.5000000000000018
42
-0.99999999999999989
10
18.75
20
4.5000000000000018
0
LWPOLYLINE
5
106
100
AcDbEntity
8
0
100
AcDbPolyline
90
4
70
1
43
0.0
10
21.749999999999989
20
-9.5
42
-0.99999999999999989
10
18.75
20
-9.5000000000000036
10
18.749999999999996
20
-4.5
42
-0.99999999999999989
10
21.749999999999993
20
-4.5000000000000018
0
CIRCLE
5
107
100
AcDbEntity
8
0
100
AcDbCircle
10
-15.249999999996595
20
15.250000000003405
30
0
40
2.2500000000000013
210
0
220
0
230
1
0
CIRCLE
5
108
100
AcDbEntity
8
0
100
AcDbCircle
10
15.250000000003464
20
15.249999999996549
30
0
40
2.2500000000000009
210
0
220
0
230
1
0
CIRCLE
5
109
100
AcDbEntity
8
0
100
AcDbCircle
10
-15.250000000003352
20
-15.24999999999665
30
0
40
2.25
210
0
220
0
230
1
0
CIRCLE
5
110
100
AcDbEntity
8
0
100
AcDbCircle
10
15.250000000000004
20
-15.250000000000004
30
0
40
2.2500000000000004
210
0
220
0
230
1
0
CIRCLE
5
111
100
AcDbEntity
8
0
100
AcDbCircle
10
21.999999999996422
20
21.999999999995016
30
0
40
2.2500000000000004
210
0
220
0
230
1
0
CIRCLE
5
112
100
AcDbEntity
8
0
100
AcDbCircle
10
-21.999999999996422
20
21.999999999995016
30
0
40
2.2500000000000004
210
0
220
0
230
1
0
CIRCLE
5
113
100
AcDbEntity
8
0
100
AcDbCircle
10
-22.000000000001716
20
-21.99999999999379
30
0
40
2.2500000000000009
210
0
220
0
230
1
0
CIRCLE
5
114
100
AcDbEntity
8
0
100
AcDbCircle
10
21.999999999996422
20
-21.999999999995016
30
0
40
2.25
210
0
220
0
230
1
0
ARC
5
115
100
AcDbEntity
8
0
100
AcDbCircle
10
-22.000000000001716
20
-21.99999999999379
30
0
40
5.9999999999950866
210
0
220
0
230
1
100
AcDbArc
50
149.93141717814345
51
300.06858282186028
0
ARC
5
116
100
AcDbEntity
8
0
100
AcDbCircle
10
-21.999999999996422
20
21.999999999995016
30
0
40
6
210
0
220
-0
230
1
100
AcDbArc
50
59.931417178144855
51
210.06858282185445
0
ARC
5
117
100
AcDbEntity
8
0
100
AcDbCircle
10
21.999999999996412
20
21.999999999995016
30
0
40
5.9999999999999973
210
-0
220
0
230
1
100
AcDbArc
50
-34.411508669732918
51
120.06858282185513
0
LINE
5
118
100
AcDbEntity
8
0
100
AcDbLine
10
26.249999999999993
20
7.6210659700372716
30
0
11
26.249999999999996
21
1.1102230246251565e-15
31
0
0
LINE
5
119
100
AcDbEntity
8
0
100
AcDbLine
10
26.249999999999993
20
7.6210659700372716
30
0
11
26.250000000000018
21
16.34867272227163
31
0
0
ARC
5
120
100
AcDbEntity
8
0
100
AcDbCircle
10
30.249999999999972
20
16.348672722271637
30
0
40
3.9999999999999556
210
0
220
0
230
1
100
AcDbArc
50
145.58849133026695
51
180
0
LINE
5
121
100
AcDbEntity
8
0
100
AcDbLine
10
26.249999999999993
20
-7.6210659700372716
30
0
11
26.249999999999996
21
-1.1102230246251565e-15
31
0
0
LINE
5
122
100
AcDbEntity
8
0
100
AcDbLine
10
26.249999999999993
20
-7.6210659700372716
30
0
11
26.250000000000018
21
-16.34867272227163
31
0
0
ARC
5
123
100
AcDbEntity
8
0
100
AcDbCircle
10
30.249999999999972
20
-16.348672722271637
30
0
40
3.9999999999999547
210
0
220
0
230
1
100
AcDbArc
50
180
51
214.41150866973305
0
ARC
5
124
100
AcDbEntity
8
0
100
AcDbCircle
10
21.999999999996412
20
-21.999999999995016
30
0
40
6
210
0
220
0
230
1
100
AcDbArc
50
-120.06858282185513
51
34.411508669732918
0
ARC
5
125
100
AcDbEntity
8
0
100
AcDbCircle
10
-10.000000000000002
20
-6.3726801613483985e-13
30
0
40
3.0000000000001292
210
0
220
-0
230
1
100
AcDbArc
50
0
51
31.316580746323961
0
ARC
5
126
100
AcDbEntity
8
0
100
AcDbCircle
10
-20.335074496758835
20
-8.2917755747143289
30
0
40
16.229666418545644
210
0
220
-0
230
1
100
AcDbArc
50
37.371419461968536
51
51.731768647124852
0
ARC
5
127
100
AcDbEntity
8
0
100
AcDbCircle
10
-12.296474750924723
20
2.2262163579166563
30
0
40
2.9999999999974856
210
0
220
-0
230
1
100
AcDbArc
50
47.852009149303562
51
182.43656648339817
0
LINE
5
128
100
AcDbEntity
8
0
100
AcDbLine
10
-15.29376245498173
20
2.0986764852937729
30
0
11
-15.293762454981563
21
-9.7360036422800415e-13
31
0
0
CIRCLE
5
129
100
AcDbEntity
8
0
100
AcDbCircle
10
1.1102230246251565e-15
20
18.031222920256962
30
0
40
1.0000000000000004
210
0
220
0
230
1
0
CIRCLE
5
130
100
AcDbEntity
8
0
100
AcDbCircle
10
-18.031222920256962
20
1.1102230246251565e-15
30
0
40
0.99999999999999989
210
0
220
0
230
1
0
CIRCLE
5
131
100
AcDbEntity
8
0
100
AcDbCircle
10
-1.1102230246251565e-15
20
-18.031222920256962
30
0
40
1
210
0
220
0
230
1
0
CIRCLE
5
132
100
AcDbEntity
8
0
100
AcDbCircle
10
18.031222920256962
20
-1.1102230246251565e-15
30
0
40
1.0000000000000004
210
0
220
0
230
1
0
ARC
5
133
100
AcDbEntity
8
0
100
AcDbCircle
10
0
20
60
30
0
40
37.908996800202821
210
0
220
0
230
1
100
AcDbArc
50
239.93141717814481
51
300.0685828218551
0
ARC
5
134
100
AcDbEntity
8
0
100
AcDbCircle
10
-60
20
0
30
0
40
37.908996800200612
210
0
220
0
230
1
100
AcDbArc
50
-30.068582821856555
51
30.068582821854474
0
ARC
5
135
100
AcDbEntity
8
0
100
AcDbCircle
10
0
20
-60
30
0
40
37.908996800202814
210
0
220
-0
230
1
100
AcDbArc
50
59.931417178144855
51
120.06858282186032
0
ARC
5
136
100
AcDbEntity
8
0
100
AcDbCircle
10
-10.000000000000002
20
6.3849946120047406e-13
30
0
40
3.0000000000000551
210
-0
220
0
230
1
100
AcDbArc
50
328.68341925367605
51
360
0
ARC
5
137
100
AcDbEntity
8
0
100
AcDbCircle
10
-20.335074496758835
20
8.2917755747143325
30
0
40
16.229666418545644
210
-0
220
0
230
1
100
AcDbArc
50
308.26823135287515
51
322.62858053803149
0
ARC
5
138
100
AcDbEntity
8
0
100
AcDbCircle
10
-12.296474750924723
20
-2.2262163579166545
30
0
40
2.999999999999996
210
0
220
0
230
1
100
AcDbArc
50
177.56343351660186
51
312.14799085069643
0
LINE
5
139
100
AcDbEntity
8
0
100
AcDbLine
10
-15.29376245498173
20
-2.0986764852937712
30
0
11
-15.293762454981563
21
9.7548370705902113e-13
31
0
0
ARC
5
140
100
AcDbEntity
8
0
100
AcDbCircle
10
6.3948846218409027e-13
20
-10.000000000000004
30
0
40
3.0000000000001306
210
0
220
0
230
1
100
AcDbArc
50
90.000000000012179
51
121.31658074632398
0
ARC
5
141
100
AcDbEntity
8
0
100
AcDbCircle
10
8.291775574714336
20
-20.335074496758839
30
0
40
16.229666418545648
210
0
220
0
230
1
100
AcDbArc
50
127.37141946196857
51
141.73176864712488
0
ARC
5
142
100
AcDbEntity
8
0
100
AcDbCircle
10
-2.2262163579166536
20
-12.296474750924727
30
0
40
2.9999999999974869
210
0
220
0
230
1
100
AcDbArc
50
137.85200914930357
51
272.43656648339805
0
LINE
5
143
100
AcDbEntity
8
0
100
AcDbLine
10
-2.0986764852937698
20
-15.293762454981735
30
0
11
9.7699626167013796e-13
21
-15.293762454981568
31
0
0
LINE
5
144
100
AcDbEntity
8
0
100
AcDbLine
10
2.0986764852937752
20
-15.293762454981735
30
0
11
-9.7208780961688793e-13
21
-15.293762454981568
31
0
0
ARC
5
145
100
AcDbEntity
8
0
100
AcDbCircle
10
2.2262163579166576
20
-12.296474750924727
30
0
40
2.9999999999999982
210
0
220
0
230
1
100
AcDbArc
50
-92.436566483398067
51
42.147990850696424
0
ARC
5
146
100
AcDbEntity
8
0
100
AcDbCircle
10
-6.3627901515122395e-13
20
-10.000000000000004
30
0
40
3.000000000000056
210
0
220
-0
230
1
100
AcDbArc
50
58.683419253676036
51
89.99999999998785
0
ARC
5
147
100
AcDbEntity
8
0
100
AcDbCircle
10
-8.2917755747143289
20
-20.335074496758839
30
0
40
16.229666418545648
210
0
220
-0
230
1
100
AcDbArc
50
38.268231352875148
51
52.628580538031464
0
ARC
5
148
100
AcDbEntity
8
0
100
AcDbCircle
10
10.000000000000002
20
6.3604336933569245e-13
30
0
40
3.0000000000001292
210
0
220
0
230
1
100
AcDbArc
50
180
51
211.31658074632395
0
ARC
5
149
100
AcDbEntity
8
0
100
AcDbCircle
10
20.335074496758835
20
8.2917755747143271
30
0
40
16.229666418545644
210
0
220
0
230
1
100
AcDbArc
50
217.37141946196851
51
231.73176864712488
0
ARC
5
150
100
AcDbEntity
8
0
100
AcDbCircle
10
12.296474750924723
20
-2.2262163579166576
30
0
40
2.9999999999974856
210
0
220
0
230
1
100
AcDbArc
50
-132.14799085069646
51
2.4365664833981682
0
LINE
5
151
100
AcDbEntity
8
0
100
AcDbLine
10
15.29376245498173
20
-2.0986764852937747
30
0
11
15.293762454981563
21
9.717274185042628e-13
31
0
0
LINE
5
152
100
AcDbEntity
8
0
100
AcDbLine
10
15.29376245498173
20
2.0986764852937694
30
0
11
15.293762454981563
21
-9.7735665278276248e-13
31
0
0
ARC
5
153
100
AcDbEntity
8
0
100
AcDbCircle
10
12.296474750924723
20
2.2262163579166532
30
0
40
2.999999999999996
210
0
220
0
230
1
100
AcDbArc
50
-2.4365664833981655
51
132.14799085069643
0
ARC
5
154
100
AcDbEntity
8
0
100
AcDbCircle
10
10.000000000000002
20
-6.3972410799962146e-13
30
0
40
3.0000000000000555
210
0
220
0
230
1
100
AcDbArc
50
148.68341925367602
51
180
0
ARC
5
155
100
AcDbEntity
8
0
100
AcDbCircle
10
20.335074496758835
20
-8.2917755747143342
30
0
40
16.229666418545648
210
0
220
0
230
1
100
AcDbArc
50
128.26823135287515
51
142.62858053803146
0
ARC
5
156
100
AcDbEntity
8
0
100
AcDbCircle
10
-6.3504757008558954e-13
20
10.000000000000002
30
0
40
3.0000000000001292
210
0
220
0
230
1
100
AcDbArc
50
270.00000000001216
51
301.31658074632389
0
ARC
5
157
100
AcDbEntity
8
0
100
AcDbCircle
10
-8.2917755747143254
20
20.335074496758835
30
0
40
16.229666418545644
210
0
220
0
230
1
100
AcDbArc
50
307.37141946196851
51
321.73176864712485
0
ARC
5
158
100
AcDbEntity
8
0
100
AcDbCircle
10
2.2262163579166589
20
12.296474750924723
30
0
40
2.9999999999974856
210
0
220
0
230
1
100
AcDbArc
50
-42.147990850696416
51
92.436566483398067
0
LINE
5
159
100
AcDbEntity
8
0
100
AcDbLine
10
2.098676485293776
20
15.29376245498173
30
0
11
-9.7020446678587054e-13
21
15.293762454981563
31
0
0
LINE
5
160
100
AcDbEntity
8
0
100
AcDbLine
10
-2.098676485293768
20
15.29376245498173
30
0
11
9.7887960450115494e-13
21
15.293762454981563
31
0
0
ARC
5
161
100
AcDbEntity
8
0
100
AcDbCircle
10
-2.2262163579166518
20
12.296474750924723
30
0
40
2.999999999999996
210
0
220
-0
230
1
100
AcDbArc
50
87.563433516601918
51
222.14799085069643
0
ARC
5
162
100
AcDbEntity
8
0
100
AcDbCircle
10
6.4071990724972438e-13
20
10.000000000000002
30
0
40
3.0000000000000555
210
0
220
0
230
1
100
AcDbArc
50
238.68341925367602
51
269.99999999998778
0
ARC
5
163
100
AcDbEntity
8
0
100
AcDbCircle
10
8.291775574714336
20
20.335074496758835
30
0
40
16.229666418545648
210
0
220
0
230
1
100
AcDbArc
50
218.26823135287515
51
232.62858053803143
0
ENDSEC
0
SECTION
2
OBJECTS
0
DICTIONARY
5
C
100
AcDbDictionary
3
ACAD_GROUP
350
D
3
ACAD_MLINESTYLE
350
17
0
DICTIONARY
5
D
100
AcDbDictionary
0
DICTIONARY
5
1A
330
C
100
AcDbDictionary
0
DICTIONARY
5
17
100
AcDbDictionary
0
ENDSEC
0
EOF
