0
SECTION
2
HEADER
9
$INSUNITS
70
4
9
$ACADVER
1
AC1014
9
$HANDSEED
5
FFFF
0
ENDSEC
0
SECTION
2
TABLES
0
TABLE
2
VPORT
5
8
100
AcDbSymbolTable
0
ENDTAB
0
TABLE
2
LTYPE
5
5
100
AcDbSymbolTable
0
LTYPE
5
14
100
AcDbSymbolTableRecord
100
AcDbLinetypeTableRecord
2
BYBLOCK
70
0
0
LTYPE
5
15
100
AcDbSymbolTableRecord
100
AcDbLinetypeTableRecord
2
BYLAYER
70
0
0
ENDTAB
0
TABLE
2
LAYER
5
2
100
AcDbSymbolTable
70
2
0
LAYER
5
50
100
AcDbSymbolTableRecord
100
AcDbLayerTableRecord
2
0
70
0
6
CONTINUOUS
0
ENDTAB
0
TABLE
2
STYLE
5
3
100
AcDbSymbolTable
70
1
0
STYLE
5
11
100
AcDbSymbolTableRecord
100
AcDbTextStyleTableRecord
2
STANDARD
70
0
0
ENDTAB
0
TABLE
2
VIEW
5
6
100
AcDbSymbolTable
70
0
0
ENDTAB
0
TABLE
2
UCS
5
7
100
AcDbSymbolTable
70
0
0
ENDTAB
0
TABLE
2
APPID
5
9
100
AcDbSymbolTable
70
2
0
APPID
5
12
100
AcDbSymbolTableRecord
100
AcDbRegAppTableRecord
2
ACAD
70
0
0
ENDTAB
0
TABLE
2
DIMSTYLE
5
A
100
AcDbSymbolTable
70
1
0
ENDTAB
0
TABLE
2
BLOCK_RECORD
5
1
100
AcDbSymbolTable
70
1
0
BLOCK_RECORD
5
1F
100
AcDbSymbolTableRecord
100
AcDbBlockTableRecord
2
*MODEL_SPACE
0
BLOCK_RECORD
5
1B
100
AcDbSymbolTableRecord
100
AcDbBlockTableRecord
2
*PAPER_SPACE
0
ENDTAB
0
ENDSEC
0
SECTION
2
BLOCKS
0
BLOCK
5
20
100
AcDbEntity
100
AcDbBlockBegin
2
*MODEL_SPACE
0
ENDBLK
5
21
100
AcDbEntity
100
AcDbBlockEnd
0
BLOCK
5
1C
100
AcDbEntity
100
AcDbBlockBegin
2
*PAPER_SPACE
0
ENDBLK
5
1D
100
AcDbEntity
100
AcDbBlockEnd
0
ENDSEC
0
SECTION
2
ENTITIES
0
LWPOLYLINE
5
100
100
AcDbEntity
8
0
100
AcDbPolyline
90
180
70
1
43
0.0
10
74.447874058673577
20
4.8846347715937988
10
73.745035473036623
20
4.8231443630619673
42
0.40385955955197816
10
72.833531848957094
20
3.7751860769415972
42
-0.025899154646982551
10
72.833531848957165
20
-3.7751860769462904
42
0.4038595595520576
10
73.745035473036623
20
-4.8231443630672164
10
74.447874058673577
20
-4.8846347715987548
42
-0.41177131069519635
10
75.357605677809545
20
-5.9596684684154475
42
-0.033946451557166413
10
73.858044218195317
20
-16.102039808942418
42
-0.3526519878696136
10
69.949844099983821
20
-19.250000000003734
10
39.397914644942922
20
-19.250000000022784
10
35.907663520194234
20
-19.250000000022474
42
0.61108000889254999
10
31.847911689241432
20
-27.168632397409816
10
65.863450569726524
20
-74.483479712370027
10
74.374581019481894
20
-79.73330432536865
42
-0.02284681554089385
10
75.506619830520506
20
-80.505084788137367
42
-0.42779514645254291
10
75.762608208973617
20
-82.659628075787253
10
73.150036375753245
20
-85.823721365244637
42
0.3407167426074843
10
73.088776777974246
20
-87.654362850924343
10
73.254652004972883
20
-87.885091550132984
42
0.31753872912663139
10
74.890554058466975
20
-88.45009047516244
10
79.032742347923175
20
-87.248264132912965
42
-0.41309834284693359
10
80.889704935703563
20
-88.265391974620542
42
-0.03425243178195779
10
81.333104883171188
20
-90.269669410613744
10
83.17087064889877
20
-102.49209912177635
42
0.082082573422274083
10
83.27130406270301
20
-102.80238259701332
42
-0.68079461913221828
10
81.372561515229052
20
-104.97337417113278
10
77.417609821441829
20
-103.55990562763088
42
0.27294816977541458
10
76.419738944935148
20
-103.75147484844327
42
-0.049230860000560407
10
74.028693184443199
20
-105.47368226308491
42
0.28350365501823843
10
73.532418519463789
20
-106.39860173031548
10
73.78138357291256
20
-110.54003677338969
42
-0.66455224411703429
10
71.217607398754566
20
-111.80312790297806
42
0.060546982052777344
10
71.017686343349908
20
-111.66800252985509
10
59.660891820934935
20
-105.85023339589753
42
-0.040122763286612913
10
57.616412618508157
20
-104.58654810580619
42
-0.43082810993483234
10
57.348089815148988
20
-102.42284152876226
10
60.263723791801063
20
-98.891708802483379
42
0.34071674260747775
10
60.324983389580055
20
-97.061067316803701
10
60.159108162581447
20
-96.830338617595118
42
0.31753872912663295
10
58.523206109087312
20
-96.265339692565618
10
53.923251432498489
20
-97.599983681963806
42
-0.41652595973183021
10
52.061433909212944
20
-96.565994486353134
42
-0.01149576913873224
10
51.889801648053584
20
-95.898037603206362
10
49.624443245917178
20
-86.158009301919506
10
2.3609568777557968
20
-20.415565857484754
42
0.24140327541822737
10
0.087495852422488848
20
-19.250000000021682
10
-0.087807652454962026
20
-19.250000000021675
42
0.24140327541822826
10
-2.3612686777882708
20
-20.415565857484754
10
-49.624755045949655
20
-86.158009301919506
10
-51.890113448086069
20
-95.898037603206419
42
-0.01149576913873224
10
-52.061745709245429
20
-96.565994486353205
42
-0.41652595973183021
10
-53.923563232530967
20
-97.599983681963792
10
-58.523517909119789
20
-96.265339692565618
42
0.31753872912663295
10
-60.159419962613924
20
-96.830338617595118
10
-60.325295189612532
20
-97.061067316803701
42
0.34071674260747775
10
-60.26403559183354
20
-98.891708802483379
10
-57.348401615181437
20
-102.42284152876225
42
-0.43082810993483234
10
-57.616724418540613
20
-104.58654810580619
42
-0.040122763286612913
10
-59.66120362096742
20
-105.85023339589752
10
-71.017998143382385
20
-111.66800252985509
42
0.060546982052740596
10
-71.217919198786689
20
-111.80312790297847
42
-0.66455224411738223
10
-73.781695372945137
20
-110.54003677338969
10
-73.532730319496267
20
-106.39860173031548
42
0.28350365501822888
10
-74.029004984475662
20
-105.47368226308487
42
-0.049230860000560407
10
-76.420050744967597
20
-103.75147484844325
42
0.2729481697755104
10
-77.417921621474292
20
-103.55990562763088
10
-81.372873315261529
20
-104.97337417113278
42
-0.68079461913221828
10
-83.271615862735487
20
-102.80238259701332
42
0.082082573422274083
10
-83.171182448931248
20
-102.49209912177635
10
-81.333416683203666
20
-90.269669410613744
42
-0.03425243178195779
10
-80.890016735736054
20
-88.265391974620556
42
-0.41309834284693359
10
-79.033054147955653
20
-87.248264132912965
10
-74.890865858499453
20
-88.45009047516244
42
0.31753872912663139
10
-73.25496380500536
20
-87.885091550132984
10
-73.089088578006724
20
-87.654362850924343
42
0.3407167426074843
10
-73.150348175785723
20
-85.823721365244637
10
-75.762920009006137
20
-82.659628075787296
42
-0.42779514645254291
10
-75.506931630552998
20
-80.505084788137324
42
-0.02284681554089385
10
-74.374892819514358
20
-79.733304325368664
10
-65.863762369759002
20
-74.483479712370027
10
-31.848223489274226
20
-27.168632397410235
42
0.61108000889253244
10
-35.907975320226726
20
-19.250000000022865
10
-39.398226444972131
20
-19.250000000022975
10
-70.560347595575053
20
-19.250000000002107
42
-0.41708396926027286
10
-74.560155900016142
20
-15.210839717505849
10
-74.560155900016127
20
-12.50727450069583
42
-0.21531309579454835
10
-74.052043137893548
20
-11.382036878086346
42
0.3086152858774972
10
-73.634391444592325
20
-9.7437690404883046
10
-74.240526790181463
20
-8.0784258653489651
42
-0.087488663525898513
10
-74.560155900016142
20
-6.2657191057228108
10
-74.560155900016127
20
-6.2500000000019194
42
-0.4142135623730947
10
-71.560155900016156
20
-3.2500000000019469
10
-65.309156116160096
20
-3.250000000002089
42
0.99999999999999989
10
-65.309156116160096
20
3.2499999999971152
10
-71.560155900016156
20
3.2499999999981135
42
-0.4142135623730947
10
-74.560155900016127
20
6.2499999999980815
10
-74.560155900016127
20
6.2657191057191151
42
-0.087488663525898736
10
-74.240526790181463
20
8.078425865345265
10
-73.634391444592353
20
9.7437690404846204
42
0.30861528587751075
10
-74.052043137893563
20
11.382036878082562
42
-0.21531309579460003
10
-74.560155900016113
20
12.507274500692064
10
-74.560155900016127
20
15.210839717481621
42
-0.41708396926167585
10
-70.560347595575053
20
19.249999999997168
10
-39.398226444972131
20
19.250000000017877
10
-35.907975320225631
20
19.250000000017863
42
0.61108000889252012
10
-31.84822348927327
20
27.168632397405233
10
-65.863762369758831
20
74.483479712366332
10
-74.374892819514187
20
79.733304325364998
42
-0.022846815540894072
10
-75.506931630552842
20
80.505084788133672
42
-0.42779514645254269
10
-75.762920009005924
20
82.659628075783601
10
-73.150348175785524
20
85.823721365240942
42
0.3407167426074843
10
-73.089088578006539
20
87.654362850920648
10
-73.254963805005161
20
87.885091550129289
42
0.31753872912663139
10
-74.890865858499268
20
88.450090475158746
10
-79.033054147955482
20
87.248264132909327
42
-0.41309834284693303
10
-80.890016735735841
20
88.265391974616875
42
-0.034252431781958012
10
-81.333416683203467
20
90.269669410610078
10
-83.171182448931035
20
102.4920991217727
42
0.082082573422274083
10
-83.271615862735274
20
102.80238259700965
42
-0.68079461913222228
10
-81.372873315261302
20
104.97337417112911
10
-77.417921621474534
20
103.55990562762682
42
0.2729481697755925
10
-76.420050744967384
20
103.75147484843959
42
-0.049230860000559963
10
-74.029004984475463
20
105.47368226308122
42
0.28350365501818769
10
-73.532730319496025
20
106.39860173031158
10
-73.781695372944768
20
110.54003677338541
42
-0.66455224411717051
10
-71.217919198786802
20
111.80312790297437
42
0.060546982052878402
10
-71.017998143382087
20
111.66800252985061
10
-59.6612036209672
20
105.85023339589382
42
-0.040122763286613253
10
-57.616724418540386
20
104.58654810580249
42
-0.43082810993483361
10
-57.348401615181245
20
102.42284152875854
10
-60.264035591833327
20
98.891708802479684
42
0.34071674260747681
10
-60.325295189612326
20
97.061067316800006
10
-60.159419962613718
20
96.830338617591423
42
0.31753872912663295
10
-58.52351790911959
20
96.265339692561923
10
-53.923563232530761
20
97.599983681960083
42
-0.41652595973183021
10
-52.061745709245237
20
96.565994486349481
42
-0.011495769138733462
10
-51.890113448085856
20
95.898037603202638
10
-49.62475504594947
20
86.158009301915769
10
-2.3612686777882308
20
20.415565857480928
42
0.24140327541822815
10
-0.087807652454916577
20
19.250000000017845
10
0.087495852422435377
20
19.250000000017845
42
0.24140327541822745
10
2.3609568777557488
20
20.415565857480917
10
49.624443245916993
20
86.158009301915769
10
51.889801648053371
20
95.898037603202624
42
-0.011495769138733462
10
52.061433909212752
20
96.565994486349481
42
-0.41652595973183021
10
53.923251432498283
20
97.599983681960069
10
58.523206109087113
20
96.265339692561923
42
0.31753872912663295
10
60.159108162581241
20
96.830338617591423
10
60.324983389579849
20
97.061067316800006
42
0.34071674260747681
10
60.263723791800849
20
98.891708802479684
10
57.348089815148775
20
102.42284152875854
42
-0.43082810993483361
10
57.616412618507908
20
104.58654810580248
42
-0.040122763286613253
10
59.660891820934722
20
105.85023339589382
10
71.01768634334961
20
111.66800252985061
42
0.060546982052878402
10
71.217607398754325
20
111.80312790297437
42
-0.66455224411727976
10
73.781383572912262
20
110.54003677338494
10
73.532418519463548
20
106.39860173031158
42
0.28350365501818769
10
74.028693184443
20
105.4736822630812
42
-0.049230860000559963
10
76.419738944934906
20
103.75147484843959
42
0.2729481697755925
10
77.417609821442056
20
103.55990562762682
10
81.372561515228824
20
104.97337417112914
42
-0.68079461913222228
10
83.271304062702797
20
102.80238259700965
42
0.082082573422274083
10
83.170870648898557
20
102.4920991217727
10
81.333104883170989
20
90.269669410610106
42
-0.034252431781958012
10
80.889704935703378
20
88.265391974616875
42
-0.41309834284693303
10
79.032742347922991
20
87.248264132909298
10
74.89055405846679
20
88.450090475158746
42
0.31753872912663139
10
73.254652004972684
20
87.885091550129289
10
73.088776777974061
20
87.654362850920648
42
0.3407167426074843
10
73.150036375753047
20
85.823721365240942
10
75.762608208973447
20
82.659628075783587
42
-0.42779514645254269
10
75.50661983052035
20
80.505084788133672
42
-0.022846815540894072
10
74.37458101948171
20
79.733304325364983
10
65.863450569726353
20
74.483479712366332
10
31.847911689240782
20
27.168632397405194
42
0.61108000889251923
10
35.907663520193118
20
19.250000000017817
10
39.397914644939512
20
19.250000000017813
10
69.949844099983821
20
19.249999999998693
42
-0.35265198786916152
10
73.858044218193626
20
16.102039808943985
42
-0.033946451557218434
10
75.357605677809687
20
5.9596684684070045
42
-0.41177131069534789
0
LWPOLYLINE
5
101
100
AcDbEntity
8
0
100
AcDbPolyline
90
4
70
1
43
0.0
10
65.118582272545495
20
1.4999999999970728
42
-0.99999999999999989
10
65.118582272545495
20
-1.5000000000028992
10
56.200000016387435
20
-1.5000000000028995
42
-0.99999999999999989
10
56.200000016387435
20
1.4999999999970726
0
LWPOLYLINE
5
102
100
AcDbEntity
8
0
100
AcDbPolyline
90
8
70
1
43
0.0
10
44.518530570888551
20
16.249999999996806
10
53.518530570888601
20
16.249999999997094
42
-0.99999999999999989
10
54.518530570888544
20
16.249999999996806
10
54.518530570888693
20
14.249999999997057
42
-0.99999999999999989
10
53.518530570888466
20
14.249999999997057
10
44.518530570888693
20
14.249999999996978
42
-0.99999999999999989
10
43.518530570888451
20
14.249999999996845
10
43.518530570888608
20
16.24999999999709
42
-0.99999999999999989
0
LWPOLYLINE
5
103
100
AcDbEntity
8
0
100
AcDbPolyline
90
4
70
1
43
0.0
10
65.118582272545495
20
4.749999999997101
10
58.618582272545439
20
4.749999999997101
42
-0.99999999999999989
10
58.618582272545439
20
7.7499999999970726
10
65.118582272545495
20
7.7499999999970726
42
-0.99999999999999989
0
CIRCLE
5
104
100
AcDbEntity
8
0
100
AcDbCircle
10
-9.9999999999852189
20
9.9999999999975113
30
0
40
1.5500000000000005
210
0
220
0
230
1
0
LWPOLYLINE
5
105
100
AcDbEntity
8
0
100
AcDbPolyline
90
6
70
1
43
0.0
10
-20.883716661215047
20
6.604222064214138
10
-15.163360705183209
20
3.0306493175299205
42
0.50148675529763609
10
-13.669724902479121
20
3.6121774039976491
10
-12.661136491060605
20
7.258699702614706
42
0.50034863992211864
10
-13.542127396963934
20
8.3985196684646581
10
-20.42766551902929
20
8.2672793097564305
42
0.74209813194903473
0
LWPOLYLINE
5
106
100
AcDbEntity
8
0
100
AcDbPolyline
90
8
70
1
43
0.0
10
-72.275522092268289
20
6.3687134012556514
10
-72.745368402661214
20
6.5397234729184088
42
-0.41421356237310636
10
-73.044204641391474
20
7.1805798549741926
10
-72.189154283077102
20
9.52981140693886
42
-0.41421356237310414
10
-71.5482979010214
20
9.828647645669049
10
-71.078451590628475
20
9.6576375740061575
42
-0.41421356237313106
10
-70.779615351898315
20
9.0167811919504075
10
-71.63466571021246
20
6.6675496399856407
42
-0.41421356237329826
0
LWPOLYLINE
5
107
100
AcDbEntity
8
0
100
AcDbPolyline
90
4
70
1
43
0.0
10
-62.405173797780122
20
-16.50000000000226
10
-42.405173797779973
20
-16.500000000002117
42
0.99999999999999989
10
-42.405173797779973
20
-14.500000000002231
10
-62.405173797780122
20
-14.500000000002089
42
0.99999999999999989
0
LWPOLYLINE
5
108
100
AcDbEntity
8
0
100
AcDbPolyline
90
4
70
1
43
0.0
10
-58.31597820568291
20
-3.5000000000022879
10
-52.315978205683969
20
-3.5000000000027143
42
-0.99999999999999989
10
-52.315978205683969
20
-5.5000000000008953
10
-58.31597820568291
20
-5.5000000000040217
42
-0.99999999999999989
0
CIRCLE
5
109
100
AcDbEntity
8
0
100
AcDbCircle
10
-57.059156116160494
20
9.9999999999975113
30
0
40
1.5500000000000025
210
0
220
0
230
1
0
LWPOLYLINE
5
110
100
AcDbEntity
8
0
100
AcDbPolyline
90
4
70
1
43
0.0
10
-58.31597820568291
20
5.4999999999991189
10
-52.315978205683969
20
5.4999999999959215
42
-0.99999999999999989
10
-52.315978205683969
20
3.4999999999977405
10
-58.31597820568291
20
3.499999999997101
42
-0.99999999999999989
0
LWPOLYLINE
5
111
100
AcDbEntity
8
0
100
AcDbPolyline
90
4
70
1
43
0.0
10
-42.405173797779973
20
16.499999999997002
10
-62.405173797780115
20
16.499999999997069
42
0.99999999999999989
10
-62.405173797779845
20
14.499999999996904
10
-42.405173797779973
20
14.499999999997115
42
0.99999999999999989
0
LWPOLYLINE
5
112
100
AcDbEntity
8
0
100
AcDbPolyline
90
8
70
1
43
0.0
10
-71.634665710212346
20
-6.6675496399892733
10
-70.7796153518983
20
-9.0167811919541663
42
-0.41421356237308682
10
-71.078451590628475
20
-9.6576375740098541
10
-71.5482979010214
20
-9.8286476456728238
42
-0.41421356237305296
10
-72.189154283077073
20
-9.529811406942688
10
-73.044204641391417
20
-7.1805798549777933
42
-0.41421356237313744
10
-72.745368402661242
20
-6.5397234729220122
10
-72.275522092268289
20
-6.3687134012592148
42
-0.41421356237327978
0
CIRCLE
5
113
100
AcDbEntity
8
0
100
AcDbCircle
10
57.059156116189911
20
9.9999999999975113
30
0
40
0.99999999999999645
210
0
220
0
230
1
0
CIRCLE
5
114
100
AcDbEntity
8
0
100
AcDbCircle
10
69.949844099983821
20
15.249999999998137
30
0
40
1.5500000000000025
210
0
220
0
230
1
0
CIRCLE
5
115
100
AcDbEntity
8
0
100
AcDbCircle
10
-28.249999999986528
20
15.249999999997003
30
0
40
1.5500000000000025
210
0
220
0
230
1
0
LWPOLYLINE
5
116
100
AcDbEntity
8
0
100
AcDbPolyline
90
8
70
1
43
0.0
10
19.219061549943603
20
0.84810821418003024
42
0.55438321313547034
10
19.219061549943568
20
-0.84810821418384696
10
25.669051119213151
20
-4.8774915459770103
42
0.4987398976424165
10
27.160306713641624
20
-4.3044241456999845
10
28.313008345826205
20
-0.27504081390688417
42
0.14022445672345224
10
28.313008345826191
20
0.27504081390297086
10
27.16030671364166
20
4.3044241456962604
42
0.49873989764227644
10
25.669051119213037
20
4.8774915459732791
0
LWPOLYLINE
5
117
100
AcDbEntity
8
0
100
AcDbPolyline
90
8
70
1
43
0.0
10
7.8637098173177833
20
-3.9177355096494901
42
0.50154121987835631
10
9.3573920104880823
20
-3.336039642954856
10
10.20584234025506
20
-0.26641234748915138
42
0.13565756356968958
10
10.205842340255044
20
0.26641234748538023
10
9.3573920104880397
20
3.3360396429510786
42
0.50154121987847666
10
7.8637098173177513
20
3.9177355096458477
10
2.9500388143438272
20
0.84810821417995907
42
0.55438321313537897
10
2.9500388143438272
20
-0.84810821418379645
0
CIRCLE
5
118
100
AcDbEntity
8
0
100
AcDbCircle
10
-70.560347595575053
20
-15.250000000002117
30
0
40
1.5500000000000025
210
0
220
0
230
1
0
ARC
5
119
100
AcDbEntity
8
0
100
AcDbCircle
10
20.40656412235592
20
-7.3675194569823788
30
0
40
0.90000000000002289
210
0
220
0
230
1
100
AcDbArc
50
-88.67637544246459
51
58.006500654165912
0
LWPOLYLINE
5
120
100
AcDbEntity
8
0
100
AcDbPolyline
90
6
70
1
43
0.0
10
-4.969037766480823
20
-6.8255847735358808
42
0.75165468882309627
10
-4.4966643173262364
20
-8.4888710791886073
10
4.4963431086084427
20
-8.488871125841511
42
0.75165877900648081
10
4.9687259664483072
20
-6.8255847735357857
10
0.52966714311907026
20
-4.0524532142555358
42
0.28668399343152356
10
-0.52997894315151561
20
-4.0524532142555163
0
LINE
5
121
100
AcDbEntity
8
0
100
AcDbLine
10
12.660824691027985
20
-7.258699702618685
30
0
11
13.669413102446555
21
-3.6121774040019266
31
0
0
LWPOLYLINE
5
122
100
AcDbEntity
8
0
100
AcDbPolyline
90
6
70
1
43
0.0
10
0.52966714311900642
20
4.05245321425173
10
4.9687259664486323
20
6.8255847735321851
42
0.75165877900626032
10
4.4963431086085857
20
8.4888711258377789
10
-4.4966549086409202
20
8.488871125837532
42
0.75165877900623668
10
-4.9690377664807004
20
6.8255847735320829
10
-0.52997894315154792
20
4.05245321425177
42
0.28668399343151274
0
CIRCLE
5
123
100
AcDbEntity
8
0
100
AcDbCircle
10
-70.560347595575053
20
15.249999999997003
30
0
40
1.5500000000000025
210
0
220
0
230
1
0
ARC
5
124
100
AcDbEntity
8
0
100
AcDbCircle
10
14.633225862015422
20
3.8787575317124379
30
0
40
0.99999999999997657
210
0
220
0
230
1
100
AcDbArc
50
195.46086540821878
51
301.99349934581988
0
LWPOLYLINE
5
125
100
AcDbEntity
8
0
100
AcDbPolyline
90
8
70
1
43
0.0
10
-7.8640216173502342
20
-3.9177355096494626
10
-2.9503506143763047
20
-0.84810821418372506
42
0.55438321313537897
10
-2.9503506143763047
20
0.84810821418003002
10
-7.86402161735026
20
3.9177355096456514
42
0.50154121987834543
10
-9.3577038105205528
20
3.3360396429510484
10
-10.206154140287538
20
0.26641234748538517
42
0.135657563569687
10
-10.206154140287557
20
-0.2664123474891561
10
-9.3577038105205173
20
-3.336039642954844
42
0.50154121987859213
0
ELLIPSE
5
126
100
AcDbEntity
8
0
100
AcDbEllipse
10
-0.00015590001623877467
20
-1.9184653865522705e-12
30
0
11
87.899327384149814
21
-4.8545893844609209e-13
31
0.0
40
0.096701536324695345
41
4.867067428123363
42
4.9469300601759043
0
LINE
5
127
100
AcDbEntity
8
0
100
AcDbLine
10
15.163048905150733
20
-3.0306493175342557
30
0
11
20.883404861177887
21
-6.6042220642187441
31
0
0
CIRCLE
5
128
100
AcDbEntity
8
0
100
AcDbCircle
10
28.250000000014381
20
-15.250000000002117
30
0
40
1.5500000000000025
210
0
220
0
230
1
0
CIRCLE
5
129
100
AcDbEntity
8
0
100
AcDbCircle
10
10.00000000001492
20
-10.000000000002489
30
0
40
1.5500000000000005
210
0
220
0
230
1
0
ARC
5
130
100
AcDbEntity
8
0
100
AcDbCircle
10
13.528256174639921
20
-7.4986218175616415
30
0
40
0.89999999999994929
210
0
220
0
230
1
100
AcDbArc
50
164.53913459177781
51
270.86384495898142
0
ARC
5
131
100
AcDbEntity
8
0
100
AcDbCircle
10
14.633225862015422
20
-3.8787575317162042
30
0
40
1.0000000000000266
210
0
220
-0
230
1
100
AcDbArc
50
58.006500654180002
51
164.53913459178509
0
CIRCLE
5
132
100
AcDbEntity
8
0
100
AcDbCircle
10
-57.059156116160494
20
-10.000000000002556
30
0
40
1.5500000000000025
210
0
220
0
230
1
0
CIRCLE
5
133
100
AcDbEntity
8
0
100
AcDbCircle
10
69.949844099983821
20
-15.250000000003114
30
0
40
1.5500000000000025
210
0
220
0
230
1
0
LWPOLYLINE
5
134
100
AcDbEntity
8
0
100
AcDbPolyline
90
8
70
1
43
0.0
10
54.518530570888544
20
-14.250000000002387
10
54.518530570888693
20
-16.250000000002206
42
-0.99999999999999989
10
53.518530570888466
20
-16.250000000002206
10
44.518530570888693
20
-16.250000000002217
42
-0.99999999999999989
10
43.518530570888451
20
-16.250000000002206
10
43.518530570888608
20
-14.250000000002032
42
-0.99999999999999989
10
44.518530570888551
20
-14.250000000002316
10
53.518530570888601
20
-14.250000000002242
42
-0.99999999999999989
0
LINE
5
135
100
AcDbEntity
8
0
100
AcDbLine
10
13.669413102446555
20
3.6121774039980896
30
0
11
12.660824691028125
21
7.2586997026149191
31
0
0
LWPOLYLINE
5
136
100
AcDbEntity
8
0
100
AcDbPolyline
90
4
70
1
43
0.0
10
58.618582272545154
20
-4.7500000000021458
10
65.118582272545495
20
-4.7500000000021458
42
-0.99999999999999989
10
65.11858227254578
20
-7.7500000000021174
10
58.618582272545439
20
-7.7500000000021174
42
-0.99999999999999989
0
LWPOLYLINE
5
137
100
AcDbEntity
8
0
100
AcDbPolyline
90
6
70
1
43
0.0
10
-13.542136705483189
20
-8.3985195281618967
42
0.50035187332005993
10
-12.661136491060528
20
-7.2586997026183475
10
-13.669724902479176
20
-3.6121774040014287
42
0.50148675529755504
10
-15.163360705183024
20
-3.0306493175336842
10
-20.883716661215171
20
-6.6042220642179936
42
0.74457839147161797
10
-20.427674682265998
20
-8.2672790979903397
0
ELLIPSE
5
138
100
AcDbEntity
8
0
100
AcDbEllipse
10
-0.00015590001623877467
20
-1.9184653865522705e-12
30
0
11
87.899327384149814
21
1.1204745452118967e-12
31
0.0
40
0.096701536324700299
41
1.3362552470036779
42
1.4161178790562241
0
LWPOLYLINE
5
139
100
AcDbEntity
8
0
100
AcDbPolyline
90
8
70
1
43
0.0
10
-25.669362919246762
20
-4.8774915459737596
10
-19.219373349977502
20
-0.848108214183938
42
0.55438321313561034
10
-19.219373349977502
20
0.84810821418024318
10
-25.669362919246911
20
4.8774915459700443
42
0.49873989764212528
10
-27.160618513675132
20
4.304424145692777
10
-28.313320145858825
20
0.27504081390311785
42
0.14022445672339837
10
-28.313320145858853
20
-0.27504081390685164
10
-27.160618513675278
20
-4.3044241456966157
42
0.49873989764207016
0
CIRCLE
5
140
100
AcDbEntity
8
0
100
AcDbCircle
10
37.059156116189904
20
-10.000000000002556
30
0
40
1.0000000000000009
210
0
220
0
230
1
0
LINE
5
141
100
AcDbEntity
8
0
100
AcDbLine
10
20.883404861177727
20
6.6042220642149374
30
0
11
15.163048905150704
21
3.0306493175305316
31
0
0
CIRCLE
5
142
100
AcDbEntity
8
0
100
AcDbCircle
10
-37.059156116160644
20
9.9999999999975113
30
0
40
1.5500000000000025
210
0
220
0
230
1
0
CIRCLE
5
143
100
AcDbEntity
8
0
100
AcDbCircle
10
28.250000000014381
20
15.249999999997003
30
0
40
1.5500000000000025
210
0
220
0
230
1
0
CIRCLE
5
144
100
AcDbEntity
8
0
100
AcDbCircle
10
10.00000000001492
20
9.9999999999975113
30
0
40
1.5500000000000005
210
0
220
0
230
1
0
CIRCLE
5
145
100
AcDbEntity
8
0
100
AcDbCircle
10
37.059156116189904
20
9.9999999999975113
30
0
40
1.0000000000000009
210
0
220
0
230
1
0
CIRCLE
5
146
100
AcDbEntity
8
0
100
AcDbCircle
10
-37.059156116160644
20
-10.000000000002556
30
0
40
1.5500000000000025
210
0
220
0
230
1
0
CIRCLE
5
147
100
AcDbEntity
8
0
100
AcDbCircle
10
-28.249999999986528
20
-15.250000000002117
30
0
40
1.5500000000000025
210
0
220
0
230
1
0
ARC
5
148
100
AcDbEntity
8
0
100
AcDbCircle
10
13.528256174639921
20
7.4986218175578756
30
0
40
0.89999999999994851
210
0
220
-0
230
1
100
AcDbArc
50
89.136155041021937
51
195.46086540822455
0
CIRCLE
5
149
100
AcDbEntity
8
0
100
AcDbCircle
10
57.059156116189911
20
-10.000000000002556
30
0
40
0.99999999999999645
210
0
220
0
230
1
0
ARC
5
150
100
AcDbEntity
8
0
100
AcDbCircle
10
20.40656412235592
20
7.3675194569786129
30
0
40
0.89999999999997282
210
0
220
0
230
1
100
AcDbArc
50
-58.00650065417593
51
88.676375442436452
0
CIRCLE
5
151
100
AcDbEntity
8
0
100
AcDbCircle
10
-9.9999999999852189
20
-10.000000000002489
30
0
40
1.5500000000000005
210
0
220
0
230
1
0
CIRCLE
5
152
100
AcDbEntity
8
0
100
AcDbCircle
10
65.229459016403695
20
100.88964371945468
30
0
40
1.5500000000000005
210
0
220
0
230
1
0
CIRCLE
5
153
100
AcDbEntity
8
0
100
AcDbCircle
10
74.889487819440333
20
93.77038508357812
30
0
40
1.5499999999999936
210
0
220
0
230
1
0
CIRCLE
5
154
100
AcDbEntity
8
0
100
AcDbCircle
10
67.770229183563814
20
84.110356280541524
30
0
40
1.5500000000000071
210
0
220
0
230
1
0
CIRCLE
5
155
100
AcDbEntity
8
0
100
AcDbCircle
10
58.110200380527175
20
91.229614916418058
30
0
40
1.5499999999999985
210
0
220
0
230
1
0
LINE
5
156
100
AcDbEntity
8
0
100
AcDbLine
10
66.499844099983761
20
92.499999999998082
30
0
11
66.178334161899301
21
92.052786928226482
31
0
0
CIRCLE
5
157
100
AcDbEntity
8
0
100
AcDbCircle
10
58.110200380527374
20
-91.229614916421795
30
0
40
1.5499999999999985
210
0
220
0
230
1
0
CIRCLE
5
158
100
AcDbEntity
8
0
100
AcDbCircle
10
65.229459016403908
20
-100.88964371945838
30
0
40
1.5500000000000005
210
0
220
0
230
1
0
CIRCLE
5
159
100
AcDbEntity
8
0
100
AcDbCircle
10
74.889487819440532
20
-93.770385083581814
30
0
40
1.5499999999999936
210
0
220
0
230
1
0
CIRCLE
5
160
100
AcDbEntity
8
0
100
AcDbCircle
10
67.770229183563984
20
-84.110356280545219
30
0
40
1.5500000000000071
210
0
220
0
230
1
0
CIRCLE
5
161
100
AcDbEntity
8
0
100
AcDbCircle
10
-58.110512180559851
20
-91.229614916421795
30
0
40
1.5499999999999985
210
0
220
0
230
1
0
CIRCLE
5
162
100
AcDbEntity
8
0
100
AcDbCircle
10
-74.88979961947301
20
-93.770385083581814
30
0
40
1.5499999999999936
210
0
220
0
230
1
0
CIRCLE
5
163
100
AcDbEntity
8
0
100
AcDbCircle
10
-65.229770816436385
20
-100.88964371945838
30
0
40
1.5500000000000005
210
0
220
0
230
1
0
CIRCLE
5
164
100
AcDbEntity
8
0
100
AcDbCircle
10
-67.770540983596462
20
-84.110356280545219
30
0
40
1.5500000000000071
210
0
220
0
230
1
0
CIRCLE
5
165
100
AcDbEntity
8
0
100
AcDbCircle
10
-58.110512180559653
20
91.229614916418058
30
0
40
1.5499999999999985
210
0
220
0
230
1
0
LINE
5
166
100
AcDbEntity
8
0
100
AcDbLine
10
-66.500155900016239
20
92.499999999998082
30
0
11
-66.178645961931778
21
92.052786928226482
31
0
0
CIRCLE
5
167
100
AcDbEntity
8
0
100
AcDbCircle
10
-74.889799619472811
20
93.77038508357812
30
0
40
1.5499999999999936
210
0
220
0
230
1
0
CIRCLE
5
168
100
AcDbEntity
8
0
100
AcDbCircle
10
-67.770540983596291
20
84.110356280541524
30
0
40
1.5500000000000071
210
0
220
0
230
1
0
CIRCLE
5
169
100
AcDbEntity
8
0
100
AcDbCircle
10
-65.229770816436172
20
100.88964371945468
30
0
40
1.5500000000000005
210
0
220
0
230
1
0
LINE
5
170
100
AcDbEntity
8
0
100
AcDbLine
10
-46.402918477305796
20
4.2337602264140708
30
0
11
-46.498161696536798
21
-3.9960987578513398
31
0
0
LINE
5
171
100
AcDbEntity
8
0
100
AcDbLine
10
-48.887466609318928
20
4.2337602264140699
30
0
11
-48.982543173542609
21
-3.9673220942948708
31
0
0
LWPOLYLINE
5
172
100
AcDbEntity
8
0
100
AcDbPolyline
90
4
70
1
43
0.0
10
-45.587300597000137
20
3.4843827289275593
10
-41.965885532905062
20
3.4423990384270486
42
1.0058131905659375
10
-41.95487246800284
20
5.3423853759540698
10
-45.565153016092808
20
5.3947813188296845
0
LWPOLYLINE
5
173
100
AcDbEntity
8
0
100
AcDbPolyline
90
4
70
1
43
0.0
10
-45.576226806546472
20
-0.82823831950101545
10
-42.888539078832075
20
-0.86724468777986985
42
1.0112305945780442
10
-42.882185344056069
20
1.0326763767256169
10
-45.549522246362443
20
1.0118078536660715
0
LWPOLYLINE
5
174
100
AcDbEntity
8
0
100
AcDbPolyline
90
8
70
1
43
0.0
10
-32.87255957454461
20
5.1873320444029334
10
-31.428162125945363
20
4.5205098315058203
42
-0.91948700003750972
10
-32.426200116678586
20
2.9115371499573799
10
-33.541417801183712
20
3.4799502222430476
42
0.11897208780744953
10
-33.632697693665435
20
3.5017601092310251
10
-34.399999231100082
20
3.4999999217689037
10
-34.399999231100082
20
5.3999998793005943
10
-32.929956834176174
20
5.2039942263774064
42
-0.075130231100442632
0
LWPOLYLINE
5
175
100
AcDbEntity
8
0
100
AcDbPolyline
90
22
70
1
43
0.0
10
-36.251015300324909
20
3.3098351259316674
10
-35.388457361835009
20
3.5291366546461478
10
-35.388457361835009
20
5.3741231084139232
10
-35.393057765934287
20
5.3741231084139232
10
-36.397777333501494
20
5.1139725060974133
42
0.034059038355099783
10
-36.42359890981956
20
5.1053737650790874
10
-37.235309018648536
20
4.7721454046124547
42
0.10448509600522281
10
-37.303656512415124
20
4.7256105393294341
10
-37.968552281525291
20
4.0327700744211441
42
0.11211965114103668
10
-38.014210430624445
20
3.9568613503387922
10
-38.42025250139563
20
2.7241873168719408
42
0.053761148355318353
10
-38.429225301946374
20
2.6822515386418821
10
-38.500000573694699
20
2.0000000298023219
10
-38.671083971746427
20
-1.5760566652555816
42
0.38380166499271917
10
-35.388457361835009
20
-5.5931110271786295
10
-35.388457361835009
20
-3.4331860555925542
42
-0.70759478529144104
10
-35.388457361835009
20
-0.089458236075775632
10
-35.388457361835009
20
2.0704667355102995
42
0.090025839655616724
10
-36.697563081912136
20
1.6186843807081268
10
-36.697563081912136
20
2.5428330300452324
42
-0.11968344686969928
10
-36.675287213323109
20
2.6345616139992849
10
-36.379458169348979
20
3.2077303866991391
42
-0.21454331042423594
0
LWPOLYLINE
5
176
100
AcDbEntity
8
0
100
AcDbPolyline
90
4
70
1
43
0.0
10
-34.399999231100082
20
-0.03383759951326254
10
-34.399999231100082
20
2.0950595723337848
42
-0.90196917217225958
10
-34.399999231100082
20
-5.6177038640021149
10
-34.399999231100082
20
-3.4888066921550678
42
0.79554046389438726
0
ARC
5
177
100
AcDbEntity
8
0
100
AcDbCircle
10
-47.645192543312362
20
4.2337602264140699
30
0
40
1.242274066006569
210
0
220
0
230
1
100
AcDbArc
50
-1.3260958409952188
51
180
0
ARC
5
178
100
AcDbEntity
8
0
100
AcDbCircle
10
-47.740352580967013
20
-3.9817230244446411
30
0
40
1.2422740660065696
210
0
220
0
230
1
100
AcDbArc
50
179.33578988517522
51
359.33695207950723
0
LWPOLYLINE
5
179
100
AcDbEntity
8
0
100
AcDbPolyline
90
8
70
1
43
0.0
10
50.657723763955353
20
8.2818093600297527
42
-0.18553996476505547
10
50.261378526945293
20
-9.004446293431366
42
-0.40072793115582778
10
49.882831295152229
20
-9.1729037708870891
42
-0.21354106024211278
10
43.546800155106098
20
-3.0983408033920674
42
0.52275757311860305
10
32.087360233510942
20
-0.51507505880087212
42
-0.68296310636529045
10
31.585774253847589
20
-0.2685945156073305
42
-0.51575238309977911
10
42.453931879014711
20
6.1593438851416575
42
0.36289445802253223
10
50.127117395402941
20
8.3491792168642913
42
-0.61346376486212884
0
CIRCLE
5
180
100
AcDbEntity
8
0
100
AcDbCircle
10
-14.999999999952342
20
14.999999999996984
30
0
40
1.5500000000000003
210
0
220
0
230
1
0
CIRCLE
5
181
100
AcDbEntity
8
0
100
AcDbCircle
10
15.000000000047661
20
14.999999999996984
30
0
40
1.5499999999999994
210
0
220
0
230
1
0
CIRCLE
5
182
100
AcDbEntity
8
0
100
AcDbCircle
10
15.000000000047661
20
-15.000000000003016
30
0
40
1.5500000000000007
210
0
220
0
230
1
0
CIRCLE
5
183
100
AcDbEntity
8
0
100
AcDbCircle
10
-14.999999999952342
20
-15.000000000003016
30
0
40
1.55
210
0
220
0
230
1
0
CIRCLE
5
184
100
AcDbEntity
8
0
100
AcDbCircle
10
-66.500155900016239
20
92.499999999998082
30
0
40
3.0000000000000022
210
0
220
0
230
1
0
CIRCLE
5
185
100
AcDbEntity
8
0
100
AcDbCircle
10
66.499844099983761
20
92.499999999998082
30
0
40
2.9999999999999982
210
0
220
0
230
1
0
CIRCLE
5
186
100
AcDbEntity
8
0
100
AcDbCircle
10
66.499844099983946
20
-92.500000000001776
30
0
40
2.9999999999999978
210
0
220
0
230
1
0
CIRCLE
5
187
100
AcDbEntity
8
0
100
AcDbCircle
10
-66.500155900016424
20
-92.500000000001776
30
0
40
2.9999999999999987
210
0
220
0
230
1
0
ENDSEC
0
SECTION
2
OBJECTS
0
DICTIONARY
5
C
100
AcDbDictionary
3
ACAD_GROUP
350
D
3
ACAD_MLINESTYLE
350
17
0
DICTIONARY
5
D
100
AcDbDictionary
0
DICTIONARY
5
1A
330
C
100
AcDbDictionary
0
DICTIONARY
5
17
100
AcDbDictionary
0
ENDSEC
0
EOF
