0
SECTION
2
HEADER
9
$INSUNITS
70
4
9
$ACADVER
1
AC1014
9
$HANDSEED
5
FFFF
0
ENDSEC
0
SECTION
2
TABLES
0
TABLE
2
VPORT
5
8
100
AcDbSymbolTable
0
ENDTAB
0
TABLE
2
LTYPE
5
5
100
AcDbSymbolTable
0
LTYPE
5
14
100
AcDbSymbolTableRecord
100
AcDbLinetypeTableRecord
2
BYBLOCK
70
0
0
LTYPE
5
15
100
AcDbSymbolTableRecord
100
AcDbLinetypeTableRecord
2
BYLAYER
70
0
0
ENDTAB
0
TABLE
2
LAYER
5
2
100
AcDbSymbolTable
70
2
0
LAYER
5
50
100
AcDbSymbolTableRecord
100
AcDbLayerTableRecord
2
0
70
0
6
CONTINUOUS
0
ENDTAB
0
TABLE
2
STYLE
5
3
100
AcDbSymbolTable
70
1
0
STYLE
5
11
100
AcDbSymbolTableRecord
100
AcDbTextStyleTableRecord
2
STANDARD
70
0
0
ENDTAB
0
TABLE
2
VIEW
5
6
100
AcDbSymbolTable
70
0
0
ENDTAB
0
TABLE
2
UCS
5
7
100
AcDbSymbolTable
70
0
0
ENDTAB
0
TABLE
2
APPID
5
9
100
AcDbSymbolTable
70
2
0
APPID
5
12
100
AcDbSymbolTableRecord
100
AcDbRegAppTableRecord
2
ACAD
70
0
0
ENDTAB
0
TABLE
2
DIMSTYLE
5
A
100
AcDbSymbolTable
70
1
0
ENDTAB
0
TABLE
2
BLOCK_RECORD
5
1
100
AcDbSymbolTable
70
1
0
BLOCK_RECORD
5
1F
100
AcDbSymbolTableRecord
100
AcDbBlockTableRecord
2
*MODEL_SPACE
0
BLOCK_RECORD
5
1B
100
AcDbSymbolTableRecord
100
AcDbBlockTableRecord
2
*PAPER_SPACE
0
ENDTAB
0
ENDSEC
0
SECTION
2
BLOCKS
0
BLOCK
5
20
100
AcDbEntity
100
AcDbBlockBegin
2
*MODEL_SPACE
0
ENDBLK
5
21
100
AcDbEntity
100
AcDbBlockEnd
0
BLOCK
5
1C
100
AcDbEntity
100
AcDbBlockBegin
2
*PAPER_SPACE
0
ENDBLK
5
1D
100
AcDbEntity
100
AcDbBlockEnd
0
ENDSEC
0
SECTION
2
ENTITIES
0
ARC
5
100
100
AcDbEntity
8
0
100
AcDbCircle
10
4.2500000000000115
20
-59.250000000000014
30
0
40
14.999999999999991
210
0
220
0
230
1
100
AcDbArc
50
270
51
360
0
ARC
5
101
100
AcDbEntity
8
0
100
AcDbCircle
10
-4.25
20
-59.250000000000007
30
0
40
14.999999999999996
210
0
220
0
230
1
100
AcDbArc
50
180
51
270
0
LINE
5
102
100
AcDbEntity
8
0
100
AcDbLine
10
-19.249999999999996
20
-59.249999999999986
30
0
11
-19.25
21
-57.304573900208027
31
0
0
CIRCLE
5
103
100
AcDbEntity
8
0
100
AcDbCircle
10
15.250000000000005
20
30.250000000000004
30
0
40
1.5500000000000003
210
0
220
0
230
1
0
CIRCLE
5
104
100
AcDbEntity
8
0
100
AcDbCircle
10
15.250000000000005
20
60.25
30
0
40
1.5500000000000025
210
0
220
0
230
1
0
CIRCLE
5
105
100
AcDbEntity
8
0
100
AcDbCircle
10
-15.250000000000005
20
60.25
30
0
40
1.5500000000000014
210
0
220
0
230
1
0
CIRCLE
5
106
100
AcDbEntity
8
0
100
AcDbCircle
10
-15.250000000000005
20
30.250000000000004
30
0
40
1.5500000000000003
210
0
220
0
230
1
0
CIRCLE
5
107
100
AcDbEntity
8
0
100
AcDbCircle
10
-15.250000000000005
20
-30.250000000000004
30
0
40
1.5499999999999992
210
0
220
0
230
1
0
CIRCLE
5
108
100
AcDbEntity
8
0
100
AcDbCircle
10
15.250000000000005
20
-30.250000000000004
30
0
40
1.5500000000000003
210
0
220
0
230
1
0
CIRCLE
5
109
100
AcDbEntity
8
0
100
AcDbCircle
10
15.250000000000005
20
-60.25
30
0
40
1.5500000000000025
210
0
220
0
230
1
0
CIRCLE
5
110
100
AcDbEntity
8
0
100
AcDbCircle
10
-15.250000000000005
20
-60.25
30
0
40
1.5500000000000003
210
0
220
0
230
1
0
LINE
5
111
100
AcDbEntity
8
0
100
AcDbLine
10
19.25
20
59.250000000000007
30
0
11
19.25
21
50.813708498984781
31
0
0
LINE
5
112
100
AcDbEntity
8
0
100
AcDbLine
10
19.25
20
-57.304573900208027
30
0
11
19.250000000000004
21
-59.250000000000028
31
0
0
LINE
5
113
100
AcDbEntity
8
0
100
AcDbLine
10
4.2500000000000071
20
-74.25
30
0
11
-4.2499999999999991
21
-74.25
31
0
0
LINE
5
114
100
AcDbEntity
8
0
100
AcDbLine
10
-19.25
20
50.813708498984781
30
0
11
-19.25
21
59.250000000000007
31
0
0
CIRCLE
5
115
100
AcDbEntity
8
0
100
AcDbCircle
10
15.250000000000005
20
30.250000000000004
30
0
40
1.5500000000000003
210
0
220
0
230
1
0
CIRCLE
5
116
100
AcDbEntity
8
0
100
AcDbCircle
10
15.250000000000005
20
60.25
30
0
40
1.5500000000000025
210
0
220
0
230
1
0
CIRCLE
5
117
100
AcDbEntity
8
0
100
AcDbCircle
10
-15.250000000000005
20
60.25
30
0
40
1.5500000000000014
210
0
220
0
230
1
0
CIRCLE
5
118
100
AcDbEntity
8
0
100
AcDbCircle
10
-15.250000000000005
20
30.250000000000004
30
0
40
1.5500000000000003
210
0
220
0
230
1
0
CIRCLE
5
119
100
AcDbEntity
8
0
100
AcDbCircle
10
-15.250000000000005
20
-30.250000000000004
30
0
40
1.5499999999999992
210
0
220
0
230
1
0
CIRCLE
5
120
100
AcDbEntity
8
0
100
AcDbCircle
10
15.250000000000005
20
-30.250000000000004
30
0
40
1.5500000000000003
210
0
220
0
230
1
0
CIRCLE
5
121
100
AcDbEntity
8
0
100
AcDbCircle
10
15.250000000000005
20
-60.25
30
0
40
1.5500000000000025
210
0
220
0
230
1
0
CIRCLE
5
122
100
AcDbEntity
8
0
100
AcDbCircle
10
-15.250000000000005
20
-60.25
30
0
40
1.5500000000000003
210
0
220
0
230
1
0
LINE
5
123
100
AcDbEntity
8
0
100
AcDbLine
10
2.3397707468387643
20
50.25
30
0
11
0
21
50.25
31
0
0
LINE
5
124
100
AcDbEntity
8
0
100
AcDbLine
10
19.25
20
59.250000000000007
30
0
11
19.25
21
58.675609875581891
31
0
0
LINE
5
125
100
AcDbEntity
8
0
100
AcDbLine
10
10.596778569393251
20
68.422660956273162
30
0
11
9.8218534598761913
21
57.23188970743049
31
0
0
ARC
5
126
100
AcDbEntity
8
0
100
AcDbCircle
10
13.090806140405729
20
68.249957525416661
30
0
40
2.4999999999999853
210
0
220
-0
230
1
100
AcDbArc
50
41.832440201166698
51
176.03877400032522
0
ARC
5
127
100
AcDbEntity
8
0
100
AcDbCircle
10
2.3397707468387812
20
57.749999999999986
30
0
40
7.4999999999999822
210
5.1689179860318507e-16
220
-1.1668591912999725e-30
230
1
100
AcDbArc
50
269.99999999999989
51
356.03877400032536
0
ARC
5
128
100
AcDbEntity
8
0
100
AcDbCircle
10
2.3946752135677238
20
58.675609875581898
30
0
40
16.855324786432277
210
-1.1634216350711067e-40
220
-2.2078727750789579e-25
230
1
100
AcDbArc
50
0
51
41.832440201166747
0
LINE
5
129
100
AcDbEntity
8
0
100
AcDbLine
10
0
20
2.5
30
0
11
0
21
20
31
0
0
LINE
5
130
100
AcDbEntity
8
0
100
AcDbLine
10
-19.25
20
59.250000000000007
30
0
11
-19.25
21
58.675609875581891
31
0
0
ARC
5
131
100
AcDbEntity
8
0
100
AcDbCircle
10
-2.3946752135677238
20
58.675609875581898
30
0
40
16.855324786432266
210
-1.097195207502234e-25
220
-1.2257486380229393e-25
230
1
100
AcDbArc
50
138.16755979883325
51
180
0
ARC
5
132
100
AcDbEntity
8
0
100
AcDbCircle
10
-13.090806140405729
20
68.249957525416661
30
0
40
2.5000000000000009
210
0
220
-0
230
1
100
AcDbArc
50
3.9612259996747619
51
138.16755979883331
0
LINE
5
133
100
AcDbEntity
8
0
100
AcDbLine
10
-10.596778569393251
20
68.422660956273162
30
0
11
-9.8218534598761913
21
57.23188970743049
31
0
0
ARC
5
134
100
AcDbEntity
8
0
100
AcDbCircle
10
-2.3397707468387812
20
57.749999999999986
30
0
40
7.4999999999999805
210
2.4667296518474081e-18
220
-3.5622290370440158e-17
230
1
100
AcDbArc
50
183.96122599967467
51
270.00000000000011
0
LINE
5
135
100
AcDbEntity
8
0
100
AcDbLine
10
-2.3397707468387643
20
50.25
30
0
11
0
21
50.25
31
0
0
LWPOLYLINE
5
136
100
AcDbEntity
8
0
100
AcDbPolyline
90
13
70
1
43
0.0
10
8.3713468363953485
20
-20.000000298023224
10
0
20
-20.000000298023224
10
-8.3713468363953449
20
-20.000000298023224
42
0.59066620537802939
10
-10.062324642457289
20
-23.067986280799182
10
-1.0117761942088053
20
-37.398021323859282
42
-0.28935042118701865
10
-1.0117761942088055
20
-40.601979272187172
10
-10.062324642457286
20
-54.932014315247272
42
0.59066620537803061
10
-8.3713468363953503
20
-58.000000298023231
10
8.3713468363953538
20
-58.000000298023231
42
0.59066620537803061
10
10.062324642457289
20
-54.932014315247272
10
1.0117761942088086
20
-40.601979272187172
42
-0.28935042118701826
10
1.0117761942088088
20
-37.398021323859282
10
10.062324642457288
20
-23.067986280799182
42
0.5906662053780285
0
LWPOLYLINE
5
137
100
AcDbEntity
8
0
100
AcDbPolyline
90
8
70
1
43
0.0
10
4.3265564114095065
20
-65.018591052371448
10
4.2265564114095024
20
-65.018591052371448
42
0.41421356237309503
10
3.0265564114095023
20
-66.218591052371451
10
3.0265564114095023
20
-70.818591052371445
42
0.41421356237309725
10
4.2265564114095024
20
-72.018591052371448
10
4.3265564114095065
20
-72.018591052371463
42
0.41421356237309515
10
5.5265564114095067
20
-70.818591052371445
10
5.5265564114095067
20
-66.218591052371451
42
0.41421356237309503
0
LWPOLYLINE
5
138
100
AcDbEntity
8
0
100
AcDbPolyline
90
8
70
1
43
0.0
10
-5.5265564114095049
20
-70.818591052371445
10
-5.5265564114094881
20
-66.218591052371451
42
-0.41421356237309476
10
-4.3265564114095056
20
-65.018591052371463
10
-4.2265564114095051
20
-65.018591052371448
42
-0.41421356237309515
10
-3.0265564114095045
20
-66.218591052371451
10
-3.0265564114095067
20
-70.818591052371445
42
-0.41421356237309853
10
-4.2265564114095042
20
-72.018591052371448
10
-4.3265564114095048
20
-72.018591052371448
42
-0.41421356237309492
0
LINE
5
139
100
AcDbEntity
8
0
100
AcDbLine
10
18.75
20
-34.804573900208027
30
0
11
18.249999999999996
21
-34.804573900208027
31
0
0
LINE
5
140
100
AcDbEntity
8
0
100
AcDbLine
10
17.75
20
-35.304573900208027
30
0
11
17.749999999999996
21
-56.304573900208041
31
0
0
LINE
5
141
100
AcDbEntity
8
0
100
AcDbLine
10
18.249999999999996
20
-56.804573900208041
30
0
11
18.749999999999996
21
-56.804573900208027
31
0
0
LINE
5
142
100
AcDbEntity
8
0
100
AcDbLine
10
18.749999999999996
20
-16.014923488319795
30
0
11
18.25
21
-16.014923488319795
31
0
0
LINE
5
143
100
AcDbEntity
8
0
100
AcDbLine
10
17.75
20
-15.514923488319795
30
0
11
17.75
21
5.4850765116802016
31
0
0
LINE
5
144
100
AcDbEntity
8
0
100
AcDbLine
10
18.25
20
5.9850765116802034
30
0
11
18.749999999999996
21
5.9850765116802016
31
0
0
LINE
5
145
100
AcDbEntity
8
0
100
AcDbLine
10
-18.749999999999996
20
-16.014923488319795
30
0
11
-18.25
21
-16.014923488319795
31
0
0
LINE
5
146
100
AcDbEntity
8
0
100
AcDbLine
10
-17.75
20
-15.514923488319795
30
0
11
-17.75
21
5.4850765116802016
31
0
0
LINE
5
147
100
AcDbEntity
8
0
100
AcDbLine
10
-18.25
20
5.9850765116802034
30
0
11
-18.749999999999996
21
5.9850765116802016
31
0
0
LINE
5
148
100
AcDbEntity
8
0
100
AcDbLine
10
-18.75
20
-34.804573900208027
30
0
11
-18.249999999999996
21
-34.804573900208027
31
0
0
LINE
5
149
100
AcDbEntity
8
0
100
AcDbLine
10
-18.249999999999996
20
-56.804573900208027
30
0
11
-18.749999999999996
21
-56.804573900208027
31
0
0
LINE
5
150
100
AcDbEntity
8
0
100
AcDbLine
10
-17.75
20
-35.304573900208027
30
0
11
-17.749999999999993
21
-56.304573900208027
31
0
0
LWPOLYLINE
5
151
100
AcDbEntity
8
0
100
AcDbPolyline
90
8
70
1
43
0.0
10
3.0000000000000009
20
11.5
10
-2.9999999999999991
20
11.5
42
-0.41421356237309587
10
-4.9999999999999982
20
13.5
10
-4.9999999999999964
20
26.499999999999993
42
-0.41421356237309598
10
-2.9999999999999973
20
28.5
10
3.0000000000000004
20
28.499999999999996
42
-0.41421356237309437
10
5
20
26.500000000000004
10
4.9999999999999991
20
13.499999999999998
42
-0.41421356237309548
0
LINE
5
152
100
AcDbEntity
8
0
100
AcDbLine
10
-19.25
20
50.813708498984781
30
0
11
-19.250000000000004
21
6.4850765116802043
31
0
0
LINE
5
153
100
AcDbEntity
8
0
100
AcDbLine
10
-19.25
20
-16.514923488319795
30
0
11
-19.25
21
-34.304573900208027
31
0
0
LINE
5
154
100
AcDbEntity
8
0
100
AcDbLine
10
19.25
20
-34.304573900208027
30
0
11
19.25
21
-16.514923488319795
31
0
0
LINE
5
155
100
AcDbEntity
8
0
100
AcDbLine
10
19.250000000000004
20
6.4850765116802025
30
0
11
19.25
21
50.813708498984781
31
0
0
ARC
5
156
100
AcDbEntity
8
0
100
AcDbCircle
10
-18.25
20
5.4850765116802016
30
0
40
0.50000000000000044
210
0
220
-0
230
1
100
AcDbArc
50
0
51
90
0
ARC
5
157
100
AcDbEntity
8
0
100
AcDbCircle
10
-18.749999999999996
20
6.4850765116802025
30
0
40
0.50000000000000488
210
0
220
0
230
1
100
AcDbArc
50
180
51
270
0
ARC
5
158
100
AcDbEntity
8
0
100
AcDbCircle
10
18.25
20
5.4850765116802016
30
0
40
0.50000000000000155
210
0
220
-0
230
1
100
AcDbArc
50
90
51
180
0
ARC
5
159
100
AcDbEntity
8
0
100
AcDbCircle
10
18.749999999999996
20
6.4850765116802025
30
0
40
0.50000000000000044
210
0
220
0
230
1
100
AcDbArc
50
-90
51
0
0
ARC
5
160
100
AcDbEntity
8
0
100
AcDbCircle
10
-18.749999999999996
20
-16.514923488319795
30
0
40
0.50000000000000044
210
0
220
-0
230
1
100
AcDbArc
50
90
51
180
0
ARC
5
161
100
AcDbEntity
8
0
100
AcDbCircle
10
-18.25
20
-15.514923488319795
30
0
40
0.50000000000000044
210
0
220
0
230
1
100
AcDbArc
50
-90
51
0
0
ARC
5
162
100
AcDbEntity
8
0
100
AcDbCircle
10
18.25
20
-15.514923488319795
30
0
40
0.49999999999999822
210
0
220
0
230
1
100
AcDbArc
50
180
51
270
0
ARC
5
163
100
AcDbEntity
8
0
100
AcDbCircle
10
18.749999999999996
20
-16.514923488319795
30
0
40
0.50000000000000044
210
-0
220
0
230
1
100
AcDbArc
50
0
51
90
0
ARC
5
164
100
AcDbEntity
8
0
100
AcDbCircle
10
18.75
20
-34.304573900208027
30
0
40
0.49999999999999822
210
0
220
0
230
1
100
AcDbArc
50
-90
51
0
0
ARC
5
165
100
AcDbEntity
8
0
100
AcDbCircle
10
18.249999999999996
20
-35.304573900208027
30
0
40
0.49999999999999822
210
0
220
-0
230
1
100
AcDbArc
50
90
51
180
0
ARC
5
166
100
AcDbEntity
8
0
100
AcDbCircle
10
-18.249999999999996
20
-35.304573900208027
30
0
40
0.49999999999999822
210
0
220
-0
230
1
100
AcDbArc
50
0
51
90
0
ARC
5
167
100
AcDbEntity
8
0
100
AcDbCircle
10
-18.75
20
-34.304573900208027
30
0
40
0.50000000000000044
210
0
220
0
230
1
100
AcDbArc
50
180
51
270
0
ARC
5
168
100
AcDbEntity
8
0
100
AcDbCircle
10
-18.749999999999996
20
-57.304573900208027
30
0
40
0.49999999999999822
210
0
220
-0
230
1
100
AcDbArc
50
90
51
180
0
ARC
5
169
100
AcDbEntity
8
0
100
AcDbCircle
10
-18.249999999999996
20
-56.304573900208027
30
0
40
0.49999999999999822
210
0
220
0
230
1
100
AcDbArc
50
-90
51
0
0
ARC
5
170
100
AcDbEntity
8
0
100
AcDbCircle
10
18.249999999999996
20
-56.304573900208041
30
0
40
0.50000000000000044
210
0
220
0
230
1
100
AcDbArc
50
180
51
270
0
ARC
5
171
100
AcDbEntity
8
0
100
AcDbCircle
10
18.749999999999982
20
-57.304573900208041
30
0
40
0.50000000000001599
210
0
220
-0
230
1
100
AcDbArc
50
0
51
89.99999999999838
0
ENDSEC
0
SECTION
2
OBJECTS
0
DICTIONARY
5
C
100
AcDbDictionary
3
ACAD_GROUP
350
D
3
ACAD_MLINESTYLE
350
17
0
DICTIONARY
5
D
100
AcDbDictionary
0
DICTIONARY
5
1A
330
C
100
AcDbDictionary
0
DICTIONARY
5
17
100
AcDbDictionary
0
ENDSEC
0
EOF
