0
SECTION
2
HEADER
9
$INSUNITS
70
4
9
$ACADVER
1
AC1014
9
$HANDSEED
5
FFFF
0
ENDSEC
0
SECTION
2
TABLES
0
TABLE
2
VPORT
5
8
100
AcDbSymbolTable
0
ENDTAB
0
TABLE
2
LTYPE
5
5
100
AcDbSymbolTable
0
LTYPE
5
14
100
AcDbSymbolTableRecord
100
AcDbLinetypeTableRecord
2
BYBLOCK
70
0
0
LTYPE
5
15
100
AcDbSymbolTableRecord
100
AcDbLinetypeTableRecord
2
BYLAYER
70
0
0
ENDTAB
0
TABLE
2
LAYER
5
2
100
AcDbSymbolTable
70
2
0
LAYER
5
50
100
AcDbSymbolTableRecord
100
AcDbLayerTableRecord
2
0
70
0
6
CONTINUOUS
0
ENDTAB
0
TABLE
2
STYLE
5
3
100
AcDbSymbolTable
70
1
0
STYLE
5
11
100
AcDbSymbolTableRecord
100
AcDbTextStyleTableRecord
2
STANDARD
70
0
0
ENDTAB
0
TABLE
2
VIEW
5
6
100
AcDbSymbolTable
70
0
0
ENDTAB
0
TABLE
2
UCS
5
7
100
AcDbSymbolTable
70
0
0
ENDTAB
0
TABLE
2
APPID
5
9
100
AcDbSymbolTable
70
2
0
APPID
5
12
100
AcDbSymbolTableRecord
100
AcDbRegAppTableRecord
2
ACAD
70
0
0
ENDTAB
0
TABLE
2
DIMSTYLE
5
A
100
AcDbSymbolTable
70
1
0
ENDTAB
0
TABLE
2
BLOCK_RECORD
5
1
100
AcDbSymbolTable
70
1
0
BLOCK_RECORD
5
1F
100
AcDbSymbolTableRecord
100
AcDbBlockTableRecord
2
*MODEL_SPACE
0
BLOCK_RECORD
5
1B
100
AcDbSymbolTableRecord
100
AcDbBlockTableRecord
2
*PAPER_SPACE
0
ENDTAB
0
ENDSEC
0
SECTION
2
BLOCKS
0
BLOCK
5
20
100
AcDbEntity
100
AcDbBlockBegin
2
*MODEL_SPACE
0
ENDBLK
5
21
100
AcDbEntity
100
AcDbBlockEnd
0
BLOCK
5
1C
100
AcDbEntity
100
AcDbBlockBegin
2
*PAPER_SPACE
0
ENDBLK
5
1D
100
AcDbEntity
100
AcDbBlockEnd
0
ENDSEC
0
SECTION
2
ENTITIES
0
LINE
5
100
100
AcDbEntity
8
0
100
AcDbLine
10
4.2500000000000071
20
-74.25
30
0
11
-4.2499999999999991
21
-74.25
31
0
0
LWPOLYLINE
5
101
100
AcDbEntity
8
0
100
AcDbPolyline
90
4
70
1
43
0.0
10
-8.903955721351867
20
11.095986742275057
10
-6.9147350052243182
20
9.106661597379496
42
-1.0085854628396353
10
-9.1040265186643232
20
6.9120544838614695
10
-10.911826595085326
20
8.7465757858988429
42
-1.0814795235985217
0
LWPOLYLINE
5
102
100
AcDbEntity
8
0
100
AcDbPolyline
90
4
70
1
43
0.0
10
6.9044783723978496
20
9.0965091716241773
10
8.9498318384206961
20
11.140020540343528
42
-0.98169582918159093
10
11.091560487972492
20
8.8995475016624948
10
8.9498318384206996
20
6.7751247089101874
42
-0.93920759434108825
0
LINE
5
103
100
AcDbEntity
8
0
100
AcDbLine
10
9.1747916345799663
20
-6.9888795248236093
30
0
11
11.094265184918335
21
-8.9022369540398785
31
0
0
LINE
5
104
100
AcDbEntity
8
0
100
AcDbLine
10
8.9498318384206996
20
-11.14002054034353
30
0
11
6.9044783723978496
21
-9.0965091716241773
31
0
0
LWPOLYLINE
5
105
100
AcDbEntity
8
0
100
AcDbPolyline
90
4
70
1
43
0.0
10
-8.9039844281930964
20
-11.096015449871393
10
-6.9044783723978496
20
-9.0965091716241773
42
1.0778777751290276
10
-9.2469402487923151
20
-7.0793263249436524
10
-11.088692310918059
20
-8.8967098966509788
42
1.0033353498168929
0
ARC
5
106
100
AcDbEntity
8
0
100
AcDbCircle
10
8
20
-8
30
0
40
1.5499999999999998
210
0
220
-0
230
1
100
AcDbArc
50
40.717942839787533
51
225.02581263946539
0
ARC
5
107
100
AcDbEntity
8
0
100
AcDbCircle
10
10
20
-10
30
0
40
1.5500000000000007
210
0
220
0
230
1
100
AcDbArc
50
-137.2976137580564
51
45.091427884955969
0
CIRCLE
5
108
100
AcDbEntity
8
0
100
AcDbCircle
10
-15.250000000000005
20
15.250000000000002
30
0
40
1.55
210
0
220
0
230
1
0
CIRCLE
5
109
100
AcDbEntity
8
0
100
AcDbCircle
10
-15.250000000000005
20
-15.250000000000002
30
0
40
1.55
210
0
220
0
230
1
0
CIRCLE
5
110
100
AcDbEntity
8
0
100
AcDbCircle
10
15.250000000000005
20
-15.250000000000002
30
0
40
1.55
210
0
220
0
230
1
0
LINE
5
111
100
AcDbEntity
8
0
100
AcDbLine
10
74.248412086837675
20
61.998412086837661
30
0
11
23.936291501015241
21
11.686291501015232
31
0
0
LINE
5
112
100
AcDbEntity
8
0
100
AcDbLine
10
61.998412086837774
20
74.248412086837789
30
0
11
32.906854249492383
21
45.156854249492397
31
0
0
LINE
5
113
100
AcDbEntity
8
0
100
AcDbLine
10
-19.25
20
50.813708498984781
30
0
11
-19.25
21
59.250000000000007
31
0
0
LINE
5
114
100
AcDbEntity
8
0
100
AcDbLine
10
19.25
20
0.37258300203047351
30
0
11
19.249999999999996
21
-0.37258300203047545
31
0
0
LINE
5
115
100
AcDbEntity
8
0
100
AcDbLine
10
19.25
20
-50.813708498984781
30
0
11
19.250000000000004
21
-59.250000000000028
31
0
0
LINE
5
116
100
AcDbEntity
8
0
100
AcDbLine
10
-19.249999999999996
20
-59.249999999999986
30
0
11
-19.25
21
-50.813708498984795
31
0
0
LINE
5
117
100
AcDbEntity
8
0
100
AcDbLine
10
-19.250000000000004
20
-0.37258300203047379
30
0
11
-19.250000000000004
21
0.37258300203047989
31
0
0
LINE
5
118
100
AcDbEntity
8
0
100
AcDbLine
10
19.25
20
59.250000000000007
30
0
11
19.25
21
50.813708498984781
31
0
0
CIRCLE
5
119
100
AcDbEntity
8
0
100
AcDbCircle
10
15.250000000000005
20
15.250000000000002
30
0
40
1.5500000000000005
210
0
220
0
230
1
0
LINE
5
120
100
AcDbEntity
8
0
100
AcDbLine
10
0
20
2.5
30
0
11
0
21
20
31
0
0
LINE
5
121
100
AcDbEntity
8
0
100
AcDbLine
10
20
20
0
30
0
11
2.5
21
0
31
0
0
ARC
5
122
100
AcDbEntity
8
0
100
AcDbCircle
10
4.25
20
59.250000000000007
30
0
40
14.999999999999998
210
0
220
0
230
1
100
AcDbArc
50
0
51
24.849779078012705
0
ARC
5
123
100
AcDbEntity
8
0
100
AcDbCircle
10
-4.25
20
59.250000000000007
30
0
40
15.000000000000004
210
0
220
0
230
1
100
AcDbArc
50
155.15022092198731
51
180
0
ARC
5
124
100
AcDbEntity
8
0
100
AcDbCircle
10
-4.25
20
-59.250000000000007
30
0
40
14.999999999999996
210
0
220
0
230
1
100
AcDbArc
50
180
51
270
0
ARC
5
125
100
AcDbEntity
8
0
100
AcDbCircle
10
4.2500000000000115
20
-59.250000000000014
30
0
40
14.999999999999991
210
0
220
0
230
1
100
AcDbArc
50
270
51
360
0
ARC
5
126
100
AcDbEntity
8
0
100
AcDbCircle
10
27.249999999999996
20
50.813708498984766
30
0
40
7.9999999999999982
210
0
220
0
230
1
100
AcDbArc
50
180
51
315.00000000000011
0
ARC
5
127
100
AcDbEntity
8
0
100
AcDbCircle
10
27.249999999999996
20
-50.813708498984781
30
0
40
7.9999999999999991
210
0
220
-0
230
1
100
AcDbArc
50
44.999999999999986
51
180
0
ARC
5
128
100
AcDbEntity
8
0
100
AcDbCircle
10
-27.249999999999996
20
-50.813708498984781
30
0
40
7.9999999999999964
210
-0
220
0
230
1
100
AcDbArc
50
0
51
135.00000000000003
0
ARC
5
129
100
AcDbEntity
8
0
100
AcDbCircle
10
-27.250000000000007
20
50.813708498984795
30
0
40
8.0000000000000053
210
0
220
0
230
1
100
AcDbArc
50
225.00000000000003
51
360
0
ARC
5
130
100
AcDbEntity
8
0
100
AcDbCircle
10
35.25
20
0.37258300203046879
30
0
40
16.000000000000007
210
0
220
0
230
1
100
AcDbArc
50
135
51
180
0
ARC
5
131
100
AcDbEntity
8
0
100
AcDbCircle
10
-35.25
20
0.37258300203047323
30
0
40
16
210
0
220
-0
230
1
100
AcDbArc
50
0
51
44.999999999999986
0
ARC
5
132
100
AcDbEntity
8
0
100
AcDbCircle
10
-35.25
20
-0.37258300203046879
30
0
40
16.000000000000007
210
0
220
0
230
1
100
AcDbArc
50
315
51
360
0
ARC
5
133
100
AcDbEntity
8
0
100
AcDbCircle
10
35.250000000000043
20
-0.37258300203045658
30
0
40
16.000000000000043
210
0
220
0
230
1
100
AcDbArc
50
180
51
224.99999999999997
0
CIRCLE
5
134
100
AcDbEntity
8
0
100
AcDbCircle
10
15.250000000000005
20
60.25
30
0
40
1.5500000000000025
210
0
220
0
230
1
0
CIRCLE
5
135
100
AcDbEntity
8
0
100
AcDbCircle
10
-15.250000000000005
20
60.25
30
0
40
1.5500000000000014
210
0
220
0
230
1
0
CIRCLE
5
136
100
AcDbEntity
8
0
100
AcDbCircle
10
-15.250000000000005
20
-60.25
30
0
40
1.5500000000000003
210
0
220
0
230
1
0
CIRCLE
5
137
100
AcDbEntity
8
0
100
AcDbCircle
10
15.250000000000005
20
-60.25
30
0
40
1.5500000000000025
210
0
220
0
230
1
0
CIRCLE
5
138
100
AcDbEntity
8
0
100
AcDbCircle
10
-15.250000000000005
20
-30.250000000000004
30
0
40
1.5499999999999992
210
0
220
0
230
1
0
CIRCLE
5
139
100
AcDbEntity
8
0
100
AcDbCircle
10
15.250000000000005
20
-30.250000000000004
30
0
40
1.5500000000000003
210
0
220
0
230
1
0
CIRCLE
5
140
100
AcDbEntity
8
0
100
AcDbCircle
10
-15.250000000000005
20
30.250000000000004
30
0
40
1.5500000000000003
210
0
220
0
230
1
0
CIRCLE
5
141
100
AcDbEntity
8
0
100
AcDbCircle
10
15.250000000000005
20
30.250000000000004
30
0
40
1.5500000000000003
210
0
220
0
230
1
0
LINE
5
142
100
AcDbEntity
8
0
100
AcDbLine
10
61.998412086837774
20
-74.248412086837789
30
0
11
32.906854249492383
21
-45.156854249492397
31
0
0
LINE
5
143
100
AcDbEntity
8
0
100
AcDbLine
10
74.248412086837675
20
-61.998412086837661
30
0
11
23.936291501015241
21
-11.686291501015232
31
0
0
CIRCLE
5
144
100
AcDbEntity
8
0
100
AcDbCircle
10
-92.224872871520915
20
84.224872871520915
30
0
40
1.5499999999999936
210
0
220
0
230
1
0
LINE
5
145
100
AcDbEntity
8
0
100
AcDbLine
10
-74.248412086837675
20
61.998412086837661
30
0
11
-23.936291501015241
21
11.686291501015232
31
0
0
CIRCLE
5
146
100
AcDbEntity
8
0
100
AcDbCircle
10
-76.224872871520901
20
84.224872871520915
30
0
40
1.5499999999999936
210
0
220
0
230
1
0
ARC
5
147
100
AcDbEntity
8
0
100
AcDbCircle
10
-27.249999999999996
20
50.813708498984766
30
0
40
7.9999999999999973
210
0
220
0
230
1
100
AcDbArc
50
-135.00000000000011
51
0
0
CIRCLE
5
148
100
AcDbEntity
8
0
100
AcDbCircle
10
-84.224872871520915
20
84.224872871520915
30
0
40
3.5000000000000044
210
0
220
0
230
1
0
ARC
5
149
100
AcDbEntity
8
0
100
AcDbCircle
10
-27.249999999999996
20
-50.813708498984781
30
0
40
7.9999999999999964
210
0
220
-0
230
1
100
AcDbArc
50
0
51
135.00000000000003
0
LINE
5
150
100
AcDbEntity
8
0
100
AcDbLine
10
-61.998412086837774
20
74.248412086837789
30
0
11
-32.906854249492383
21
45.156854249492397
31
0
0
CIRCLE
5
151
100
AcDbEntity
8
0
100
AcDbCircle
10
-84.224872871520915
20
76.224872871520901
30
0
40
1.5499999999999976
210
0
220
0
230
1
0
LINE
5
152
100
AcDbEntity
8
0
100
AcDbLine
10
-61.998412086837774
20
-74.248412086837789
30
0
11
-32.906854249492383
21
-45.156854249492397
31
0
0
CIRCLE
5
153
100
AcDbEntity
8
0
100
AcDbCircle
10
-84.224872871520915
20
92.224872871520915
30
0
40
1.5499999999999976
210
0
220
0
230
1
0
LINE
5
154
100
AcDbEntity
8
0
100
AcDbLine
10
-74.248412086837661
20
-61.998412086837661
30
0
11
-23.936291501015241
21
-11.686291501015232
31
0
0
LINE
5
155
100
AcDbEntity
8
0
100
AcDbLine
10
17.861190684589033
20
65.553609136657897
30
0
11
14.45764870048575
21
72.902773392295103
31
0
0
ARC
5
156
100
AcDbEntity
8
0
100
AcDbCircle
10
7.6520533581912176
20
69.750968823966147
30
0
40
7.5000000000000178
210
0
220
-0
230
1
100
AcDbArc
50
24.84977907801272
51
119.41821180106771
0
LINE
5
157
100
AcDbEntity
8
0
100
AcDbLine
10
-17.861190684589033
20
65.553609136657897
30
0
11
-14.45764870048575
21
72.902773392294961
31
0
0
ARC
5
158
100
AcDbEntity
8
0
100
AcDbCircle
10
-7.6520533581912176
20
69.750968823966147
30
0
40
7.5000000000000169
210
0
220
-0
230
1
100
AcDbArc
50
60.581788198932287
51
155.15022092198828
0
LINE
5
159
100
AcDbEntity
8
0
100
AcDbLine
10
-3.9681984887833326
20
76.283901802433022
30
0
11
3.9681984887833326
21
76.283901802433022
31
0
0
ARC
5
160
100
AcDbEntity
8
0
100
AcDbCircle
10
-84.224872871520915
20
84.224872871520915
30
0
40
15.999999999999996
210
0
220
-0
230
1
100
AcDbArc
50
9.2768459138289714
51
260.72315408617101
0
ARC
5
161
100
AcDbEntity
8
0
100
AcDbCircle
10
-45.734956119547178
20
90.511868054128385
30
0
40
22.999999999999975
210
0
220
0
230
1
100
AcDbArc
50
189.27684591382911
51
225
0
ARC
5
162
100
AcDbEntity
8
0
100
AcDbCircle
10
-90.511868054128115
20
45.734956119547604
30
0
40
22.999999999999524
210
0
220
-0
230
1
100
AcDbArc
50
44.999999999999325
51
80.723154086171348
0
ARC
5
163
100
AcDbEntity
8
0
100
AcDbCircle
10
84.224872871520915
20
84.224872871520915
30
0
40
15.999999999999993
210
-0
220
0
230
1
100
AcDbArc
50
-80.723154086171022
51
170.72315408617106
0
CIRCLE
5
164
100
AcDbEntity
8
0
100
AcDbCircle
10
84.224872871520915
20
84.224872871520915
30
0
40
3.5000000000000044
210
0
220
0
230
1
0
CIRCLE
5
165
100
AcDbEntity
8
0
100
AcDbCircle
10
92.224872871520915
20
84.224872871520915
30
0
40
1.5499999999999936
210
0
220
0
230
1
0
CIRCLE
5
166
100
AcDbEntity
8
0
100
AcDbCircle
10
84.224872871520915
20
76.224872871520901
30
0
40
1.5499999999999976
210
0
220
0
230
1
0
CIRCLE
5
167
100
AcDbEntity
8
0
100
AcDbCircle
10
84.224872871520915
20
92.224872871520915
30
0
40
1.5499999999999976
210
0
220
0
230
1
0
ARC
5
168
100
AcDbEntity
8
0
100
AcDbCircle
10
45.734956119547178
20
90.511868054128385
30
0
40
23
210
0
220
0
230
1
100
AcDbArc
50
315
51
350.72315408617089
0
CIRCLE
5
169
100
AcDbEntity
8
0
100
AcDbCircle
10
76.224872871520901
20
84.224872871520915
30
0
40
1.5499999999999936
210
0
220
0
230
1
0
ARC
5
170
100
AcDbEntity
8
0
100
AcDbCircle
10
90.511868054128115
20
45.734956119547604
30
0
40
22.999999999999517
210
0
220
0
230
1
100
AcDbArc
50
99.276845913828652
51
135.00000000000068
0
ARC
5
171
100
AcDbEntity
8
0
100
AcDbCircle
10
90.511868054128115
20
-45.734956119547604
30
0
40
22.999999999999524
210
0
220
0
230
1
100
AcDbArc
50
224.99999999999932
51
260.72315408617135
0
CIRCLE
5
172
100
AcDbEntity
8
0
100
AcDbCircle
10
84.224872871520915
20
-84.224872871520915
30
0
40
3.5000000000000044
210
0
220
0
230
1
0
ARC
5
173
100
AcDbEntity
8
0
100
AcDbCircle
10
45.734956119547178
20
-90.511868054128385
30
0
40
22.999999999999975
210
0
220
-0
230
1
100
AcDbArc
50
9.2768459138290886
51
45
0
CIRCLE
5
174
100
AcDbEntity
8
0
100
AcDbCircle
10
84.224872871520915
20
-76.224872871520901
30
0
40
1.5499999999999976
210
0
220
0
230
1
0
CIRCLE
5
175
100
AcDbEntity
8
0
100
AcDbCircle
10
76.224872871520901
20
-84.224872871520915
30
0
40
1.5499999999999936
210
0
220
0
230
1
0
CIRCLE
5
176
100
AcDbEntity
8
0
100
AcDbCircle
10
84.224872871520915
20
-92.224872871520915
30
0
40
1.5499999999999976
210
0
220
0
230
1
0
CIRCLE
5
177
100
AcDbEntity
8
0
100
AcDbCircle
10
92.224872871520915
20
-84.224872871520915
30
0
40
1.5499999999999936
210
0
220
0
230
1
0
ARC
5
178
100
AcDbEntity
8
0
100
AcDbCircle
10
84.224872871520915
20
-84.224872871520915
30
0
40
15.999999999999996
210
0
220
0
230
1
100
AcDbArc
50
-170.72315408617106
51
80.723154086171036
0
CIRCLE
5
179
100
AcDbEntity
8
0
100
AcDbCircle
10
-76.224872871520901
20
-84.224872871520915
30
0
40
1.5499999999999936
210
0
220
0
230
1
0
ARC
5
180
100
AcDbEntity
8
0
100
AcDbCircle
10
-84.224872871520915
20
-84.224872871520915
30
0
40
15.999999999999993
210
0
220
0
230
1
100
AcDbArc
50
99.276845913828964
51
350.72315408617101
0
CIRCLE
5
181
100
AcDbEntity
8
0
100
AcDbCircle
10
-84.224872871520915
20
-76.224872871520901
30
0
40
1.5499999999999976
210
0
220
0
230
1
0
CIRCLE
5
182
100
AcDbEntity
8
0
100
AcDbCircle
10
-84.224872871520915
20
-92.224872871520915
30
0
40
1.5499999999999976
210
0
220
0
230
1
0
CIRCLE
5
183
100
AcDbEntity
8
0
100
AcDbCircle
10
-84.224872871520915
20
-84.224872871520915
30
0
40
3.5000000000000044
210
0
220
0
230
1
0
CIRCLE
5
184
100
AcDbEntity
8
0
100
AcDbCircle
10
-92.224872871520915
20
-84.224872871520915
30
0
40
1.5499999999999936
210
0
220
0
230
1
0
ARC
5
185
100
AcDbEntity
8
0
100
AcDbCircle
10
-45.734956119547178
20
-90.511868054128385
30
0
40
23
210
0
220
0
230
1
100
AcDbArc
50
135
51
170.72315408617092
0
ARC
5
186
100
AcDbEntity
8
0
100
AcDbCircle
10
-90.511868054128115
20
-45.734956119547604
30
0
40
22.999999999999517
210
-0
220
0
230
1
100
AcDbArc
50
279.27684591382865
51
315.00000000000068
0
LWPOLYLINE
5
187
100
AcDbEntity
8
0
100
AcDbPolyline
90
4
70
1
43
0.0
10
-6.914735005224296
20
54.106661597379471
42
-1.0085854628396256
10
-9.1040265186643232
20
51.912054483861468
10
-10.911826595085326
20
53.746575785898841
42
-1.0814795235985213
10
-8.903955721351867
20
56.095986742275059
0
LWPOLYLINE
5
188
100
AcDbEntity
8
0
100
AcDbPolyline
90
4
70
1
43
0.0
10
8.9498318384207032
20
51.775124708910177
42
-0.93920759434108991
10
6.9044783723978496
20
54.096509171624177
10
8.9498318384206996
20
56.140020540343521
42
-0.9816958291815896
10
11.091560487972492
20
53.899547501662497
0
LWPOLYLINE
5
189
100
AcDbEntity
8
0
100
AcDbPolyline
90
4
70
1
43
0.0
10
-9.2469402487923187
20
37.920673675056349
42
-1.0778777751290294
10
-6.9044783723978496
20
35.903490828375823
10
-8.9039844281931
20
33.903984550128612
42
-1.0033353498168678
10
-11.088692310918059
20
36.103290103349018
0
LINE
5
190
100
AcDbEntity
8
0
100
AcDbLine
10
9.1747916345799663
20
38.011120475176391
30
0
11
11.094265184918335
21
36.097763045960122
31
0
0
LINE
5
191
100
AcDbEntity
8
0
100
AcDbLine
10
8.9498318384206996
20
33.859979459656472
30
0
11
6.9044783723978496
21
35.903490828375823
31
0
0
ARC
5
192
100
AcDbEntity
8
0
100
AcDbCircle
10
10
20
35
30
0
40
1.5500000000000007
210
0
220
0
230
1
100
AcDbArc
50
-137.29761375805631
51
45.091427884955969
0
ARC
5
193
100
AcDbEntity
8
0
100
AcDbCircle
10
8
20
37
30
0
40
1.5499999999999978
210
0
220
-0
230
1
100
AcDbArc
50
40.717942839787533
51
225.02581263946539
0
LWPOLYLINE
5
194
100
AcDbEntity
8
0
100
AcDbPolyline
90
4
70
1
43
0.0
10
-6.9147350052243031
20
-35.893338402620522
42
-1.0085854628396287
10
-9.1040265186643232
20
-38.087945516138532
10
-10.911826595085326
20
-36.253424214101159
42
-1.0814795235985213
10
-8.903955721351867
20
-33.904013257724941
0
LWPOLYLINE
5
195
100
AcDbEntity
8
0
100
AcDbPolyline
90
4
70
1
43
0.0
10
8.9498318384207014
20
-38.224875291089816
42
-0.93920759434108869
10
6.9044783723978496
20
-35.903490828375823
10
8.9498318384206996
20
-33.859979459656472
42
-0.9816958291815896
10
11.091560487972492
20
-36.100452498337503
0
LWPOLYLINE
5
196
100
AcDbEntity
8
0
100
AcDbPolyline
90
4
70
1
43
0.0
10
-9.2469402487923187
20
-52.079326324943651
42
-1.0778777751290292
10
-6.9044783723978496
20
-54.096509171624177
10
-8.9039844281931
20
-56.096015449871395
42
-1.0033353498168678
10
-11.088692310918059
20
-53.896709896650982
0
LINE
5
197
100
AcDbEntity
8
0
100
AcDbLine
10
9.1747916345799663
20
-51.988879524823602
30
0
11
11.094265184918335
21
-53.902236954039878
31
0
0
LINE
5
198
100
AcDbEntity
8
0
100
AcDbLine
10
8.9498318384206996
20
-56.140020540343528
30
0
11
6.9044783723978496
21
-54.096509171624177
31
0
0
ARC
5
199
100
AcDbEntity
8
0
100
AcDbCircle
10
10
20
-55
30
0
40
1.549999999999998
210
0
220
0
230
1
100
AcDbArc
50
-137.29761375805651
51
45.091427884955969
0
ARC
5
200
100
AcDbEntity
8
0
100
AcDbCircle
10
8
20
-53
30
0
40
1.5500000000000005
210
0
220
-0
230
1
100
AcDbArc
50
40.717942839787739
51
225.02581263946539
0
ENDSEC
0
SECTION
2
OBJECTS
0
DICTIONARY
5
C
100
AcDbDictionary
3
ACAD_GROUP
350
D
3
ACAD_MLINESTYLE
350
17
0
DICTIONARY
5
D
100
AcDbDictionary
0
DICTIONARY
5
1A
330
C
100
AcDbDictionary
0
DICTIONARY
5
17
100
AcDbDictionary
0
ENDSEC
0
EOF
