0
SECTION
2
HEADER
9
$INSUNITS
70
4
9
$ACADVER
1
AC1014
9
$HANDSEED
5
FFFF
0
ENDSEC
0
SECTION
2
TABLES
0
TABLE
2
VPORT
5
8
100
AcDbSymbolTable
0
ENDTAB
0
TABLE
2
LTYPE
5
5
100
AcDbSymbolTable
0
LTYPE
5
14
100
AcDbSymbolTableRecord
100
AcDbLinetypeTableRecord
2
BYBLOCK
70
0
0
LTYPE
5
15
100
AcDbSymbolTableRecord
100
AcDbLinetypeTableRecord
2
BYLAYER
70
0
0
ENDTAB
0
TABLE
2
LAYER
5
2
100
AcDbSymbolTable
70
2
0
LAYER
5
50
100
AcDbSymbolTableRecord
100
AcDbLayerTableRecord
2
0
70
0
6
CONTINUOUS
0
ENDTAB
0
TABLE
2
STYLE
5
3
100
AcDbSymbolTable
70
1
0
STYLE
5
11
100
AcDbSymbolTableRecord
100
AcDbTextStyleTableRecord
2
STANDARD
70
0
0
ENDTAB
0
TABLE
2
VIEW
5
6
100
AcDbSymbolTable
70
0
0
ENDTAB
0
TABLE
2
UCS
5
7
100
AcDbSymbolTable
70
0
0
ENDTAB
0
TABLE
2
APPID
5
9
100
AcDbSymbolTable
70
2
0
APPID
5
12
100
AcDbSymbolTableRecord
100
AcDbRegAppTableRecord
2
ACAD
70
0
0
ENDTAB
0
TABLE
2
DIMSTYLE
5
A
100
AcDbSymbolTable
70
1
0
ENDTAB
0
TABLE
2
BLOCK_RECORD
5
1
100
AcDbSymbolTable
70
1
0
BLOCK_RECORD
5
1F
100
AcDbSymbolTableRecord
100
AcDbBlockTableRecord
2
*MODEL_SPACE
0
BLOCK_RECORD
5
1B
100
AcDbSymbolTableRecord
100
AcDbBlockTableRecord
2
*PAPER_SPACE
0
ENDTAB
0
ENDSEC
0
SECTION
2
BLOCKS
0
BLOCK
5
20
100
AcDbEntity
100
AcDbBlockBegin
2
*MODEL_SPACE
0
ENDBLK
5
21
100
AcDbEntity
100
AcDbBlockEnd
0
BLOCK
5
1C
100
AcDbEntity
100
AcDbBlockBegin
2
*PAPER_SPACE
0
ENDBLK
5
1D
100
AcDbEntity
100
AcDbBlockEnd
0
ENDSEC
0
SECTION
2
ENTITIES
0
CIRCLE
5
100
100
AcDbEntity
8
0
100
AcDbCircle
10
8
20
8
30
0
40
0.99999999999999978
210
0
220
-0
230
1
0
LWPOLYLINE
5
101
100
AcDbEntity
8
0
100
AcDbPolyline
90
22
70
1
43
0.0
10
6.2322369037450134
20
9.7677708096693365
10
11.066201921230865
20
14.601714734842229
42
0.086791661301770379
10
13.708906409879242
20
18.364778988921614
42
-0.14811343453005432
10
15.066851796045551
20
19.872469261469149
42
0.060543486046512648
10
20.195653719602397
20
23.889709960100028
10
37.662602734254975
20
41.356582760226047
42
0.31029507507571685
10
38.593010037084369
20
46.365678186521222
42
-0.5186719196519628
10
41.529267162928008
20
51.276922472831608
42
0.37136566947217681
10
44.296378220164826
20
54.048271332760052
42
-0.32397852343631361
10
46.941066623212521
20
57.18760007732692
10
57.357617354843583
20
59.781944539898177
42
-0.56565824351775729
10
59.781608369471265
20
57.357570742443535
10
57.187640095322607
20
46.949538641101505
42
-0.32351223250241001
10
54.053786316791758
20
44.305783757649884
42
0.37136566947217581
10
51.28667525955494
20
41.534434897721454
42
-0.51943908271333117
10
46.372197029224147
20
38.594098243860778
42
0.3181759295755342
10
41.272226334616562
20
37.575625228325023
10
23.886178513735956
20
20.189653268970183
42
0.060486472940751879
10
19.872088742155196
20
15.066119371962369
42
-0.1462054225421078
10
18.38771047425557
20
13.719721329167855
42
0.084967543351691696
10
14.513629565877322
20
10.978074952045421
10
9.7677630962549884
20
6.2322291903306635
42
-0.99999999999999989
0
CIRCLE
5
102
100
AcDbEntity
8
0
100
AcDbCircle
10
16.876875437008113
20
16.876836704035473
30
0
40
0.99999999999999956
210
0
220
-0
230
1
0
LWPOLYLINE
5
103
100
AcDbEntity
8
0
100
AcDbPolyline
90
4
70
1
43
0.0
10
43.292293215982447
20
46.787910193287857
10
41.792293655083519
20
46.786762455058906
42
-0.99999999999999989
10
41.790763337444865
20
48.786761869590777
10
43.290762898343772
20
48.787909607819756
42
-0.99999999999999989
0
LWPOLYLINE
5
104
100
AcDbEntity
8
0
100
AcDbPolyline
90
4
70
1
43
0.0
10
46.786936079678007
20
53.790586200017152
42
-0.99999999999999989
10
48.786935494209914
20
53.792116517655735
10
48.788083232438879
20
52.292116956756836
42
-0.99999999999999989
10
46.788083817907008
20
52.290586639118217
0
ARC
5
105
100
AcDbEntity
8
0
100
AcDbCircle
10
52.291525422556646
20
47.794796329927692
30
0
40
0.99999999999998934
210
0
220
0
230
1
100
AcDbArc
50
90.04384037528169
51
270.04384037528087
0
LINE
5
106
100
AcDbEntity
8
0
100
AcDbLine
10
52.292290581375944
20
46.79479662266175
30
0
11
53.792290142274872
21
46.795944360890722
31
0
0
CIRCLE
5
107
100
AcDbEntity
8
0
100
AcDbCircle
10
47.79152673985989
20
47.791353115240753
30
0
40
2.75
210
0
220
-0
230
1
0
LWPOLYLINE
5
108
100
AcDbEntity
8
0
100
AcDbPolyline
90
4
70
1
43
0.0
10
48.796117400041766
20
41.792120030464403
42
-0.99999999999999989
10
46.796117985509838
20
41.790589712825749
10
46.794970247280858
20
43.290589273724663
42
-0.99999999999999989
10
48.794969661812772
20
43.292119591363317
0
LINE
5
109
100
AcDbEntity
8
0
100
AcDbLine
10
52.290760263737333
20
48.794796037193635
30
0
11
53.790759824636254
21
48.795943775422614
31
0
0
ARC
5
110
100
AcDbEntity
8
0
100
AcDbCircle
10
53.791524983455574
20
47.795944068156672
30
0
40
0.99999999999999822
210
-0
220
0
230
1
100
AcDbArc
50
-89.956159624719106
51
90.043840375282088
0
LINE
5
111
100
AcDbEntity
8
0
100
AcDbLine
10
1.75
20
0
30
0
11
22.5
21
0
31
0
0
LINE
5
112
100
AcDbEntity
8
0
100
AcDbLine
10
47.79152673985989
20
47.791353115240753
30
0
11
54.862594551725358
21
54.862420927106221
31
0
0
LINE
5
113
100
AcDbEntity
8
0
100
AcDbLine
10
54.862594551725358
20
54.862420927106221
30
0
11
60.586237876235515
21
60.586064251616378
31
0
0
LWPOLYLINE
5
114
100
AcDbEntity
8
0
100
AcDbPolyline
90
6
70
1
43
0.0
10
56.438798943239938
20
52.215158525570743
10
57.438656409307981
20
56.226984231888608
42
0.56565824351775329
10
56.22666090199413
20
57.439171130615925
10
52.21024490412929
20
56.438843203272214
42
0.58354867514887931
10
51.745408915397206
20
54.760786255222669
10
54.761967447194024
20
51.749288476248537
42
0.58293321291993183
0
ARC
5
115
100
AcDbEntity
8
0
100
AcDbCircle
10
47.786935786943957
20
53.791351358836444
30
0
40
3.4999999999999938
210
0
220
0
230
1
100
AcDbArc
50
255.68232881236764
51
284.40535193819716
0
ENDSEC
0
SECTION
2
OBJECTS
0
DICTIONARY
5
C
100
AcDbDictionary
3
ACAD_GROUP
350
D
3
ACAD_MLINESTYLE
350
17
0
DICTIONARY
5
D
100
AcDbDictionary
0
DICTIONARY
5
1A
330
C
100
AcDbDictionary
0
DICTIONARY
5
17
100
AcDbDictionary
0
ENDSEC
0
EOF
