0
SECTION
2
HEADER
9
$INSUNITS
70
4
9
$ACADVER
1
AC1014
9
$HANDSEED
5
FFFF
0
ENDSEC
0
SECTION
2
TABLES
0
TABLE
2
VPORT
5
8
100
AcDbSymbolTable
0
ENDTAB
0
TABLE
2
LTYPE
5
5
100
AcDbSymbolTable
0
LTYPE
5
14
100
AcDbSymbolTableRecord
100
AcDbLinetypeTableRecord
2
BYBLOCK
70
0
0
LTYPE
5
15
100
AcDbSymbolTableRecord
100
AcDbLinetypeTableRecord
2
BYLAYER
70
0
0
ENDTAB
0
TABLE
2
LAYER
5
2
100
AcDbSymbolTable
70
2
0
LAYER
5
50
100
AcDbSymbolTableRecord
100
AcDbLayerTableRecord
2
0
70
0
6
CONTINUOUS
0
ENDTAB
0
TABLE
2
STYLE
5
3
100
AcDbSymbolTable
70
1
0
STYLE
5
11
100
AcDbSymbolTableRecord
100
AcDbTextStyleTableRecord
2
STANDARD
70
0
0
ENDTAB
0
TABLE
2
VIEW
5
6
100
AcDbSymbolTable
70
0
0
ENDTAB
0
TABLE
2
UCS
5
7
100
AcDbSymbolTable
70
0
0
ENDTAB
0
TABLE
2
APPID
5
9
100
AcDbSymbolTable
70
2
0
APPID
5
12
100
AcDbSymbolTableRecord
100
AcDbRegAppTableRecord
2
ACAD
70
0
0
ENDTAB
0
TABLE
2
DIMSTYLE
5
A
100
AcDbSymbolTable
70
1
0
ENDTAB
0
TABLE
2
BLOCK_RECORD
5
1
100
AcDbSymbolTable
70
1
0
BLOCK_RECORD
5
1F
100
AcDbSymbolTableRecord
100
AcDbBlockTableRecord
2
*MODEL_SPACE
0
BLOCK_RECORD
5
1B
100
AcDbSymbolTableRecord
100
AcDbBlockTableRecord
2
*PAPER_SPACE
0
ENDTAB
0
ENDSEC
0
SECTION
2
BLOCKS
0
BLOCK
5
20
100
AcDbEntity
100
AcDbBlockBegin
2
*MODEL_SPACE
0
ENDBLK
5
21
100
AcDbEntity
100
AcDbBlockEnd
0
BLOCK
5
1C
100
AcDbEntity
100
AcDbBlockBegin
2
*PAPER_SPACE
0
ENDBLK
5
1D
100
AcDbEntity
100
AcDbBlockEnd
0
ENDSEC
0
SECTION
2
ENTITIES
0
LWPOLYLINE
5
100
100
AcDbEntity
8
0
100
AcDbPolyline
90
4
70
1
43
0.0
10
434.86769348312998
20
40.066000279136453
10
434.86769348312998
20
0.066000279136621265
10
244.86769348313072
20
0.066000279136604334
10
244.86769348313072
20
40.066000279136432
0
LWPOLYLINE
5
101
100
AcDbEntity
8
0
100
AcDbPolyline
90
4
70
1
43
0.0
10
257.63238726949737
20
34.639568864174187
10
283.63238726949726
20
34.639568864174187
42
0.99999999999999989
10
283.63238726949726
20
37.639568864174223
10
257.63238726949737
20
37.639568864174208
42
0.99999999999999989
0
LWPOLYLINE
5
102
100
AcDbEntity
8
0
100
AcDbPolyline
90
4
70
1
43
0.0
10
298.86769348313055
20
18.066000279136549
10
292.86769348313055
20
18.066000279136539
42
0.99999999999999989
10
292.86769348313055
20
15.066000279136546
10
298.86769348313055
20
15.066000279136546
42
0.99999999999999989
0
LWPOLYLINE
5
103
100
AcDbEntity
8
0
100
AcDbPolyline
90
4
70
1
43
0.0
10
298.86769348313055
20
25.066000279136496
42
-0.99999999999999989
10
298.86769348313055
20
22.06600027913651
10
292.86769348313055
20
22.066000279136549
42
-0.99999999999999989
10
292.86769348313049
20
25.06600027913651
0
LWPOLYLINE
5
104
100
AcDbEntity
8
0
100
AcDbPolyline
90
8
70
1
43
0.0
10
305.86769348313049
20
9.0660002791365777
10
340.86769348313032
20
9.066000279136583
42
0.41421356237307749
10
341.86769348313032
20
10.066000279136569
10
341.86769348313027
20
17.066000279136542
42
0.41421356237311779
10
340.86769348313032
20
18.066000279136535
10
305.86769348313049
20
18.066000279136528
42
0.41421356237311391
10
304.86769348313049
20
17.066000279136535
10
304.86769348313044
20
10.066000279136562
42
0.41421356237309437
0
LWPOLYLINE
5
105
100
AcDbEntity
8
0
100
AcDbPolyline
90
8
70
1
43
0.0
10
305.86769348313049
20
22.06600027913651
10
340.86769348313032
20
22.066000279136549
42
0.41421356237307683
10
341.86769348313032
20
23.066000279136535
10
341.86769348313027
20
30.066000279136507
42
0.41421356237311585
10
340.86769348313032
20
31.066000279136432
10
305.86769348313049
20
31.066000279136482
42
0.41421356237310542
10
304.86769348313044
20
30.066000279136485
10
304.86769348313044
20
23.066000279136524
42
0.41421356237309631
0
LWPOLYLINE
5
106
100
AcDbEntity
8
0
100
AcDbPolyline
90
8
70
1
43
0.0
10
283.86769348313055
20
31.066000279136468
10
248.86769348313069
20
31.066000279136397
42
0.41421356237311713
10
247.86769348313078
20
30.066000279136471
10
247.86769348313069
20
23.066000279136333
42
0.41421356237307422
10
248.86769348313069
20
22.066000279136318
10
283.86769348313055
20
22.066000279136496
42
0.41421356237308721
10
284.86769348313055
20
23.066000279136492
10
284.86769348313055
20
30.066000279136489
42
0.41421356237309892
0
LWPOLYLINE
5
107
100
AcDbEntity
8
0
100
AcDbPolyline
90
8
70
1
43
0.0
10
284.86769348313055
20
10.066000279136563
10
284.86769348313055
20
17.066000279136539
42
0.41421356237309959
10
283.86769348313055
20
18.066000279136517
10
248.86769348313069
20
18.066000279136535
42
0.41421356237307294
10
247.86769348313069
20
17.066000279136532
10
247.86769348313069
20
10.06600027913656
42
0.41421356237307355
10
248.86769348313069
20
9.0660002791365457
10
283.86769348313055
20
9.0660002791365795
42
0.41421356237309959
0
LWPOLYLINE
5
108
100
AcDbEntity
8
0
100
AcDbPolyline
90
4
70
1
43
0.0
10
283.63238726949726
20
5.4924316940988724
10
257.63238726949737
20
5.4924316940988573
42
0.99999999999999989
10
257.63238726949737
20
2.4924316940988636
10
283.63238726949726
20
2.4924316940988698
42
0.99999999999999989
0
LWPOLYLINE
5
109
100
AcDbEntity
8
0
100
AcDbPolyline
90
4
70
1
43
0.0
10
368.86769348313015
20
8.5660002791365653
10
374.86769348313021
20
8.5660002791365741
42
0.99999999999999989
10
374.86769348313021
20
11.566000279136565
10
368.86769348313015
20
11.566000279136567
42
0.99999999999999989
0
LWPOLYLINE
5
110
100
AcDbEntity
8
0
100
AcDbPolyline
90
4
70
1
43
0.0
10
396.86769348313015
20
37.066000279136475
10
390.8676934831301
20
37.066000279136475
42
0.99999999999999989
10
390.8676934831301
20
34.066000279136468
10
396.86769348313015
20
34.066000279136475
42
0.99999999999999989
0
LINE
5
111
100
AcDbEntity
8
0
100
AcDbLine
10
401.39281974897705
20
32.540874013289404
30
0
11
406.6428197489771
21
37.790874013289397
31
0
0
ARC
5
112
100
AcDbEntity
8
0
100
AcDbCircle
10
409.11769348312998
20
35.31600027913646
30
0
40
3.4999999999999805
210
-0
220
0
230
1
100
AcDbArc
50
-44.999999999999751
51
134.99999999999935
0
LINE
5
113
100
AcDbEntity
8
0
100
AcDbLine
10
411.59256721728292
20
32.841126544983545
30
0
11
406.34256718040444
21
27.591126508105077
31
0
0
ARC
5
114
100
AcDbEntity
8
0
100
AcDbCircle
10
403.86769348313004
20
30.066000279136489
30
0
40
3.5000000000000338
210
0
220
0
230
1
100
AcDbArc
50
135.00000000000091
51
314.99999914622612
0
LWPOLYLINE
5
115
100
AcDbEntity
8
0
100
AcDbPolyline
90
4
70
1
43
0.0
10
347.86769348313032
20
22.06600027913656
42
-0.99999999999999989
10
347.86769348313032
20
25.066000279136542
10
353.86769348313032
20
25.066000279136556
42
-0.99999999999999989
10
353.86769348313032
20
22.066000279136496
0
LWPOLYLINE
5
116
100
AcDbEntity
8
0
100
AcDbPolyline
90
4
70
1
43
0.0
10
347.86769348313032
20
15.06600027913656
10
353.86769348313032
20
15.066000279136549
42
0.99999999999999989
10
353.86769348313032
20
18.066000279136542
10
347.86769348313032
20
18.066000279136546
42
0.99999999999999989
0
LWPOLYLINE
5
117
100
AcDbEntity
8
0
100
AcDbPolyline
90
4
70
1
43
0.0
10
396.86769348313015
20
6.0660002791365937
10
390.8676934831301
20
6.0660002791365937
42
0.99999999999999989
10
390.8676934831301
20
3.0660002791366092
10
396.86769348313015
20
3.0660002791366097
42
0.99999999999999989
0
LWPOLYLINE
5
118
100
AcDbEntity
8
0
100
AcDbPolyline
90
4
70
1
43
0.0
10
381.09256721728309
20
2.3411265449836223
42
-0.99999999999999989
10
376.14281974897727
20
7.2908740132895193
10
381.39281974897727
20
12.54087401328947
42
-0.99999999999999989
10
386.34256721728309
20
7.591126544983668
0
LWPOLYLINE
5
119
100
AcDbEntity
8
0
100
AcDbPolyline
90
4
70
1
43
0.0
10
386.34256721728309
20
32.54087401328939
42
-0.99999999999999989
10
381.39281974897727
20
27.591126544983599
10
376.14281974897727
20
32.841126544983581
42
-0.99999999999999989
10
381.09256721728309
20
37.790874013289368
0
LWPOLYLINE
5
120
100
AcDbEntity
8
0
100
AcDbPolyline
90
4
70
1
43
0.0
10
411.59256721728292
20
7.290874013289562
42
-0.99999999999999989
10
406.6428197489771
20
2.341126544983676
10
401.39281974897722
20
7.5911265449836129
42
-0.99999999999999989
10
406.34256721728298
20
12.540874013289498
0
LWPOLYLINE
5
121
100
AcDbEntity
8
0
100
AcDbPolyline
90
4
70
1
43
0.0
10
406.96769348313006
20
15.066000279136553
10
418.96769348313001
20
15.066000279136551
42
0.99999999999999989
10
418.96769348313001
20
18.066000279136546
10
406.96769348313006
20
18.066000279136546
42
0.99999999999999989
0
LWPOLYLINE
5
122
100
AcDbEntity
8
0
100
AcDbPolyline
90
4
70
1
43
0.0
10
368.86769348313032
20
28.566000279136496
42
-0.99999999999999989
10
368.86769348313015
20
31.566000279136482
10
374.86769348313021
20
31.566000279136489
42
-0.99999999999999989
10
374.86769348313021
20
28.566000279136489
0
LWPOLYLINE
5
123
100
AcDbEntity
8
0
100
AcDbPolyline
90
4
70
1
43
0.0
10
418.96769348313001
20
25.066000279136915
10
406.96769348313006
20
25.066000279136617
42
0.99999999999999989
10
406.96769348313006
20
22.066000279136301
10
418.96769348313001
20
22.066000279137015
42
0.99999999999999989
0
LWPOLYLINE
5
124
100
AcDbEntity
8
0
100
AcDbPolyline
90
8
70
1
43
0.0
10
380.49269348313027
20
16.566000279136556
42
-0.41421356237307749
10
379.49269348313015
20
15.566000279136563
10
360.24269348313021
20
15.566000279136549
42
-0.41421356237313273
10
359.24269348313021
20
16.566000279136549
10
359.24269348313021
20
23.566000279136524
42
-0.41421356237307683
10
360.24269348313021
20
24.566000279136514
10
379.49269348313015
20
24.566000279136535
42
-0.41421356237313273
10
380.49269348313021
20
23.566000279136535
0
LWPOLYLINE
5
125
100
AcDbEntity
8
0
100
AcDbPolyline
90
8
70
1
43
0.0
10
387.2426934831301
20
23.566000279136532
42
-0.41421356237304563
10
388.2426934831301
20
24.566000279136517
10
399.4926934831301
20
24.566000279136478
42
-0.41421356237309631
10
400.49269348313004
20
23.566000279136532
10
400.4926934831301
20
16.566000279136553
42
-0.41421356237304624
10
399.4926934831301
20
15.56600027913656
10
388.2426934831301
20
15.566000279136606
42
-0.41421356237309698
10
387.24269348313015
20
16.566000279136556
0
CIRCLE
5
126
100
AcDbEntity
8
0
100
AcDbCircle
10
249.36769348313067
20
35.816000279136439
30
0
40
2.3499999999999943
210
0
220
0
230
1
0
CIRCLE
5
127
100
AcDbEntity
8
0
100
AcDbCircle
10
295.86769348313049
20
35.816000279136468
30
0
40
2.3499999999999943
210
0
220
0
230
1
0
CIRCLE
5
128
100
AcDbEntity
8
0
100
AcDbCircle
10
249.36769348313072
20
4.3160002791365946
30
0
40
2.3499999999999943
210
0
220
0
230
1
0
CIRCLE
5
129
100
AcDbEntity
8
0
100
AcDbCircle
10
295.86769348313049
20
4.316000279136599
30
0
40
2.3499999999999943
210
0
220
0
230
1
0
CIRCLE
5
130
100
AcDbEntity
8
0
100
AcDbCircle
10
350.86769348313032
20
4.3160002791366026
30
0
40
2.3499999999999943
210
0
220
0
230
1
0
CIRCLE
5
131
100
AcDbEntity
8
0
100
AcDbCircle
10
350.86769348313032
20
35.816000279136482
30
0
40
2.3499999999999943
210
0
220
0
230
1
0
CIRCLE
5
132
100
AcDbEntity
8
0
100
AcDbCircle
10
418.86769348313004
20
35.81600027913651
30
0
40
2.3499999999999943
210
0
220
0
230
1
0
CIRCLE
5
133
100
AcDbEntity
8
0
100
AcDbCircle
10
430.36769348312993
20
35.81600027913651
30
0
40
2.3499999999999943
210
0
220
0
230
1
0
CIRCLE
5
134
100
AcDbEntity
8
0
100
AcDbCircle
10
418.86769348313004
20
4.3160002791366043
30
0
40
2.3499999999999943
210
0
220
0
230
1
0
CIRCLE
5
135
100
AcDbEntity
8
0
100
AcDbCircle
10
430.36769348312993
20
4.3160002791366034
30
0
40
2.3499999999999943
210
0
220
0
230
1
0
ENDSEC
0
SECTION
2
OBJECTS
0
DICTIONARY
5
C
100
AcDbDictionary
3
ACAD_GROUP
350
D
3
ACAD_MLINESTYLE
350
17
0
DICTIONARY
5
D
100
AcDbDictionary
0
DICTIONARY
5
1A
330
C
100
AcDbDictionary
0
DICTIONARY
5
17
100
AcDbDictionary
0
ENDSEC
0
EOF
