0
SECTION
2
HEADER
9
$INSUNITS
70
4
9
$ACADVER
1
AC1014
9
$HANDSEED
5
FFFF
0
ENDSEC
0
SECTION
2
TABLES
0
TABLE
2
VPORT
5
8
100
AcDbSymbolTable
0
ENDTAB
0
TABLE
2
LTYPE
5
5
100
AcDbSymbolTable
0
LTYPE
5
14
100
AcDbSymbolTableRecord
100
AcDbLinetypeTableRecord
2
BYBLOCK
70
0
0
LTYPE
5
15
100
AcDbSymbolTableRecord
100
AcDbLinetypeTableRecord
2
BYLAYER
70
0
0
ENDTAB
0
TABLE
2
LAYER
5
2
100
AcDbSymbolTable
70
2
0
LAYER
5
50
100
AcDbSymbolTableRecord
100
AcDbLayerTableRecord
2
0
70
0
6
CONTINUOUS
0
ENDTAB
0
TABLE
2
STYLE
5
3
100
AcDbSymbolTable
70
1
0
STYLE
5
11
100
AcDbSymbolTableRecord
100
AcDbTextStyleTableRecord
2
STANDARD
70
0
0
ENDTAB
0
TABLE
2
VIEW
5
6
100
AcDbSymbolTable
70
0
0
ENDTAB
0
TABLE
2
UCS
5
7
100
AcDbSymbolTable
70
0
0
ENDTAB
0
TABLE
2
APPID
5
9
100
AcDbSymbolTable
70
2
0
APPID
5
12
100
AcDbSymbolTableRecord
100
AcDbRegAppTableRecord
2
ACAD
70
0
0
ENDTAB
0
TABLE
2
DIMSTYLE
5
A
100
AcDbSymbolTable
70
1
0
ENDTAB
0
TABLE
2
BLOCK_RECORD
5
1
100
AcDbSymbolTable
70
1
0
BLOCK_RECORD
5
1F
100
AcDbSymbolTableRecord
100
AcDbBlockTableRecord
2
*MODEL_SPACE
0
BLOCK_RECORD
5
1B
100
AcDbSymbolTableRecord
100
AcDbBlockTableRecord
2
*PAPER_SPACE
0
ENDTAB
0
ENDSEC
0
SECTION
2
BLOCKS
0
BLOCK
5
20
100
AcDbEntity
100
AcDbBlockBegin
2
*MODEL_SPACE
0
ENDBLK
5
21
100
AcDbEntity
100
AcDbBlockEnd
0
BLOCK
5
1C
100
AcDbEntity
100
AcDbBlockBegin
2
*PAPER_SPACE
0
ENDBLK
5
1D
100
AcDbEntity
100
AcDbBlockEnd
0
ENDSEC
0
SECTION
2
ENTITIES
0
LWPOLYLINE
5
100
100
AcDbEntity
8
0
100
AcDbPolyline
90
4
70
1
43
0.0
10
100.64999979883432
20
9.7499997988343239
42
-0.99999999999999989
10
99.14999979883433
20
9.7499997988343257
10
99.14999979883433
20
44.250000670552254
42
-0.99999999999999989
10
100.64999979883432
20
44.250000670552254
0
LWPOLYLINE
5
101
100
AcDbEntity
8
0
100
AcDbPolyline
90
4
70
1
43
0.0
10
108.36765811192663
20
9.7759158371836072
42
-0.99999999999999989
10
106.86769232302581
20
9.7657850856202764
10
106.65508239192427
20
41.244952355616711
42
-0.99999999999999989
10
108.15504818082509
20
41.255083107180042
0
LWPOLYLINE
5
102
100
AcDbEntity
8
0
100
AcDbPolyline
90
4
70
1
43
0.0
10
91.549999613314867
20
45.049998976290226
10
91.549999613314867
20
6.0499998815357703
42
0.99999999999999989
10
93.049999613314867
20
6.0499998815357703
10
93.049999613314867
20
45.049998976290226
42
0.99999999999999989
0
LWPOLYLINE
5
103
100
AcDbEntity
8
0
100
AcDbPolyline
90
4
70
1
43
0.0
10
83.976134705024776
20
42.956080678204401
10
83.976134705024776
20
9.7499997988343257
42
0.99999999999999989
10
85.476134705024762
20
9.7499997988343257
10
85.476134705024762
20
42.956080678204401
42
0.99999999999999989
0
LWPOLYLINE
5
104
100
AcDbEntity
8
0
100
AcDbPolyline
90
4
70
1
43
0.0
10
102.92386529497523
20
42.956080678204401
42
-0.99999999999999989
10
104.42386529497523
20
42.956080678204401
10
104.42386529497523
20
9.7499997988343239
42
-0.99999999999999989
10
102.92386529497523
20
9.7499997988343257
0
LWPOLYLINE
5
105
100
AcDbEntity
8
0
100
AcDbPolyline
90
4
70
1
43
0.0
10
80.244951819174872
20
41.255083107180042
42
-0.99999999999999989
10
81.744917608075696
20
41.244952355616711
10
81.532307676898682
20
9.7657850744446684
42
-0.9999999925494194
10
80.032341888073404
20
9.7759158371836072
0
LWPOLYLINE
5
106
100
AcDbEntity
8
0
100
AcDbPolyline
90
4
70
1
43
0.0
10
87.750000201165676
20
44.250000670552254
42
-0.99999999999999989
10
89.250000201165676
20
44.250000670552254
10
89.250000201165676
20
9.7499997988343239
42
-0.99999999999999989
10
87.750000201165676
20
9.7499997988343257
0
LWPOLYLINE
5
107
100
AcDbEntity
8
0
100
AcDbPolyline
90
4
70
1
43
0.0
10
96.850000386685124
20
6.0499998815357685
42
-0.99999999999999989
10
95.350000386685139
20
6.0499998815357703
10
95.350000386685139
20
45.049998976290226
42
-0.99999999999999989
10
96.850000386685124
20
45.049998976290226
0
LWPOLYLINE
5
108
100
AcDbEntity
8
0
100
AcDbPolyline
90
4
70
1
43
0.0
10
88.300000134110448
20
7.3000000745058058
10
80.100000134110445
20
7.3000000745058582
10
80.100000134110445
20
2.3000000745058058
10
88.300000134110448
20
2.3000000745058058
0
LWPOLYLINE
5
109
100
AcDbEntity
8
0
100
AcDbPolyline
90
4
70
1
43
0.0
10
108.29999986588952
20
2.3000000745058058
10
108.29999986588952
20
7.3000000745058058
10
100.09999986588954
20
7.3000000745058058
10
100.09999986588954
20
2.3000000745058058
0
LINE
5
110
100
AcDbEntity
8
0
100
AcDbLine
10
74.999999869654204
20
0
30
0
11
113.40000000000001
21
0
31
0
0
LINE
5
111
100
AcDbEntity
8
0
100
AcDbLine
10
113.40000000000001
20
0
30
0
11
113.39999999999982
21
41.600011657843758
31
0
0
ARC
5
112
100
AcDbEntity
8
0
100
AcDbCircle
10
107.62274059325773
20
41.600011657844163
30
0
40
5.7772594067420968
210
-0
220
0
230
1
100
AcDbArc
50
0
51
55.856946561108288
0
ARC
5
113
100
AcDbEntity
8
0
100
AcDbCircle
10
103.40736389996536
20
35.383992680439555
30
0
40
13.287804832595443
210
0
220
-0
230
1
100
AcDbArc
50
55.856946561110895
51
67.751013967598411
0
ARC
5
114
100
AcDbEntity
8
0
100
AcDbCircle
10
81.867035730384998
20
-17.270239976200152
30
0
40
70.177645351907529
210
0
220
-0
230
1
100
AcDbArc
50
67.751013493040247
51
76.325584546407455
0
ARC
5
115
100
AcDbEntity
8
0
100
AcDbCircle
10
94.426520713036524
20
34.350963284368902
30
0
40
17.050540319748528
210
0
220
-0
230
1
100
AcDbArc
50
76.325616782082207
51
90.761209780473564
0
ARC
5
116
100
AcDbEntity
8
0
100
AcDbCircle
10
93.973480169904064
20
34.350963731951197
30
0
40
17.050539871878442
210
0
220
-0
230
1
100
AcDbArc
50
89.238790282315534
51
103.67442463113204
0
ARC
5
117
100
AcDbEntity
8
0
100
AcDbCircle
10
106.53296410011158
20
-17.270239784674722
30
0
40
70.177645351907529
210
0
220
0
230
1
100
AcDbArc
50
103.6744246311309
51
112.24898654826455
0
ARC
5
118
100
AcDbEntity
8
0
100
AcDbCircle
10
84.992635994436156
20
35.383992898107664
30
0
40
13.287804832594922
210
0
220
0
230
1
100
AcDbArc
50
112.24898654826471
51
124.14305366699639
0
ARC
5
119
100
AcDbEntity
8
0
100
AcDbCircle
10
80.777259276395839
20
41.600011858730298
30
0
40
5.7772594067416492
210
0
220
0
230
1
100
AcDbArc
50
124.14305366699627
51
180
0
LINE
5
120
100
AcDbEntity
8
0
100
AcDbLine
10
74.999999869654189
20
41.600011858730298
30
0
11
74.999999869654204
21
0
31
0
0
ENDSEC
0
SECTION
2
OBJECTS
0
DICTIONARY
5
C
100
AcDbDictionary
3
ACAD_GROUP
350
D
3
ACAD_MLINESTYLE
350
17
0
DICTIONARY
5
D
100
AcDbDictionary
0
DICTIONARY
5
1A
330
C
100
AcDbDictionary
0
DICTIONARY
5
17
100
AcDbDictionary
0
ENDSEC
0
EOF
