0
SECTION
2
HEADER
9
$INSUNITS
70
4
9
$ACADVER
1
AC1014
9
$HANDSEED
5
FFFF
0
ENDSEC
0
SECTION
2
TABLES
0
TABLE
2
VPORT
5
8
100
AcDbSymbolTable
0
ENDTAB
0
TABLE
2
LTYPE
5
5
100
AcDbSymbolTable
0
LTYPE
5
14
100
AcDbSymbolTableRecord
100
AcDbLinetypeTableRecord
2
BYBLOCK
70
0
0
LTYPE
5
15
100
AcDbSymbolTableRecord
100
AcDbLinetypeTableRecord
2
BYLAYER
70
0
0
ENDTAB
0
TABLE
2
LAYER
5
2
100
AcDbSymbolTable
70
2
0
LAYER
5
50
100
AcDbSymbolTableRecord
100
AcDbLayerTableRecord
2
0
70
0
6
CONTINUOUS
0
ENDTAB
0
TABLE
2
STYLE
5
3
100
AcDbSymbolTable
70
1
0
STYLE
5
11
100
AcDbSymbolTableRecord
100
AcDbTextStyleTableRecord
2
STANDARD
70
0
0
ENDTAB
0
TABLE
2
VIEW
5
6
100
AcDbSymbolTable
70
0
0
ENDTAB
0
TABLE
2
UCS
5
7
100
AcDbSymbolTable
70
0
0
ENDTAB
0
TABLE
2
APPID
5
9
100
AcDbSymbolTable
70
2
0
APPID
5
12
100
AcDbSymbolTableRecord
100
AcDbRegAppTableRecord
2
ACAD
70
0
0
ENDTAB
0
TABLE
2
DIMSTYLE
5
A
100
AcDbSymbolTable
70
1
0
ENDTAB
0
TABLE
2
BLOCK_RECORD
5
1
100
AcDbSymbolTable
70
1
0
BLOCK_RECORD
5
1F
100
AcDbSymbolTableRecord
100
AcDbBlockTableRecord
2
*MODEL_SPACE
0
BLOCK_RECORD
5
1B
100
AcDbSymbolTableRecord
100
AcDbBlockTableRecord
2
*PAPER_SPACE
0
ENDTAB
0
ENDSEC
0
SECTION
2
BLOCKS
0
BLOCK
5
20
100
AcDbEntity
100
AcDbBlockBegin
2
*MODEL_SPACE
0
ENDBLK
5
21
100
AcDbEntity
100
AcDbBlockEnd
0
BLOCK
5
1C
100
AcDbEntity
100
AcDbBlockBegin
2
*PAPER_SPACE
0
ENDBLK
5
1D
100
AcDbEntity
100
AcDbBlockEnd
0
ENDSEC
0
SECTION
2
ENTITIES
0
LWPOLYLINE
5
100
100
AcDbEntity
8
0
100
AcDbPolyline
90
4
70
1
43
0.0
10
25.099999865889547
20
7.3000000745058058
10
25.099999865889547
20
2.3000000745058058
10
33.299999865889539
20
2.3000000745058058
10
33.299999865889539
20
7.3000000745058058
0
LWPOLYLINE
5
101
100
AcDbEntity
8
0
100
AcDbPolyline
90
4
70
1
43
0.0
10
13.30000013411045
20
2.3000000745058058
10
13.30000013411045
20
7.3000000745058058
10
5.1000001341104539
20
7.3000000745058058
10
5.1000001341104522
20
2.3000000745058058
0
LWPOLYLINE
5
102
100
AcDbEntity
8
0
100
AcDbPolyline
90
4
70
1
43
0.0
10
14.053624251465928
20
9.9885943030678384
42
-0.99999999999999989
10
12.55362425146593
20
9.9885943030678419
10
12.55362425146593
20
15.250000238418579
42
-0.99999999999999989
10
14.053624251465928
20
15.250000238418579
0
LWPOLYLINE
5
103
100
AcDbEntity
8
0
100
AcDbPolyline
90
4
70
1
43
0.0
10
6.7500000894069672
20
9.7500001341104507
42
-0.99999999999999989
10
5.2500000894069672
20
9.7500001341104507
10
5.2500000894069672
20
15.250000238418576
42
-0.99999999999999989
10
6.7500000894069672
20
15.250000238418579
0
LWPOLYLINE
5
104
100
AcDbEntity
8
0
100
AcDbPolyline
90
4
70
1
43
0.0
10
17.878188302794193
20
6.3303156452755927
42
-0.99999999999999989
10
16.378188302794193
20
6.3303156452755953
10
16.378188302794193
20
15.250000238418579
42
-0.99999999999999989
10
17.878188302794193
20
15.250000238418579
0
LWPOLYLINE
5
105
100
AcDbEntity
8
0
100
AcDbPolyline
90
4
70
1
43
0.0
10
29.423865294975222
20
39.259131860328964
42
-0.99999999999999989
10
27.923865294975229
20
39.259131860328949
10
27.923865294975229
20
42.956080678204387
42
-0.99999999999999989
10
29.423865294975222
20
42.956080678204401
0
LWPOLYLINE
5
106
100
AcDbEntity
8
0
100
AcDbPolyline
90
4
70
1
43
0.0
10
25.64999979883433
20
39.097805506276899
42
-0.99999999999999989
10
24.149999798834333
20
39.097805506276899
10
24.149999798834322
20
44.250000670552268
42
-0.99999999999999989
10
25.649999798834315
20
44.250000670552254
0
ARC
5
107
100
AcDbEntity
8
0
100
AcDbCircle
10
32.405065286374693
20
41.250017731398373
30
0
40
0.75000000000000011
210
0
220
-0
230
1
100
AcDbArc
50
0.38696914717379716
51
180.3869691471738
0
LINE
5
108
100
AcDbEntity
8
0
100
AcDbLine
10
33.155048180825084
20
41.255083107180042
30
0
11
33.168489549672778
21
39.264945129609899
31
0
0
ARC
5
109
100
AcDbEntity
8
0
100
AcDbCircle
10
32.418506655222387
20
39.259879753828237
30
0
40
0.74999999999999567
210
0
220
0
230
1
100
AcDbArc
50
-179.6130308528262
51
0.38696914717379716
0
LINE
5
110
100
AcDbEntity
8
0
100
AcDbLine
10
31.668523760771997
20
39.254814378046568
30
0
11
31.655082391924299
21
41.244952355616711
31
0
0
LWPOLYLINE
5
111
100
AcDbEntity
8
0
100
AcDbPolyline
90
4
70
1
43
0.0
10
10.270631548521676
20
9.9054516062998346
42
-0.99999999999999989
10
8.7706315485216777
20
9.9054516062998346
10
8.7706315485216777
20
15.250000238418576
42
-0.99999999999999989
10
10.270631548521676
20
15.250000238418579
0
LWPOLYLINE
5
112
100
AcDbEntity
8
0
100
AcDbPolyline
90
4
70
1
43
0.0
10
16.554422121344199
20
45.049788057117446
42
-0.99999999999999989
10
18.054422121344199
20
45.049788057117468
10
18.054422121344199
20
33.362486073384183
42
-0.99999999999999989
10
16.554422121344203
20
33.36248607338419
0
LWPOLYLINE
5
113
100
AcDbEntity
8
0
100
AcDbPolyline
90
4
70
1
43
0.0
10
21.850000386685142
20
35.677686800373252
42
-0.99999999999999989
10
20.350000386685146
20
35.677686800373245
10
20.350000386685132
20
45.04999897629024
42
-0.99999999999999989
10
21.850000386685124
20
45.049998976290226
0
LWPOLYLINE
5
114
100
AcDbEntity
8
0
100
AcDbPolyline
90
4
70
1
43
0.0
10
33.093301811339217
20
9.9470229546838418
42
-0.99999999999999989
10
31.593301811339209
20
9.9470229546838418
10
31.593301811339209
20
14.250000223517416
42
-0.99999999999999989
10
33.093301811339217
20
14.250000223517416
0
LWPOLYLINE
5
115
100
AcDbEntity
8
0
100
AcDbPolyline
90
4
70
1
43
0.0
10
29.310309108394954
20
9.9054516062998381
42
-0.99999999999999989
10
27.810309108394947
20
9.9054516062998381
10
27.810309108394947
20
14.250000223517416
42
-0.99999999999999989
10
29.310309108394954
20
14.250000223517416
0
LWPOLYLINE
5
116
100
AcDbEntity
8
0
100
AcDbPolyline
90
4
70
1
43
0.0
10
25.485745057066698
20
9.7500001341104507
42
-0.99999999999999989
10
23.985745057066694
20
9.7500001341104507
10
23.985745057066694
20
14.765867909052266
42
-0.99999999999999989
10
25.485745057066698
20
14.765867909052266
0
LWPOLYLINE
5
117
100
AcDbEntity
8
0
100
AcDbPolyline
90
4
70
1
43
0.0
10
21.750000312924385
20
6.7500000894069689
42
-0.99999999999999989
10
20.250000312924385
20
6.7500000894069689
10
20.250000312924385
20
15.250000238418577
42
-0.99999999999999989
10
21.750000312924385
20
15.250000238418577
0
LWPOLYLINE
5
118
100
AcDbEntity
8
0
100
AcDbPolyline
90
6
70
1
43
0.0
10
13.26343191178651
20
28.043966065130284
42
-0.89165192047619568
10
11.412813082324419
20
27.791617746599016
42
-0.25425766885786455
10
11.552138007448821
20
28.341819611095858
10
12.074136712828512
20
28.906687775371456
42
-0.25697782011045373
10
12.722922487018112
20
29.122949700101298
42
-0.36204993518131628
10
13.263431911786505
20
28.47433839037917
0
LWPOLYLINE
5
119
100
AcDbEntity
8
0
100
AcDbPolyline
90
53
70
1
43
0.0
10
28.483919307910291
20
18.315351581607132
10
28.547464881898932
20
18.971799140285768
42
0.47297353262953862
10
27.643260076917294
20
19.872957299609709
10
26.116805825092094
20
20.020721443625856
10
25.999999418854713
20
20.149999549612403
42
0.20151245246012933
10
24.399999454617497
20
20.8999995328486
42
0.020321659473452252
10
22.599999494850636
20
20.8999995328486
42
0.11827660107061709
10
16.599999628961086
20
19.199999570846558
42
0.91848371737890422
10
17.0913226167545
20
18.119088997701034
10
18.083714364774753
20
18.57100201829612
42
-0.091432006547676872
10
21.799999512732029
20
19.499999564141032
42
0.10053256385572223
10
21.432650809758368
20
18.464642926579703
10
21.362743282837137
20
17.970559452385324
42
0.45098824837132157
10
21.958032944698896
20
17.273474810292132
10
24.108972694024615
20
17.342477627846677
42
0.20294036211541816
10
25.099999438971281
20
17.799999602138996
10
25.6120266326778
20
18.363198906772581
42
-0.22775361241541897
10
26.271841767105748
20
18.63063703860113
42
-0.27790488965222243
10
26.363322036730096
20
18.567390289121125
42
-0.050009514247748674
10
26.635129017798917
20
17.757559762499515
42
0.19352060596352144
10
27.294063127831475
20
16.807096908936021
42
0.14558038847135615
10
27.466074756419459
20
16.755175481851396
10
32.816465006019506
20
16.768615435537995
42
0.5518925467959741
10
33.399999253451824
20
17.69999960437417
10
31.648331074713518
20
21.336474444147832
42
0.075348193783239786
10
31.399999298155308
20
21.699999514967203
10
31.245515701518322
20
21.748884232581066
42
-0.45094996207969301
10
28.906423592598664
20
27.028692692286374
42
0.27165712392472052
10
28.853721562181846
20
27.552566202836879
10
28.652128080462695
20
27.828607435427951
42
0.24276927430396256
10
28.338550927416968
20
27.985415756788807
10
27.512284391571672
20
27.918762389607004
42
-0.19503259066493714
10
26.754560189418694
20
28.157091326852594
42
-0.12568391838916468
10
25.903423515950603
20
29.322549725824643
42
-0.28022249411386679
10
25.999999418854713
20
29.89999933168292
42
0.23421163513691637
10
27.199999392032623
20
29.599999338388443
42
0.020415602027428519
10
28.52080658111236
20
29.945677952517379
42
0.17617649430068191
10
28.836981312973066
20
30.183835542750121
42
0.53496079440375433
10
28.396273206211717
20
31.209013810608131
42
0.091427888201195462
10
27.404462897764223
20
31.209013810608131
42
-0.091427888201191201
10
26.276977247977836
20
31.209013810608131
42
0.18439716312056909
10
24.40487107929404
20
30.863802744042324
42
0.10798480213609064
10
23.500000350177288
20
30.000000447034836
10
23.000000342726707
20
29.500000439584255
42
0.67998470836277725
10
23.493522844075247
20
28.361184801839407
42
0.058686990530582919
10
24.715542911470312
20
28.545512385055517
10
24.773125947371561
20
28.452326129587661
42
0.1947726981945036
10
27.299999389797449
20
26.599999405443665
42
-0.40490607688848723
10
27.359552781324773
20
26.503624536179053
42
0.37181626958394437
10
30.499999318271875
20
20.699999537318945
10
31.499999295920134
20
18.499999586492777
42
-0.4770720082006028
10
31.299999300390482
20
18.099999595433474
10
28.699999358505011
20
18.09999959543347
42
-0.41322536280519528
0
LWPOLYLINE
5
120
100
AcDbEntity
8
0
100
AcDbPolyline
90
10
70
1
43
0.0
10
31.502561305011003
20
32.740929790019678
42
-0.11305619492085932
10
30.999999307096004
20
32.625823035250562
10
27.099999394267797
20
32.625823035250562
42
-0.99999999999999989
10
27.099999394267797
20
33.599999248981476
10
28.145863635218518
20
33.599999248981483
42
0.12762143709153312
10
29.018243071744166
20
33.826354585437905
42
-0.16994989185080692
10
29.334852373096766
20
33.937170717017445
10
31.48203993507326
20
33.937170717017452
42
-0.38936450465571293
10
32.199999280273907
20
33.299999255686998
42
-0.29079591787702302
10
32.099999282509089
20
33.099999260157347
0
LWPOLYLINE
5
121
100
AcDbEntity
8
0
100
AcDbPolyline
90
4
70
1
43
0.0
10
6.7500000894069689
20
31.250000454485413
10
6.7500000894069645
20
41.250000625848777
42
0.99999999999999989
10
5.2500000894069654
20
41.250000625848777
10
5.2500000894069663
20
31.250000454485413
42
0.99999999999999989
0
LWPOLYLINE
5
122
100
AcDbEntity
8
0
100
AcDbPolyline
90
4
70
1
43
0.0
10
10.468657339284453
20
33.750000491738305
42
-0.99999999999999989
10
8.9686573392844533
20
33.750000491738319
10
8.968657339284448
20
42.956247894841397
42
-0.99999999999999989
10
10.468657339284452
20
42.956247894841376
0
LWPOLYLINE
5
123
100
AcDbEntity
8
0
100
AcDbPolyline
90
4
70
1
43
0.0
10
14.250000201165676
20
36.750000536441796
42
-0.99999999999999989
10
12.750000201165676
20
36.750000536441796
10
12.750000201165681
20
44.2499770622236
42
-0.99999999999999989
10
14.250000201165676
20
44.2499770622236
0
LWPOLYLINE
5
124
100
AcDbEntity
8
0
100
AcDbPolyline
90
84
70
1
43
0.0
10
5.8582517800518064
20
25.480496836251024
42
-0.22092711694565448
10
3.7642124802849866
20
26.828829970877717
10
3.6085197539532077
20
27.075047517541663
42
0.80240587379908324
10
3.3999999240040801
20
26.999999396502972
42
0.115585670720906
10
3.8966414212489484
20
25.510074904768352
10
5.2070236891615647
20
23.818849975050473
42
0.22366546828226477
10
5.3999998793005934
20
23.599999472498894
42
-0.38906000282532321
10
5.6684187700890378
20
22.999999485909939
42
0.16210776596915635
10
5.6684187700890396
20
22.876105952266826
42
0.061728395061729974
10
5.7999998703598976
20
22.599999494850636
42
0.44515047341945374
10
6.3999998569488508
20
22.49999949708581
42
-0.057001364633333135
10
7.1999998390674573
20
22.999999485909939
10
8.5450998355196397
20
23.641019399619246
42
-0.11031286525448761
10
10.135707850660573
20
24.296063731536009
42
-0.085667205586976186
10
10.721721329923021
20
24.296063731536009
42
-0.050948636282010587
10
12.340234748838352
20
23.843372745235879
42
-0.13542553151272727
10
12.998335483193168
20
23.349542412263698
42
0.13165132645951236
10
13.330876582829639
20
23.096131369236712
42
0.19718145007561752
10
13.735504937558474
20
23.096131369236712
42
0.1333479135113918
10
14.534932938148247
20
23.709555511171907
10
15.357926796251075
20
24.789537185602835
42
-0.99999999999999989
10
16.316754786690687
20
24.058867799453591
10
13.411048162285223
20
20.245826092356943
42
-0.19213688243404101
10
12.397640571244217
20
19.696218281827747
42
0.17222583554380363
10
12.000000178813934
20
19.500000290572643
42
0.14691763549382728
10
11.634294593576973
20
18.796763187077151
42
-0.36021968659985737
10
11.000000163912775
20
18.271655460458884
10
8.4361381699021099
20
18.271655460458888
42
-0.82802385199635353
10
8.1729154189823703
20
19.271901913953901
42
0.17635584863127599
10
9.1818753951911845
20
20.298470642540892
42
-0.12876840800328446
10
9.8575410248687128
20
21.127622307938083
42
0.18695489739880267
10
10.634048140081953
20
22.338446962168888
42
0.52364405472372699
10
10.000000149011614
20
23.000000342726707
42
0.072498219134319405
10
8.3999998122453707
20
22.49999949708581
42
0.035774059938635187
10
6.9999998435378057
20
21.6999995149672
42
-0.025127403983588644
10
5.9999998658895484
20
21.099999528378248
42
-0.35800168942598831
10
5.4999998770654202
20
21.199999526143074
10
4.4361455587873921
20
22.49999949708581
10
4.4361455587873921
20
23.160227587613186
10
4.1999999061226898
20
23.399999476969242
42
-0.067239930138373011
10
2.4509426797484046
20
25.732075778801615
42
-0.13675134482036944
10
1.5593515024226634
20
29.416795767793484
42
-0.61909549059914759
10
2.3999999463558188
20
29.799999333918095
42
-0.09208221589277317
10
3.0203736185671142
20
29.07261852982543
42
0.13305927249379468
10
5.0999998860061133
20
26.999999396502972
10
5.7999998703598976
20
26.599999405443668
42
0.57173063736354002
10
6.4467035179839227
20
26.98069598552155
10
6.4467035179839165
20
28.258005335519989
42
-0.38619508108685935
10
6.9140152994842561
20
28.656777017905096
42
0.2845846244113856
10
10.828563162548919
20
30.91808162876432
42
-0.27631303655674261
10
11.801916411906969
20
31.50044479657792
10
12.499999720603228
20
31.500444796577924
10
12.499999720603224
20
33.49999925121665
42
-0.57482881751129833
10
13.899999689310789
20
33.999999240040779
42
-0.093495712420259183
10
14.505080174215411
20
33.257779922214738
10
15.413318375489364
20
31.58537768241063
42
0.14580806100664295
10
15.79999964684248
20
31.199999302625656
42
0.10833951928256694
10
16.50000024586916
20
31.000000461935997
10
19.812085466951707
20
30.792855864045148
10
25.50000037997961
20
36.500000543892384
42
-0.16227766016838066
10
27.000000402331352
20
37.000000551342964
10
36.000000536441803
20
37.000000551342971
42
-0.6180339887498969
10
36.500000543892376
20
36.00000053644181
42
-0.23606797749978667
10
35.500000528991222
20
35.500000528991222
10
28.000000417232513
20
35.500000528991222
42
0.1482887735424171
10
26.241910266064174
20
34.966867094568215
10
20.511723319764393
20
29.196040524535821
42
-0.19318890519647425
10
19.47541291458252
20
28.74900466347697
10
18.804859122994245
20
28.74900466347697
42
-0.50673834918255545
10
18.357823261935401
20
29.358599019466311
42
0.36367495850062814
10
18.15604285641043
20
29.846274504257778
10
16.50000024586916
20
30.000000447034836
42
0.25581015793221118
10
16.136969815772261
20
29.842941949754401
42
-0.32883313386135554
10
15.449999654665589
20
29.649999337270856
42
-0.17528412191100948
10
14.749999670311809
20
30.249999323859811
10
13.992083467527642
20
32.239529356168248
10
13.716544596146429
20
31.769764328279365
42
0.096373009192043807
10
13.455953435924199
20
31.029117919937462
42
-0.32260160957838796
10
12.942590952967524
20
30.499999318271875
10
12.099999729543924
20
30.499999318271875
42
0.26704882836324972
10
11.718420377294475
20
30.280548530620361
10
11.475938403421321
20
29.863798465977077
42
-0.28131077269573129
10
7.6490130423299671
20
27.795994256204306
10
7.4316784738696722
20
26.617220421259915
42
-0.4010573668036696
0
LINE
5
125
100
AcDbEntity
8
0
100
AcDbLine
10
0
20
0
30
0
11
38.399999999999991
21
0
31
0
0
LINE
5
126
100
AcDbEntity
8
0
100
AcDbLine
10
38.399999999999991
20
0
30
0
11
38.399999999999991
21
41.600011657843964
31
0
0
ARC
5
127
100
AcDbEntity
8
0
100
AcDbCircle
10
32.622740593257888
20
41.600011657844369
30
0
40
5.7772594067421057
210
-0
220
0
230
1
100
AcDbArc
50
0
51
55.85694656110828
0
ARC
5
128
100
AcDbEntity
8
0
100
AcDbCircle
10
28.407363899965254
20
35.383992680439384
30
0
40
13.287804832595921
210
0
220
-0
230
1
100
AcDbArc
50
55.856946561110874
51
67.75101396759861
0
ARC
5
129
100
AcDbEntity
8
0
100
AcDbCircle
10
6.8670357303849805
20
-17.270239976200159
30
0
40
70.177645351907344
210
0
220
-0
230
1
100
AcDbArc
50
67.75101349304029
51
76.325584546407441
0
ARC
5
130
100
AcDbEntity
8
0
100
AcDbCircle
10
19.426520713036513
20
34.350963284368895
30
0
40
17.050540319748521
210
0
220
-0
230
1
100
AcDbArc
50
76.325616782082136
51
90.761209780473578
0
ARC
5
131
100
AcDbEntity
8
0
100
AcDbCircle
10
18.973480194822706
20
34.350963695109705
30
0
40
17.050539908385634
210
0
220
-0
230
1
100
AcDbArc
50
89.238790367688267
51
103.67442460507314
0
ARC
5
132
100
AcDbEntity
8
0
100
AcDbCircle
10
31.53296410155356
20
-17.27023982722811
30
0
40
70.177645351907529
210
0
220
0
230
1
100
AcDbArc
50
103.67442460507314
51
112.24898643020298
0
ARC
5
133
100
AcDbEntity
8
0
100
AcDbCircle
10
9.9926361043754479
20
35.383992899939464
30
0
40
13.287804832595658
210
0
220
0
230
1
100
AcDbArc
50
112.24898643020279
51
124.14305347890047
0
ARC
5
134
100
AcDbEntity
8
0
100
AcDbCircle
10
5.7772594067416598
20
41.600011874400728
30
0
40
5.7772594067416563
210
0
220
0
230
1
100
AcDbArc
50
124.14305347890041
51
180
0
LINE
5
135
100
AcDbEntity
8
0
100
AcDbLine
10
-1.9428902930940239e-14
20
41.600011874400728
30
0
11
0
21
0
31
0
0
ENDSEC
0
SECTION
2
OBJECTS
0
DICTIONARY
5
C
100
AcDbDictionary
3
ACAD_GROUP
350
D
3
ACAD_MLINESTYLE
350
17
0
DICTIONARY
5
D
100
AcDbDictionary
0
DICTIONARY
5
1A
330
C
100
AcDbDictionary
0
DICTIONARY
5
17
100
AcDbDictionary
0
ENDSEC
0
EOF
