0
SECTION
2
HEADER
9
$INSUNITS
70
4
9
$ACADVER
1
AC1014
9
$HANDSEED
5
FFFF
0
ENDSEC
0
SECTION
2
TABLES
0
TABLE
2
VPORT
5
8
100
AcDbSymbolTable
0
ENDTAB
0
TABLE
2
LTYPE
5
5
100
AcDbSymbolTable
0
LTYPE
5
14
100
AcDbSymbolTableRecord
100
AcDbLinetypeTableRecord
2
BYBLOCK
70
0
0
LTYPE
5
15
100
AcDbSymbolTableRecord
100
AcDbLinetypeTableRecord
2
BYLAYER
70
0
0
ENDTAB
0
TABLE
2
LAYER
5
2
100
AcDbSymbolTable
70
2
0
LAYER
5
50
100
AcDbSymbolTableRecord
100
AcDbLayerTableRecord
2
0
70
0
6
CONTINUOUS
0
ENDTAB
0
TABLE
2
STYLE
5
3
100
AcDbSymbolTable
70
1
0
STYLE
5
11
100
AcDbSymbolTableRecord
100
AcDbTextStyleTableRecord
2
STANDARD
70
0
0
ENDTAB
0
TABLE
2
VIEW
5
6
100
AcDbSymbolTable
70
0
0
ENDTAB
0
TABLE
2
UCS
5
7
100
AcDbSymbolTable
70
0
0
ENDTAB
0
TABLE
2
APPID
5
9
100
AcDbSymbolTable
70
2
0
APPID
5
12
100
AcDbSymbolTableRecord
100
AcDbRegAppTableRecord
2
ACAD
70
0
0
ENDTAB
0
TABLE
2
DIMSTYLE
5
A
100
AcDbSymbolTable
70
1
0
ENDTAB
0
TABLE
2
BLOCK_RECORD
5
1
100
AcDbSymbolTable
70
1
0
BLOCK_RECORD
5
1F
100
AcDbSymbolTableRecord
100
AcDbBlockTableRecord
2
*MODEL_SPACE
0
BLOCK_RECORD
5
1B
100
AcDbSymbolTableRecord
100
AcDbBlockTableRecord
2
*PAPER_SPACE
0
ENDTAB
0
ENDSEC
0
SECTION
2
BLOCKS
0
BLOCK
5
20
100
AcDbEntity
100
AcDbBlockBegin
2
*MODEL_SPACE
0
ENDBLK
5
21
100
AcDbEntity
100
AcDbBlockEnd
0
BLOCK
5
1C
100
AcDbEntity
100
AcDbBlockBegin
2
*PAPER_SPACE
0
ENDBLK
5
1D
100
AcDbEntity
100
AcDbBlockEnd
0
ENDSEC
0
SECTION
2
ENTITIES
0
LINE
5
100
100
AcDbEntity
8
0
100
AcDbLine
10
222.88317516869981
20
172.43427186769253
30
0
11
223.94386282229283
21
173.49495952128564
31
0
0
ARC
5
101
100
AcDbEntity
8
0
100
AcDbCircle
10
225.07523367219136
20
172.36358867138705
30
0
40
1.5999999999999064
210
-0
220
0
230
1
100
AcDbArc
50
-45.000000000002139
51
134.99999999999858
0
LINE
5
102
100
AcDbEntity
8
0
100
AcDbLine
10
226.20660452208972
20
171.2322178214886
30
0
11
225.14591686849678
21
170.1715301678955
31
0
0
ARC
5
103
100
AcDbEntity
8
0
100
AcDbCircle
10
224.01454601859831
20
171.30290101779408
30
0
40
1.600000000000007
210
0
220
0
230
1
100
AcDbArc
50
135.00000000000145
51
314.9999999999971
0
CIRCLE
5
104
100
AcDbEntity
8
0
100
AcDbCircle
10
230.73264082387874
20
178.02039021609261
30
0
40
3.9999999999999911
210
-0
220
0
230
1
0
ARC
5
105
100
AcDbEntity
8
0
100
AcDbCircle
10
236.38922692341816
20
183.67582565650395
30
0
40
1.600000000000007
210
0
220
0
230
1
100
AcDbArc
50
135.00000000000216
51
315.00000000000142
0
LINE
5
106
100
AcDbEntity
8
0
100
AcDbLine
10
235.25785607351963
20
184.80719650640239
30
0
11
236.31851648535385
21
185.86785691823638
31
0
0
ARC
5
107
100
AcDbEntity
8
0
100
AcDbCircle
10
237.44988735211092
20
184.73648608519667
30
0
40
1.5999999999999315
210
0
220
0
230
1
100
AcDbArc
50
-45.000000000000718
51
135.00000085377056
0
LINE
5
108
100
AcDbEntity
8
0
100
AcDbLine
10
238.58125820200934
20
183.60511523529823
30
0
11
237.52059777331667
21
182.5444548066055
31
0
0
LWPOLYLINE
5
109
100
AcDbEntity
8
0
100
AcDbPolyline
90
4
70
1
43
0.0
10
226.20651974976232
20
184.80531467412561
10
225.14585782779454
20
185.86597659609353
42
0.9999999925494194
10
222.88311611113895
20
183.60323491315538
10
223.94377804996543
20
182.54257297432886
42
0.99999999999999989
0
CIRCLE
5
110
100
AcDbEntity
8
0
100
AcDbCircle
10
222.23718221659271
20
89.488170269401792
30
0
40
1.6000000000000014
210
0
220
-0
230
1
0
CIRCLE
5
111
100
AcDbEntity
8
0
100
AcDbCircle
10
233.73718238795607
20
89.488170269401778
30
0
40
1.5999999999999837
210
0
220
-0
230
1
0
LWPOLYLINE
5
112
100
AcDbEntity
8
0
100
AcDbPolyline
90
4
70
1
43
0.0
10
238.58241738126964
20
172.43358596633968
10
237.52175663655365
20
173.49424671105567
42
0.99999999999999989
10
235.25901493675676
20
171.23150501125878
10
236.31967568147275
20
170.17084426654279
42
0.99999999999999989
0
LWPOLYLINE
5
113
100
AcDbEntity
8
0
100
AcDbPolyline
90
52
70
1
43
0.0
10
238.01309303687782
20
83.196520913793506
42
-0.41421356237338119
10
237.01309303687776
20
82.196520913791915
10
226.01304303919929
20
82.196520913791957
42
0.41419893474197966
10
225.01304304044618
20
81.196570855906657
10
225.01304303544299
20
81.196470853219495
42
-0.41419890004553783
10
224.01304297606612
20
80.196520974429419
10
218.51309298023037
20
80.196521307904987
42
-0.41421356237350293
10
216.01309313181235
20
82.69652145948848
10
216.01309368357644
20
91.796617531549046
42
-0.25511206992881619
10
219.01462554798417
20
97.296524413331156
42
0.24471181096565334
10
223.01462560758875
20
104.29652451763916
10
223.02358100283107
20
141.86344900743657
10
223.01874325229852
20
154.7145310110036
42
0.10717311321411312
10
220.9346575248677
20
164.04855498466699
42
0.034776893751344615
10
218.32488938654919
20
168.13786479092769
10
216.17504599684202
20
171.78608387649149
42
-0.4910305754096293
10
217.49271972425817
20
175.08139351829712
10
218.22641116955236
20
175.29039708956148
42
0.13563560104884467
10
219.67772243762602
20
176.17450415227964
42
0.19077250762088396
10
219.94878632238988
20
176.85908587852154
10
219.94878632238971
20
179.23805289475666
42
0.19077250762080422
10
219.67772243762602
20
179.92263462099842
42
0.13563560104881103
10
218.22641116955248
20
180.80674168371672
10
217.49271972425817
20
181.01574525498094
42
-0.53609290221538086
10
216.43465762545071
20
184.54855452645603
10
216.57178282474683
20
184.71361626287546
42
0.1121239077915215
10
221.97938029936935
20
195.36191823943309
42
-0.59941319826809081
10
224.73465293232979
20
196.0485696548597
42
-0.1067377453143358
10
227.26694049461869
20
191.75094712134936
10
227.79743032096172
20
190.37114195481277
42
0.26971537121874639
10
229.48929816123564
20
189.01176209045016
10
231.98000788224405
20
189.0117620904104
42
0.26971537123483558
10
233.67187572259604
20
190.37114195491935
10
234.20236554885491
20
191.75094712134918
42
-0.10673774531433973
10
236.73465311114384
20
196.0485696548597
42
-0.59941319826803718
10
239.4899257441044
20
195.36191823943312
42
0.11212390779152247
10
244.89752321872675
20
184.71361626287552
10
245.03464841802295
20
184.54855452645603
42
-0.53609290221538086
10
243.97658631921547
20
181.01574525498094
10
243.24289487392119
20
180.80674168371658
42
0.13563560104882422
10
241.79158360584753
20
179.92263462099842
42
0.19077250762088976
10
241.52051972108379
20
179.23805289475666
10
241.52051972108379
20
176.8590858785214
42
0.19077250762080306
10
241.79158360584748
20
176.17450415227964
42
0.13563560104882422
10
243.24289487392119
20
175.29039708956134
10
243.97658631921544
20
175.0813935182972
42
-0.49103057540962514
10
245.29426004663162
20
171.78608387649149
10
243.14441665692436
20
168.13786479092769
42
0.034776893751339001
10
240.53464851860582
20
164.04855498466708
42
0.12527532960021445
10
238.01304303669608
20
154.1422484322735
10
238.01304303669605
20
143.07640786366414
10
238.01309303687782
20
142.29652507634322
0
ENDSEC
0
SECTION
2
OBJECTS
0
DICTIONARY
5
C
100
AcDbDictionary
3
ACAD_GROUP
350
D
3
ACAD_MLINESTYLE
350
17
0
DICTIONARY
5
D
100
AcDbDictionary
0
DICTIONARY
5
1A
330
C
100
AcDbDictionary
0
DICTIONARY
5
17
100
AcDbDictionary
0
ENDSEC
0
EOF
