0
SECTION
2
HEADER
9
$INSUNITS
70
4
9
$ACADVER
1
AC1014
9
$HANDSEED
5
FFFF
0
ENDSEC
0
SECTION
2
TABLES
0
TABLE
2
VPORT
5
8
100
AcDbSymbolTable
0
ENDTAB
0
TABLE
2
LTYPE
5
5
100
AcDbSymbolTable
0
LTYPE
5
14
100
AcDbSymbolTableRecord
100
AcDbLinetypeTableRecord
2
BYBLOCK
70
0
0
LTYPE
5
15
100
AcDbSymbolTableRecord
100
AcDbLinetypeTableRecord
2
BYLAYER
70
0
0
ENDTAB
0
TABLE
2
LAYER
5
2
100
AcDbSymbolTable
70
2
0
LAYER
5
50
100
AcDbSymbolTableRecord
100
AcDbLayerTableRecord
2
0
70
0
6
CONTINUOUS
0
ENDTAB
0
TABLE
2
STYLE
5
3
100
AcDbSymbolTable
70
1
0
STYLE
5
11
100
AcDbSymbolTableRecord
100
AcDbTextStyleTableRecord
2
STANDARD
70
0
0
ENDTAB
0
TABLE
2
VIEW
5
6
100
AcDbSymbolTable
70
0
0
ENDTAB
0
TABLE
2
UCS
5
7
100
AcDbSymbolTable
70
0
0
ENDTAB
0
TABLE
2
APPID
5
9
100
AcDbSymbolTable
70
2
0
APPID
5
12
100
AcDbSymbolTableRecord
100
AcDbRegAppTableRecord
2
ACAD
70
0
0
ENDTAB
0
TABLE
2
DIMSTYLE
5
A
100
AcDbSymbolTable
70
1
0
ENDTAB
0
TABLE
2
BLOCK_RECORD
5
1
100
AcDbSymbolTable
70
1
0
BLOCK_RECORD
5
1F
100
AcDbSymbolTableRecord
100
AcDbBlockTableRecord
2
*MODEL_SPACE
0
BLOCK_RECORD
5
1B
100
AcDbSymbolTableRecord
100
AcDbBlockTableRecord
2
*PAPER_SPACE
0
ENDTAB
0
ENDSEC
0
SECTION
2
BLOCKS
0
BLOCK
5
20
100
AcDbEntity
100
AcDbBlockBegin
2
*MODEL_SPACE
0
ENDBLK
5
21
100
AcDbEntity
100
AcDbBlockEnd
0
BLOCK
5
1C
100
AcDbEntity
100
AcDbBlockBegin
2
*PAPER_SPACE
0
ENDBLK
5
1D
100
AcDbEntity
100
AcDbBlockEnd
0
ENDSEC
0
SECTION
2
ENTITIES
0
ARC
5
100
100
AcDbEntity
8
0
100
AcDbCircle
10
144.7303485819848
20
171.22574666403261
30
0
40
1.5999999999999568
210
0
220
0
230
1
100
AcDbArc
50
-45.000000000000718
51
135.00000000000071
0
LINE
5
101
100
AcDbEntity
8
0
100
AcDbLine
10
145.86171943188324
20
170.09437581413414
30
0
11
144.80105750991547
21
169.03371389216636
31
0
0
ARC
5
102
100
AcDbEntity
8
0
100
AcDbCircle
10
143.66968666001699
20
170.16508474206483
30
0
40
1.5999999999999064
210
0
220
0
230
1
100
AcDbArc
50
135.00000000000071
51
315
0
LINE
5
103
100
AcDbEntity
8
0
100
AcDbLine
10
142.53831581011858
20
171.29645559196322
30
0
11
143.59897773208635
21
172.35711751393103
31
0
0
CIRCLE
5
104
100
AcDbEntity
8
0
100
AcDbCircle
10
36.592746109490037
20
156.27646268562356
30
0
40
1.5999999999999659
210
0
220
0
230
1
0
CIRCLE
5
105
100
AcDbEntity
8
0
100
AcDbCircle
10
138.01613305188246
20
164.50759281804991
30
0
40
3.9999999999999858
210
0
220
0
230
1
0
ARC
5
106
100
AcDbEntity
8
0
100
AcDbCircle
10
131.29795795223095
20
157.78918711055738
30
0
40
1.5999999999999568
210
0
220
0
230
1
100
AcDbArc
50
135
51
315
0
LINE
5
107
100
AcDbEntity
8
0
100
AcDbLine
10
130.1665871023325
20
158.92055796045582
30
0
11
131.2272478470484
21
159.98121870517187
31
0
0
ARC
5
108
100
AcDbEntity
8
0
100
AcDbCircle
10
132.35861869694693
20
158.84984785527337
30
0
40
1.5999999999999692
210
-0
220
0
230
1
100
AcDbArc
50
-44.999999999997812
51
135.00000000000071
0
LINE
5
109
100
AcDbEntity
8
0
100
AcDbLine
10
133.48998954684544
20
157.71847700537495
30
0
11
132.42932880212939
21
156.65781626065893
31
0
0
CIRCLE
5
110
100
AcDbEntity
8
0
100
AcDbCircle
10
-2.2981274352890857
20
195.16733623040264
30
0
40
1.5999999999999992
210
0
220
0
230
1
0
ARC
5
111
100
AcDbEntity
8
0
100
AcDbCircle
10
132.35933150717676
20
170.16499996973727
30
0
40
1.5999999999999064
210
0
220
0
230
1
100
AcDbArc
50
-135.00000000000071
51
45
0
LINE
5
112
100
AcDbEntity
8
0
100
AcDbLine
10
131.22796065727835
20
169.03362911983888
30
0
11
130.16727300368527
21
170.09431677343187
31
0
0
ARC
5
113
100
AcDbEntity
8
0
100
AcDbCircle
10
131.29864385358377
20
171.22568762333029
30
0
40
1.6000000000000825
210
0
220
-0
230
1
100
AcDbArc
50
44.999999999999275
51
224.99999879258073
0
LINE
5
114
100
AcDbEntity
8
0
100
AcDbLine
10
132.4300147034823
20
172.35705847322879
30
0
11
133.49070235707518
21
171.29637081963568
31
0
0
LWPOLYLINE
5
115
100
AcDbEntity
8
0
100
AcDbPolyline
90
4
70
1
43
0.0
10
142.54019764239541
20
157.71963586861199
42
-0.99999999999999989
10
144.80293934219216
20
159.98237756840896
10
145.86359977088509
20
158.92171713971618
42
-0.99999999999999989
10
143.60085807108797
20
156.65897543991929
0
LWPOLYLINE
5
116
100
AcDbEntity
8
0
100
AcDbPolyline
90
56
70
1
43
0.0
10
113.04431669612117
20
157.50558051588669
10
47.919216462805124
20
157.50558051588376
42
0.19891236737965787
10
45.090789338058919
20
156.33400764062995
10
34.787339422262903
20
146.03055772483393
42
-0.41421356237308676
10
33.373125859889811
20
146.0305577248339
10
26.302058627543513
20
153.10162495718018
42
-0.4142135623730932
10
26.302058627543534
20
154.51583851955328
10
36.201553743279227
20
164.41533363528902
42
0.41421356237309503
10
36.20155374327922
20
167.2437607600352
10
8.6243888239253295
20
194.82092567938906
42
0.41421356237308737
10
5.7959616991791485
20
194.82092567938906
10
-4.1035336799743192
20
184.92143030023558
42
-0.41421345326187564
10
-5.5177469789295941
20
184.92143003681787
10
-12.588817551413591
20
191.99249534094579
42
-0.41421367148432264
10
-12.588817814831454
20
193.40670916673668
10
-1.275109579264565
20
204.7204174023035
42
-0.41421356237309781
10
15.695453169212481
20
204.7204174023035
10
45.395571221254585
20
175.02029935026141
42
0.1989123673796519
10
53.880852595493174
20
171.50558072449994
10
113.04431669612113
20
171.50558072449994
42
0.12527532960022
10
124.04429782045668
20
174.30557611706092
42
0.034776893751343414
10
128.13360762671749
20
176.91534425537952
10
131.7818267122812
20
179.06518764508667
42
-0.49103057540963702
10
135.07713635408689
20
177.74751391767063
10
135.28613992535116
20
177.01382247237629
42
0.13563560104881991
10
136.17024698806932
20
175.56251120430261
42
0.19077250762084955
10
136.85482871431125
20
175.2914473195388
10
139.23379573054643
20
175.29144731953886
42
0.19077250762088183
10
139.91837745678828
20
175.56251120430261
42
0.1356356010488266
10
140.80248451950652
20
177.01382247237626
10
141.01148809077077
20
177.74751391767057
42
-0.53609290221536976
10
144.54429736224577
20
178.80557601647803
10
144.70935909866532
20
178.66845081718191
42
0.11212390779152547
10
155.35766107522281
20
173.26085334255933
42
-0.59941319826807793
10
156.04431249064947
20
170.50558070959886
42
-0.1067377453143358
10
151.74668995713907
20
167.97329314731002
10
150.36688479060265
20
167.44280332096702
42
0.26971537121874734
10
149.00750492623996
20
165.75093548069307
10
149.0075049262002
20
163.26022575968463
42
0.26971537121873213
10
150.36688479058819
20
161.5683579193792
10
151.74668995713904
20
161.03786809307371
42
-0.10673774531433849
10
156.04431249064953
20
158.50558053078484
42
-0.59941319826805783
10
155.35766107522286
20
155.75030789782423
42
0.11212390779152254
10
144.70935909866526
20
150.34271042320188
10
144.54429736224574
20
150.20558522390567
42
-0.53609290221537687
10
141.0114880907708
20
151.26364732271315
10
140.80248451950646
20
151.99733876800747
42
0.13563560104881617
10
139.91837745678819
20
153.44865003608109
42
0.19077250762086889
10
139.23379573054643
20
153.71971392084481
10
136.85482871431111
20
153.71971392084481
42
0.19077250762084602
10
136.17024698806941
20
153.44865003608109
42
0.13563560104882574
10
135.28613992535116
20
151.99733876800744
10
135.07713635408692
20
151.26364732271315
42
-0.49103057540964823
10
131.78182671228112
20
149.94597359529703
10
128.13360762671741
20
152.09581698500421
42
0.034776893751355044
10
124.04429782045665
20
154.70558512332278
42
0.12527532960021598
0
ENDSEC
0
SECTION
2
OBJECTS
0
DICTIONARY
5
C
100
AcDbDictionary
3
ACAD_GROUP
350
D
3
ACAD_MLINESTYLE
350
17
0
DICTIONARY
5
D
100
AcDbDictionary
0
DICTIONARY
5
1A
330
C
100
AcDbDictionary
0
DICTIONARY
5
17
100
AcDbDictionary
0
ENDSEC
0
EOF
