0
SECTION
2
HEADER
9
$INSUNITS
70
4
9
$ACADVER
1
AC1014
9
$HANDSEED
5
FFFF
0
ENDSEC
0
SECTION
2
TABLES
0
TABLE
2
VPORT
5
8
100
AcDbSymbolTable
0
ENDTAB
0
TABLE
2
LTYPE
5
5
100
AcDbSymbolTable
0
LTYPE
5
14
100
AcDbSymbolTableRecord
100
AcDbLinetypeTableRecord
2
BYBLOCK
70
0
0
LTYPE
5
15
100
AcDbSymbolTableRecord
100
AcDbLinetypeTableRecord
2
BYLAYER
70
0
0
ENDTAB
0
TABLE
2
LAYER
5
2
100
AcDbSymbolTable
70
2
0
LAYER
5
50
100
AcDbSymbolTableRecord
100
AcDbLayerTableRecord
2
0
70
0
6
CONTINUOUS
0
ENDTAB
0
TABLE
2
STYLE
5
3
100
AcDbSymbolTable
70
1
0
STYLE
5
11
100
AcDbSymbolTableRecord
100
AcDbTextStyleTableRecord
2
STANDARD
70
0
0
ENDTAB
0
TABLE
2
VIEW
5
6
100
AcDbSymbolTable
70
0
0
ENDTAB
0
TABLE
2
UCS
5
7
100
AcDbSymbolTable
70
0
0
ENDTAB
0
TABLE
2
APPID
5
9
100
AcDbSymbolTable
70
2
0
APPID
5
12
100
AcDbSymbolTableRecord
100
AcDbRegAppTableRecord
2
ACAD
70
0
0
ENDTAB
0
TABLE
2
DIMSTYLE
5
A
100
AcDbSymbolTable
70
1
0
ENDTAB
0
TABLE
2
BLOCK_RECORD
5
1
100
AcDbSymbolTable
70
1
0
BLOCK_RECORD
5
1F
100
AcDbSymbolTableRecord
100
AcDbBlockTableRecord
2
*MODEL_SPACE
0
BLOCK_RECORD
5
1B
100
AcDbSymbolTableRecord
100
AcDbBlockTableRecord
2
*PAPER_SPACE
0
ENDTAB
0
ENDSEC
0
SECTION
2
BLOCKS
0
BLOCK
5
20
100
AcDbEntity
100
AcDbBlockBegin
2
*MODEL_SPACE
0
ENDBLK
5
21
100
AcDbEntity
100
AcDbBlockEnd
0
BLOCK
5
1C
100
AcDbEntity
100
AcDbBlockBegin
2
*PAPER_SPACE
0
ENDBLK
5
1D
100
AcDbEntity
100
AcDbBlockEnd
0
ENDSEC
0
SECTION
2
ENTITIES
0
LWPOLYLINE
5
100
100
AcDbEntity
8
0
100
AcDbPolyline
90
30
70
1
43
0.0
10
245.74108979906146
20
15.023191918004546
10
254.36070374882104
20
15.031335132971826
42
0.41421356237309165
10
259.35597793996783
20
20.03605662825791
10
259.34653175147326
20
30.033690568267257
10
259.34653175147326
20
40.033690637667618
42
0.41421356237309814
10
254.34653167696746
20
45.033690712173424
10
245.72691388063564
20
45.033690701483486
42
-0.434032512888752
10
244.86933767993355
20
45.950912775242756
10
244.86933767993349
20
52.033690975704147
10
249.06933767993351
20
52.033690975704147
10
249.06933767993354
20
50.033690945901824
10
312.56933767993354
20
50.033690945901839
10
312.56933767993354
20
52.033690975704161
10
316.76933767993353
20
52.033690975704161
10
316.7693376799337
20
46.033690727074585
42
-0.39089921534014455
10
315.84653259338887
20
45.033690712173424
10
287.84653217615636
20
45.033690712173424
42
0.40238624999053346
10
283.32725490065684
20
40.694048857268079
10
283.32725490065684
20
30.033690488656006
10
283.33731424805001
20
19.398354021516919
42
0.40238624999053552
10
287.86068929837131
20
15.0629836018384
10
315.86067722038342
20
15.089436053428376
42
-0.39089921534735328
10
316.78442662553311
20
14.09030828680347
10
316.79009500809184
20
8.0903107157212162
10
312.59009688237489
20
8.086342848041852
10
312.588207421547
20
10.086341985328424
10
249.08823575892137
20
10.026351604937958
10
249.09012521974921
20
8.0263524676513853
10
244.89012709403224
20
8.0223845999720211
10
244.88438051929069
20
14.105160086678623
42
-0.43403251288700168
0
LWPOLYLINE
5
101
100
AcDbEntity
8
0
100
AcDbPolyline
90
4
70
1
43
0.0
10
262.32494155699976
20
32.576031816076849
10
280.4870053756751
20
32.576031816082498
42
0.99999999999999989
10
280.48700537567447
20
34.576031816071193
10
262.32494155699914
20
34.576031816077077
42
0.99999999999999989
0
LWPOLYLINE
5
102
100
AcDbEntity
8
0
100
AcDbPolyline
90
4
70
1
43
0.0
10
267.20905791080168
20
39.746677706272081
10
275.59989962015817
20
39.746677706306514
42
0.99999999999999989
10
275.59989962014589
20
42.746677706185437
10
267.20905791079667
20
42.746677706212495
42
0.99999999999999989
0
CIRCLE
5
103
100
AcDbEntity
8
0
100
AcDbCircle
10
262.49744688869686
20
37.197299435688223
30
0
40
0.99999999999997868
210
0
220
0
230
1
0
CIRCLE
5
104
100
AcDbEntity
8
0
100
AcDbCircle
10
265.49744688869686
20
37.197299435688223
30
0
40
0.99999999999997868
210
0
220
0
230
1
0
CIRCLE
5
105
100
AcDbEntity
8
0
100
AcDbCircle
10
271.49744688869691
20
37.197299435688223
30
0
40
0.99999999999997868
210
0
220
0
230
1
0
CIRCLE
5
106
100
AcDbEntity
8
0
100
AcDbCircle
10
268.49744688869686
20
37.197299435688223
30
0
40
0.99999999999997868
210
0
220
0
230
1
0
CIRCLE
5
107
100
AcDbEntity
8
0
100
AcDbCircle
10
277.49744688869686
20
37.197299435688223
30
0
40
0.99999999999997868
210
0
220
0
230
1
0
CIRCLE
5
108
100
AcDbEntity
8
0
100
AcDbCircle
10
280.49744688869686
20
37.197299435688223
30
0
40
0.99999999999997868
210
0
220
0
230
1
0
CIRCLE
5
109
100
AcDbEntity
8
0
100
AcDbCircle
10
274.49744688869686
20
37.197299435688223
30
0
40
0.99999999999997868
210
0
220
0
230
1
0
LWPOLYLINE
5
110
100
AcDbEntity
8
0
100
AcDbPolyline
90
4
70
1
43
0.0
10
267.25109023430616
20
44.139055513098917
42
-0.99999999999999989
10
267.25109023430679
20
47.139055513038031
10
275.64193194365595
20
47.139055831455856
42
-0.99999999999999989
10
275.64193194366828
20
44.139055513132064
0
CIRCLE
5
111
100
AcDbEntity
8
0
100
AcDbCircle
10
262.47444885432446
20
30.038844272681899
30
0
40
0.99999999999997868
210
0
220
0
230
1
0
LWPOLYLINE
5
112
100
AcDbEntity
8
0
100
AcDbPolyline
90
4
70
1
43
0.0
10
280.39326600035946
20
31.047851844148369
42
-0.99999999999999989
10
280.39326600035946
20
29.047851844147914
10
265.51505563375349
20
29.047851844147878
42
-0.99999999999999989
10
265.51505563375287
20
31.047851844148369
0
CIRCLE
5
113
100
AcDbEntity
8
0
100
AcDbCircle
10
280.5042040134349
20
22.892428476990219
30
0
40
0.99999999999997868
210
0
220
0
230
1
0
CIRCLE
5
114
100
AcDbEntity
8
0
100
AcDbCircle
10
262.50421204607642
20
22.875423329792923
30
0
40
0.99999999999997868
210
0
220
0
230
1
0
CIRCLE
5
115
100
AcDbEntity
8
0
100
AcDbCircle
10
268.50420936852925
20
22.88109171219201
30
0
40
0.99999999999997868
210
0
220
0
230
1
0
CIRCLE
5
116
100
AcDbEntity
8
0
100
AcDbCircle
10
274.50420669098207
20
22.886760094591114
30
0
40
0.99999999999997868
210
0
220
0
230
1
0
CIRCLE
5
117
100
AcDbEntity
8
0
100
AcDbCircle
10
271.50420802975566
20
22.883925903391571
30
0
40
0.99999999999997868
210
0
220
0
230
1
0
CIRCLE
5
118
100
AcDbEntity
8
0
100
AcDbCircle
10
265.50421070730283
20
22.878257520992467
30
0
40
0.99999999999997868
210
0
220
0
230
1
0
CIRCLE
5
119
100
AcDbEntity
8
0
100
AcDbCircle
10
277.50420535220849
20
22.889594285790658
30
0
40
0.99999999999997868
210
0
220
0
230
1
0
LINE
5
120
100
AcDbEntity
8
0
100
AcDbLine
10
275.65808351441086
20
12.946089683678839
30
0
11
267.26724554952978
21
12.938162600408578
31
0
0
ARC
5
121
100
AcDbEntity
8
0
100
AcDbCircle
10
267.26582845392971
20
14.43816193099134
30
0
40
1.4999999999708316
210
0
220
0
230
1
100
AcDbArc
50
90.054129072537975
51
270.05412907275297
0
LINE
5
122
100
AcDbEntity
8
0
100
AcDbLine
10
267.26441135833528
20
15.938161261575381
30
0
11
275.65524932321273
21
15.946088344784108
31
0
0
ARC
5
123
100
AcDbEntity
8
0
100
AcDbCircle
10
275.65666641888146
20
14.446088855009007
30
0
40
1.4999998407169688
210
-0
220
0
230
1
100
AcDbArc
50
-89.945870924199127
51
90.054129069631244
0
LWPOLYLINE
5
124
100
AcDbEntity
8
0
100
AcDbPolyline
90
4
70
1
43
0.0
10
267.22106365428135
20
17.330498737907028
10
275.61190159681632
20
17.33842582115745
42
0.99999999999999989
10
275.60906740560711
20
20.338424482262667
10
267.21822944074069
20
20.330497399054011
42
1.0000000074505806
0
LWPOLYLINE
5
125
100
AcDbEntity
8
0
100
AcDbPolyline
90
4
70
1
43
0.0
10
262.32923040015413
20
25.496526808612003
10
280.49128611386601
20
25.5136850624225
42
0.99999999999999989
10
280.48939665306659
20
27.513684169904149
10
262.32734093935511
20
27.496525916096282
42
0.99999999999999989
0
ENDSEC
0
SECTION
2
OBJECTS
0
DICTIONARY
5
C
100
AcDbDictionary
3
ACAD_GROUP
350
D
3
ACAD_MLINESTYLE
350
17
0
DICTIONARY
5
D
100
AcDbDictionary
0
DICTIONARY
5
1A
330
C
100
AcDbDictionary
0
DICTIONARY
5
17
100
AcDbDictionary
0
ENDSEC
0
EOF
