0
SECTION
2
HEADER
9
$INSUNITS
70
4
9
$ACADVER
1
AC1014
9
$HANDSEED
5
FFFF
0
ENDSEC
0
SECTION
2
TABLES
0
TABLE
2
VPORT
5
8
100
AcDbSymbolTable
0
ENDTAB
0
TABLE
2
LTYPE
5
5
100
AcDbSymbolTable
0
LTYPE
5
14
100
AcDbSymbolTableRecord
100
AcDbLinetypeTableRecord
2
BYBLOCK
70
0
0
LTYPE
5
15
100
AcDbSymbolTableRecord
100
AcDbLinetypeTableRecord
2
BYLAYER
70
0
0
ENDTAB
0
TABLE
2
LAYER
5
2
100
AcDbSymbolTable
70
2
0
LAYER
5
50
100
AcDbSymbolTableRecord
100
AcDbLayerTableRecord
2
0
70
0
6
CONTINUOUS
0
ENDTAB
0
TABLE
2
STYLE
5
3
100
AcDbSymbolTable
70
1
0
STYLE
5
11
100
AcDbSymbolTableRecord
100
AcDbTextStyleTableRecord
2
STANDARD
70
0
0
ENDTAB
0
TABLE
2
VIEW
5
6
100
AcDbSymbolTable
70
0
0
ENDTAB
0
TABLE
2
UCS
5
7
100
AcDbSymbolTable
70
0
0
ENDTAB
0
TABLE
2
APPID
5
9
100
AcDbSymbolTable
70
2
0
APPID
5
12
100
AcDbSymbolTableRecord
100
AcDbRegAppTableRecord
2
ACAD
70
0
0
ENDTAB
0
TABLE
2
DIMSTYLE
5
A
100
AcDbSymbolTable
70
1
0
ENDTAB
0
TABLE
2
BLOCK_RECORD
5
1
100
AcDbSymbolTable
70
1
0
BLOCK_RECORD
5
1F
100
AcDbSymbolTableRecord
100
AcDbBlockTableRecord
2
*MODEL_SPACE
0
BLOCK_RECORD
5
1B
100
AcDbSymbolTableRecord
100
AcDbBlockTableRecord
2
*PAPER_SPACE
0
ENDTAB
0
ENDSEC
0
SECTION
2
BLOCKS
0
BLOCK
5
20
100
AcDbEntity
100
AcDbBlockBegin
2
*MODEL_SPACE
0
ENDBLK
5
21
100
AcDbEntity
100
AcDbBlockEnd
0
BLOCK
5
1C
100
AcDbEntity
100
AcDbBlockBegin
2
*PAPER_SPACE
0
ENDBLK
5
1D
100
AcDbEntity
100
AcDbBlockEnd
0
ENDSEC
0
SECTION
2
ENTITIES
0
ARC
5
100
100
AcDbEntity
8
0
100
AcDbCircle
10
72.387164180938456
20
162.76218069143346
30
0
40
3.4846107082268079
210
0
220
0
230
1
100
AcDbArc
50
204.85259917250812
51
250.52230830416687
0
ARC
5
101
100
AcDbEntity
8
0
100
AcDbCircle
10
70.317984588508295
20
156.91175959756842
30
0
40
2.7209457665199039
210
0
220
0
230
1
100
AcDbArc
50
-2.5923298998109434
51
70.522308304167339
0
LINE
5
102
100
AcDbEntity
8
0
100
AcDbLine
10
73.036145830322724
20
156.78869324213196
30
0
11
72.077528590101693
21
135.61575593638105
31
0
0
ARC
5
103
100
AcDbEntity
8
0
100
AcDbCircle
10
68.753437645347518
20
135.52216165208085
30
0
40
3.3254083206503045
210
0
220
0
230
1
100
AcDbArc
50
-41.985614249742291
51
1.6128141888206637
0
ARC
5
104
100
AcDbEntity
8
0
100
AcDbCircle
10
73.697512613007191
20
131.07274379794234
30
0
40
3.325997284675962
210
0
220
0
230
1
100
AcDbArc
50
138.01438575025753
51
180
0
LINE
5
105
100
AcDbEntity
8
0
100
AcDbLine
10
70.371515328331228
20
131.07274379794234
30
0
11
70.371515328331228
21
101.29842051047625
31
0
0
ARC
5
106
100
AcDbEntity
8
0
100
AcDbCircle
10
74.540984570279448
20
101.69779684071571
30
0
40
4.1885528781081129
210
0
220
0
230
1
100
AcDbArc
50
185.47143473339807
51
358.55507779073059
0
LINE
5
107
100
AcDbEntity
8
0
100
AcDbLine
10
78.728205600402561
20
101.59217838777096
30
0
11
79.225256356135247
21
121.29764953817252
31
0
0
ARC
5
108
100
AcDbEntity
8
0
100
AcDbCircle
10
85.313747658106891
20
119.89488922551712
30
0
40
6.2479967052604479
210
0
220
-0
230
1
100
AcDbArc
50
83.562437515930242
51
167.02572150043656
0
LINE
5
109
100
AcDbEntity
8
0
100
AcDbLine
10
86.014275620023838
20
126.10348998603618
30
0
11
94.882726426357408
21
125.10284620036579
31
0
0
LINE
5
110
100
AcDbEntity
8
0
100
AcDbLine
10
94.882726426357408
20
125.10284620036579
30
0
11
95.484872807053435
21
129.50954773399729
31
0
0
ARC
5
111
100
AcDbEntity
8
0
100
AcDbCircle
10
90.653145331012993
20
129.61860072858633
30
0
40
4.8329579926120791
210
-0
220
0
230
1
100
AcDbArc
50
-1.292956960676827
51
82.830801000408044
0
LINE
5
112
100
AcDbEntity
8
0
100
AcDbLine
10
91.256297887173531
20
134.41377433882715
30
0
11
77.87883015993151
21
136.09643580401314
31
0
0
ARC
5
113
100
AcDbEntity
8
0
100
AcDbCircle
10
78.182831007628039
20
137.18260485509927
30
0
40
1.1279094480221217
210
0
220
0
230
1
100
AcDbArc
50
177.59841183557091
51
254.36394086886273
0
LINE
5
114
100
AcDbEntity
8
0
100
AcDbLine
10
77.055912237465918
20
137.22986803732215
30
0
11
77.856294502111624
21
156.31376706639327
31
0
0
ARC
5
115
100
AcDbEntity
8
0
100
AcDbCircle
10
79.03040135496785
20
156.33894568998099
30
0
40
1.1743767985658229
210
0
220
0
230
1
100
AcDbArc
50
156.15162013536593
51
181.22851491368925
0
ARC
5
116
100
AcDbEntity
8
0
100
AcDbCircle
10
79.794249459688075
20
156.00127779576761
30
0
40
2.009531594916159
210
0
220
0
230
1
100
AcDbArc
50
119.15172615738064
51
156.15162013536707
0
LINE
5
117
100
AcDbEntity
8
0
100
AcDbLine
10
78.815358357917034
20
157.75626766520838
30
0
11
79.456344504297419
21
158.11379430737082
31
0
0
ARC
5
118
100
AcDbEntity
8
0
100
AcDbCircle
10
88.172142761218609
20
142.48780933589347
30
0
40
17.892359978051612
210
0
220
0
230
1
100
AcDbArc
50
105.6547905473444
51
119.1517261573792
0
LINE
5
119
100
AcDbEntity
8
0
100
AcDbLine
10
83.34405499286396
20
159.71645159479615
30
0
11
85.98412024855989
21
160.45629322463188
31
0
0
ARC
5
120
100
AcDbEntity
8
0
100
AcDbCircle
10
85.787427269602645
20
160.87404683663377
30
0
40
0.46174257797141438
210
-0
220
0
230
1
100
AcDbArc
50
-64.78730706851033
51
43.943685589266032
0
LINE
5
121
100
AcDbEntity
8
0
100
AcDbLine
10
86.119892182409302
20
161.19447356782848
30
0
11
82.558285488204532
21
164.88988703918727
31
0
0
ARC
5
122
100
AcDbEntity
8
0
100
AcDbCircle
10
81.12368171641495
20
163.20618953691547
30
0
40
2.2119957642792265
210
0
220
-0
230
1
100
AcDbArc
50
49.567159254337071
51
79.966261690485055
0
ARC
5
123
100
AcDbEntity
8
0
100
AcDbCircle
10
8.6516034980821956
20
-156.41734776781166
30
0
40
329.94627729148317
210
0
220
-0
230
1
100
AcDbArc
50
77.243025497870022
51
83.535476701977004
0
ARC
5
124
100
AcDbEntity
8
0
100
AcDbCircle
10
37.926547356742049
20
101.94775377311237
30
0
40
69.927916339454129
210
0
220
-0
230
1
100
AcDbArc
50
83.535476701976947
51
90.332011122797908
0
ARC
5
125
100
AcDbEntity
8
0
100
AcDbCircle
10
37.654848266400045
20
148.83484840378983
30
0
40
23.040034500947087
210
0
220
0
230
1
100
AcDbArc
50
90.332011122797709
51
115.23011849169626
0
ARC
5
126
100
AcDbEntity
8
0
100
AcDbCircle
10
30.70236916862191
20
163.63700853848206
30
0
40
6.6864570310024396
210
0
220
0
230
1
100
AcDbArc
50
115.40371360361105
51
164.62374875117391
0
LINE
5
127
100
AcDbEntity
8
0
100
AcDbLine
10
24.255249585166247
20
165.40996642393236
30
0
11
18.756296806839341
21
145.4137745027399
31
0
0
ARC
5
128
100
AcDbEntity
8
0
100
AcDbCircle
10
14.756296747234714
20
145.635705231922
30
0
40
4.0061519848093852
210
0
220
0
230
1
100
AcDbArc
50
269.99999999999972
51
356.82433242722203
0
LINE
5
129
100
AcDbEntity
8
0
100
AcDbLine
10
14.756296747234696
20
141.62955324711263
30
0
11
10.622588096166208
21
141.62955324711263
31
0
0
ARC
5
130
100
AcDbEntity
8
0
100
AcDbCircle
10
10.840681769873282
20
133.53944563290548
30
0
40
8.0930467723820581
210
0
220
0
230
1
100
AcDbArc
50
91.544209532215021
51
177.34894535741887
0
LINE
5
131
100
AcDbEntity
8
0
100
AcDbLine
10
2.756296568420757
20
133.91377433137654
30
0
11
1.4244820550253223
21
105.15054675318034
31
0
0
LINE
5
132
100
AcDbEntity
8
0
100
AcDbLine
10
1.4244820550253223
20
105.15054675318034
30
0
11
1.2252551938446565
21
101.29764924014928
31
0
0
ARC
5
133
100
AcDbEntity
8
0
100
AcDbCircle
10
5.2252552577021127
20
101.44018060780041
30
0
40
4.0025386571055321
210
0
220
0
230
1
100
AcDbArc
50
182.04074800115438
51
357.9590693652774
0
LINE
5
134
100
AcDbEntity
8
0
100
AcDbLine
10
9.225254867212378
20
101.29763648992144
30
0
11
9.9993516688594042
21
123.01994218998149
31
0
0
ARC
5
135
100
AcDbEntity
8
0
100
AcDbCircle
10
12.655414457036532
20
122.9724338940015
30
0
40
2.6564876383913756
210
0
220
0
230
1
100
AcDbArc
50
136.60070597893909
51
178.97527474550756
0
ARC
5
136
100
AcDbEntity
8
0
100
AcDbCircle
10
8.027781088397461
20
127.34846122077499
30
0
40
3.712547277450287
210
-0
220
0
230
1
100
AcDbArc
50
316.60070597893917
51
355.44011456207619
0
LINE
5
137
100
AcDbEntity
8
0
100
AcDbLine
10
11.728577351497476
20
127.05330989293024
30
0
11
11.986815281900203
21
130.29126235211004
31
0
0
ARC
5
138
100
AcDbEntity
8
0
100
AcDbCircle
10
20.276262359420109
20
129.63015021891212
30
0
40
8.3157682810227733
210
0
220
0
230
1
100
AcDbArc
50
108.08545531975413
51
175.44011456207585
0
ARC
5
139
100
AcDbEntity
8
0
100
AcDbCircle
10
15.303941623346571
20
144.85607228456831
30
0
40
7.7014935402693734
210
-0
220
0
230
1
100
AcDbArc
50
288.08545531975398
51
344.49777807861335
0
LINE
5
140
100
AcDbEntity
8
0
100
AcDbLine
10
22.725255514219626
20
142.79764985854746
30
0
11
27.501826919824968
21
160.01881655157234
31
0
0
ARC
5
141
100
AcDbEntity
8
0
100
AcDbCircle
10
30.612371040368295
20
158.74170239629333
30
0
40
3.3625147273225147
210
0
220
-0
230
1
100
AcDbArc
50
88.317277106195107
51
157.67813309623671
0
ARC
5
142
100
AcDbEntity
8
0
100
AcDbCircle
10
30.833181110249139
20
166.25800079518928
30
0
40
4.1570263961907203
210
0
220
0
230
1
100
AcDbArc
50
268.31727710619538
51
339.43333835345902
0
ARC
5
143
100
AcDbEntity
8
0
100
AcDbCircle
10
38.437072028808728
20
163.40493452009568
30
0
40
3.9644971229175905
210
0
220
-0
230
1
100
AcDbArc
50
89.105795957391976
51
159.43333835345845
0
ARC
5
144
100
AcDbEntity
8
0
100
AcDbCircle
10
37.457724235066202
20
100.65869686983676
30
0
40
66.718377173189239
210
0
220
-0
230
1
100
AcDbArc
50
81.559011292698372
51
89.105795957390569
0
ARC
5
145
100
AcDbEntity
8
0
100
AcDbCircle
10
-74.729896768510599
20
-655.33165823074967
30
0
40
830.98762247326863
210
0
220
-0
230
1
100
AcDbArc
50
80.221193740962789
51
81.559011292696724
0
ARC
5
146
100
AcDbEntity
8
0
100
AcDbCircle
10
65.484801044521276
20
159.56514845204231
30
0
40
4.1222041315518787
210
0
220
-0
230
1
100
AcDbArc
50
24.852599172508054
51
77.041536539123598
0
LWPOLYLINE
5
147
100
AcDbEntity
8
0
100
AcDbPolyline
90
4
70
1
43
0.0
10
77.21942764820929
20
128.05209756262659
10
77.21942764820929
20
130.15209756262661
10
72.819427648209242
20
130.15209756262661
10
72.819427648209228
20
128.05209756262659
0
LWPOLYLINE
5
148
100
AcDbEntity
8
0
100
AcDbPolyline
90
4
70
1
43
0.0
10
9.7579121858474771
20
130.1210379330399
10
5.3579121858474643
20
130.1210379330399
10
5.3579121858474377
20
128.02103793303988
10
9.7579121858474771
20
128.02103793303988
0
CIRCLE
5
149
100
AcDbEntity
8
0
100
AcDbCircle
10
74.438575241795149
20
101.55380199368174
30
0
40
1.6000000000000014
210
0
220
0
230
1
0
CIRCLE
5
150
100
AcDbEntity
8
0
100
AcDbCircle
10
82.676160133724807
20
130.92002716017794
30
0
40
1.6000000000000014
210
0
220
0
230
1
0
CIRCLE
5
151
100
AcDbEntity
8
0
100
AcDbCircle
10
91.195739849463976
20
129.99798486020103
30
0
40
1.6000000000000014
210
0
220
0
230
1
0
CIRCLE
5
152
100
AcDbEntity
8
0
100
AcDbCircle
10
78.024643774192754
20
161.84165574018073
30
0
40
1.6000000000000014
210
0
220
0
230
1
0
CIRCLE
5
153
100
AcDbEntity
8
0
100
AcDbCircle
10
31.272056610897039
20
166.23641593227177
30
0
40
1.5999999999999925
210
0
220
0
230
1
0
CIRCLE
5
154
100
AcDbEntity
8
0
100
AcDbCircle
10
8.2367072977958067
20
136.21931911231604
30
0
40
1.5999999999999979
210
0
220
0
230
1
0
CIRCLE
5
155
100
AcDbEntity
8
0
100
AcDbCircle
10
5.2682371861275534
20
101.4932079359811
30
0
40
1.6000000000000025
210
0
220
0
230
1
0
ENDSEC
0
SECTION
2
OBJECTS
0
DICTIONARY
5
C
100
AcDbDictionary
3
ACAD_GROUP
350
D
3
ACAD_MLINESTYLE
350
17
0
DICTIONARY
5
D
100
AcDbDictionary
0
DICTIONARY
5
1A
330
C
100
AcDbDictionary
0
DICTIONARY
5
17
100
AcDbDictionary
0
ENDSEC
0
EOF
