0
SECTION
2
HEADER
9
$INSUNITS
70
4
9
$ACADVER
1
AC1014
9
$HANDSEED
5
FFFF
0
ENDSEC
0
SECTION
2
TABLES
0
TABLE
2
VPORT
5
8
100
AcDbSymbolTable
0
ENDTAB
0
TABLE
2
LTYPE
5
5
100
AcDbSymbolTable
0
LTYPE
5
14
100
AcDbSymbolTableRecord
100
AcDbLinetypeTableRecord
2
BYBLOCK
70
0
0
LTYPE
5
15
100
AcDbSymbolTableRecord
100
AcDbLinetypeTableRecord
2
BYLAYER
70
0
0
ENDTAB
0
TABLE
2
LAYER
5
2
100
AcDbSymbolTable
70
2
0
LAYER
5
50
100
AcDbSymbolTableRecord
100
AcDbLayerTableRecord
2
0
70
0
6
CONTINUOUS
0
ENDTAB
0
TABLE
2
STYLE
5
3
100
AcDbSymbolTable
70
1
0
STYLE
5
11
100
AcDbSymbolTableRecord
100
AcDbTextStyleTableRecord
2
STANDARD
70
0
0
ENDTAB
0
TABLE
2
VIEW
5
6
100
AcDbSymbolTable
70
0
0
ENDTAB
0
TABLE
2
UCS
5
7
100
AcDbSymbolTable
70
0
0
ENDTAB
0
TABLE
2
APPID
5
9
100
AcDbSymbolTable
70
2
0
APPID
5
12
100
AcDbSymbolTableRecord
100
AcDbRegAppTableRecord
2
ACAD
70
0
0
ENDTAB
0
TABLE
2
DIMSTYLE
5
A
100
AcDbSymbolTable
70
1
0
ENDTAB
0
TABLE
2
BLOCK_RECORD
5
1
100
AcDbSymbolTable
70
1
0
BLOCK_RECORD
5
1F
100
AcDbSymbolTableRecord
100
AcDbBlockTableRecord
2
*MODEL_SPACE
0
BLOCK_RECORD
5
1B
100
AcDbSymbolTableRecord
100
AcDbBlockTableRecord
2
*PAPER_SPACE
0
ENDTAB
0
ENDSEC
0
SECTION
2
BLOCKS
0
BLOCK
5
20
100
AcDbEntity
100
AcDbBlockBegin
2
*MODEL_SPACE
0
ENDBLK
5
21
100
AcDbEntity
100
AcDbBlockEnd
0
BLOCK
5
1C
100
AcDbEntity
100
AcDbBlockBegin
2
*PAPER_SPACE
0
ENDBLK
5
1D
100
AcDbEntity
100
AcDbBlockEnd
0
ENDSEC
0
SECTION
2
ENTITIES
0
LWPOLYLINE
5
100
100
AcDbEntity
8
0
100
AcDbPolyline
90
4
70
1
43
0.0
10
190
20
0
10
0
20
0
10
0
20
40
10
190
20
40
0
LWPOLYLINE
5
101
100
AcDbEntity
8
0
100
AcDbPolyline
90
8
70
1
43
0.0
10
61.000000000000007
20
22
10
96.000000000000014
20
22.000000000000011
42
0.41421356237309631
10
97.000000000000014
20
23.000000000000011
10
97.000000000000014
20
30.000000000000014
42
0.41421356237310153
10
96.000000000000014
20
30.999999999999996
10
61.000000000000007
20
31
42
0.41421356237309243
10
60
20
30
10
60.000000000000007
20
23.000000000000004
42
0.41421356237309631
0
LWPOLYLINE
5
102
100
AcDbEntity
8
0
100
AcDbPolyline
90
8
70
1
43
0.0
10
40
20
10
42
-0.41421356237309892
10
39
20
9
10
3.9999999999999991
20
9
42
-0.41421356237309459
10
3.0000000000000004
20
10
10
3
20
17
42
-0.41421356237309459
10
3.9999999999999991
20
18.000000000000004
10
39
20
18
42
-0.41421356237309764
10
40
20
17
0
LWPOLYLINE
5
103
100
AcDbEntity
8
0
100
AcDbPolyline
90
4
70
1
43
0.0
10
187.5
20
12.350000000000001
10
187.5
20
27.650000000000002
10
178.5
20
27.650000000000002
10
178.5
20
12.350000000000001
0
LWPOLYLINE
5
104
100
AcDbEntity
8
0
100
AcDbPolyline
90
4
70
1
43
0.0
10
114.26882334735831
20
29.796038721261194
10
122.8688233473583
20
29.796038721261233
10
122.8688233473583
20
38.196038721261218
10
114.26882334735831
20
38.196038721261218
0
LWPOLYLINE
5
105
100
AcDbEntity
8
0
100
AcDbPolyline
90
8
70
1
43
0.0
10
61.000000000000007
20
9.0000000000000018
42
-0.4142135623730957
10
60.000000000000007
20
10
10
60
20
17
42
-0.4142135623730937
10
61.000000000000007
20
18.000000000000004
10
96.000000000000014
20
18.000000000000007
42
-0.41421356237309764
10
97.000000000000014
20
17
10
97.000000000000014
20
10
42
-0.41421356237309664
10
96.000000000000014
20
9
0
LWPOLYLINE
5
106
100
AcDbEntity
8
0
100
AcDbPolyline
90
4
70
1
43
0.0
10
122.8688233473583
20
1.8039612787387904
10
122.8688233473583
20
10.203961278738792
10
114.26882334735831
20
10.203961278738792
10
114.26882334735831
20
1.8039612787387904
0
LWPOLYLINE
5
107
100
AcDbEntity
8
0
100
AcDbPolyline
90
8
70
1
43
0.0
10
3.9999999999999991
20
21.999999999999819
10
39
20
21.999999999999964
42
0.41421356237309764
10
40
20
22.999999999999968
10
40
20
30
42
0.41421356237309764
10
39
20
30.999999999999996
10
4
20
30.999999999999993
42
0.41421356237309309
10
3.0000000000000004
20
29.999999999999993
10
3.0000000000000004
20
22.999999999999822
42
0.41421356237309437
0
LWPOLYLINE
5
108
100
AcDbEntity
8
0
100
AcDbPolyline
90
4
70
1
43
0.0
10
152.00000000000006
20
37.000000000000007
42
-0.99999999999999989
10
152
20
34
10
146
20
34
42
-0.99999999999999989
10
146
20
37.000000000000007
0
LWPOLYLINE
5
109
100
AcDbEntity
8
0
100
AcDbPolyline
90
4
70
1
43
0.0
10
174.09999999999999
20
25.000000000000423
10
162.10000000000002
20
24.999999999999932
42
0.99999999999999989
10
162.10000000000002
20
21.999999999999925
10
174.09999999999999
20
22.000000000000416
42
0.99999999999999989
0
LWPOLYLINE
5
110
100
AcDbEntity
8
0
100
AcDbPolyline
90
4
70
1
43
0.0
10
48.000000000000007
20
14.999999999999998
10
54.000000000000014
20
14.999999999999998
42
0.99999999999999989
10
54.000000000000014
20
18.000000000000004
10
48.000000000000007
20
18.000000000000004
42
0.99999999999999989
0
LWPOLYLINE
5
111
100
AcDbEntity
8
0
100
AcDbPolyline
90
4
70
1
43
0.0
10
103
20
14.999999999999998
10
109
20
14.999999999999998
42
0.99999999999999989
10
109
20
18.000000000000004
10
103
20
18.000000000000004
42
0.99999999999999989
0
LWPOLYLINE
5
112
100
AcDbEntity
8
0
100
AcDbPolyline
90
4
70
1
43
0.0
10
103
20
22.000000000000028
10
109
20
21.999999999999996
42
0.99999999999999989
10
109
20
25.000000000000004
10
103
20
25.000000000000036
42
0.99999999999999989
0
LWPOLYLINE
5
113
100
AcDbEntity
8
0
100
AcDbPolyline
90
4
70
1
43
0.0
10
12.764693786366671
20
34.573568585037719
10
38.764693786366692
20
34.573568585037719
42
0.99999999999999989
10
38.764693786366692
20
37.573568585037727
10
12.764693786366674
20
37.573568585037727
42
0.99999999999999989
0
LWPOLYLINE
5
114
100
AcDbEntity
8
0
100
AcDbPolyline
90
4
70
1
43
0.0
10
48.000000000000014
20
21.999999999999996
10
54
20
21.999999999999989
42
0.99999999999999989
10
54.000000000000021
20
24.999999999999996
10
48
20
25.000000000000004
42
0.99999999999999989
0
LWPOLYLINE
5
115
100
AcDbEntity
8
0
100
AcDbPolyline
90
4
70
1
43
0.0
10
12.764693786366683
20
2.4264314149622699
10
38.764693786366692
20
2.4264314149622699
42
0.99999999999999989
10
38.764693786366692
20
5.4264314149622788
10
12.764693786366676
20
5.4264314149622788
42
0.99999999999999989
0
LWPOLYLINE
5
116
100
AcDbEntity
8
0
100
AcDbPolyline
90
4
70
1
43
0.0
10
174.09999999999999
20
18.000000000000004
10
162.10000000000002
20
18.000000000000004
42
0.99999999999999989
10
162.10000000000002
20
14.999999999999998
10
174.09999999999999
20
14.999999999999998
42
0.99999999999999989
0
LWPOLYLINE
5
117
100
AcDbEntity
8
0
100
AcDbPolyline
90
4
70
1
43
0.0
10
152
20
6.0000000000000044
10
146
20
6.0000000000000044
42
0.99999999999999989
10
146
20
2.999999999999996
10
152
20
2.999999999999996
42
0.99999999999999989
0
CIRCLE
5
118
100
AcDbEntity
8
0
100
AcDbCircle
10
185.5
20
35.750000000000021
30
0
40
1.6000000000000014
210
0
220
0
230
1
0
CIRCLE
5
119
100
AcDbEntity
8
0
100
AcDbCircle
10
174.00000000000003
20
35.750000000000036
30
0
40
1.6000000000000014
210
0
220
0
230
1
0
CIRCLE
5
120
100
AcDbEntity
8
0
100
AcDbCircle
10
164.25000000000006
20
35.249999999999979
30
0
40
1.6000000000000014
210
0
220
0
230
1
0
CIRCLE
5
121
100
AcDbEntity
8
0
100
AcDbCircle
10
159
20
30
30
0
40
1.5999999999999837
210
0
220
0
230
1
0
CIRCLE
5
122
100
AcDbEntity
8
0
100
AcDbCircle
10
185.5
20
4.25
30
0
40
1.6000000000000014
210
0
220
0
230
1
0
CIRCLE
5
123
100
AcDbEntity
8
0
100
AcDbCircle
10
174.00000000000003
20
4.25
30
0
40
1.6000000000000014
210
0
220
0
230
1
0
CIRCLE
5
124
100
AcDbEntity
8
0
100
AcDbCircle
10
164.25
20
4.7499999999999982
30
0
40
1.6000000000000014
210
0
220
0
230
1
0
CIRCLE
5
125
100
AcDbEntity
8
0
100
AcDbCircle
10
159
20
10
30
0
40
1.5999999999999837
210
0
220
0
230
1
0
CIRCLE
5
126
100
AcDbEntity
8
0
100
AcDbCircle
10
139
20
10
30
0
40
1.6000000000000014
210
0
220
0
230
1
0
CIRCLE
5
127
100
AcDbEntity
8
0
100
AcDbCircle
10
133.75
20
4.7499999999999982
30
0
40
1.6000000000000014
210
0
220
0
230
1
0
CIRCLE
5
128
100
AcDbEntity
8
0
100
AcDbCircle
10
139
20
30
30
0
40
1.6000000000000014
210
0
220
0
230
1
0
CIRCLE
5
129
100
AcDbEntity
8
0
100
AcDbCircle
10
133.75
20
35.25
30
0
40
1.6000000000000014
210
0
220
0
230
1
0
CIRCLE
5
130
100
AcDbEntity
8
0
100
AcDbCircle
10
106.00000000000001
20
35.750000000000014
30
0
40
1.6000000000000014
210
0
220
0
230
1
0
CIRCLE
5
131
100
AcDbEntity
8
0
100
AcDbCircle
10
51
20
35.749999999999993
30
0
40
1.6000000000000014
210
0
220
0
230
1
0
CIRCLE
5
132
100
AcDbEntity
8
0
100
AcDbCircle
10
51.000000000000007
20
4.25
30
0
40
1.6000000000000014
210
0
220
0
230
1
0
CIRCLE
5
133
100
AcDbEntity
8
0
100
AcDbCircle
10
4.5
20
4.25
30
0
40
1.5999999999999996
210
0
220
0
230
1
0
CIRCLE
5
134
100
AcDbEntity
8
0
100
AcDbCircle
10
4.4999999999999867
20
35.749999999999964
30
0
40
1.600000000000001
210
0
220
0
230
1
0
CIRCLE
5
135
100
AcDbEntity
8
0
100
AcDbCircle
10
106.00000000000001
20
4.25
30
0
40
1.6000000000000014
210
0
220
0
230
1
0
LWPOLYLINE
5
136
100
AcDbEntity
8
0
100
AcDbPolyline
90
8
70
1
43
0.0
10
115.375
20
15.500000000000005
10
134.625
20
15.500000000000004
42
0.41421356237309503
10
135.625
20
16.5
10
135.625
20
23.5
42
0.4142135623730937
10
134.625
20
24.5
10
115.375
20
24.5
42
0.4142135623730937
10
114.375
20
23.5
10
114.375
20
16.500000000000004
42
0.41421356237309437
0
LWPOLYLINE
5
137
100
AcDbEntity
8
0
100
AcDbPolyline
90
8
70
1
43
0.0
10
142.375
20
23.5
10
142.375
20
16.5
42
0.41421356237309503
10
143.375
20
15.500000000000004
10
154.625
20
15.5
42
0.4142135623730937
10
155.625
20
16.5
10
155.625
20
23.5
42
0.41421356237309503
10
154.625
20
24.499999999999996
10
143.375
20
24.5
42
0.4142135623730937
0
ENDSEC
0
SECTION
2
OBJECTS
0
DICTIONARY
5
C
100
AcDbDictionary
3
ACAD_GROUP
350
D
3
ACAD_MLINESTYLE
350
17
0
DICTIONARY
5
D
100
AcDbDictionary
0
DICTIONARY
5
1A
330
C
100
AcDbDictionary
0
DICTIONARY
5
17
100
AcDbDictionary
0
ENDSEC
0
EOF
