0
SECTION
2
HEADER
9
$INSUNITS
70
4
9
$ACADVER
1
AC1014
9
$HANDSEED
5
FFFF
0
ENDSEC
0
SECTION
2
TABLES
0
TABLE
2
VPORT
5
8
100
AcDbSymbolTable
0
ENDTAB
0
TABLE
2
LTYPE
5
5
100
AcDbSymbolTable
0
LTYPE
5
14
100
AcDbSymbolTableRecord
100
AcDbLinetypeTableRecord
2
BYBLOCK
70
0
0
LTYPE
5
15
100
AcDbSymbolTableRecord
100
AcDbLinetypeTableRecord
2
BYLAYER
70
0
0
ENDTAB
0
TABLE
2
LAYER
5
2
100
AcDbSymbolTable
70
2
0
LAYER
5
50
100
AcDbSymbolTableRecord
100
AcDbLayerTableRecord
2
0
70
0
6
CONTINUOUS
0
ENDTAB
0
TABLE
2
STYLE
5
3
100
AcDbSymbolTable
70
1
0
STYLE
5
11
100
AcDbSymbolTableRecord
100
AcDbTextStyleTableRecord
2
STANDARD
70
0
0
ENDTAB
0
TABLE
2
VIEW
5
6
100
AcDbSymbolTable
70
0
0
ENDTAB
0
TABLE
2
UCS
5
7
100
AcDbSymbolTable
70
0
0
ENDTAB
0
TABLE
2
APPID
5
9
100
AcDbSymbolTable
70
2
0
APPID
5
12
100
AcDbSymbolTableRecord
100
AcDbRegAppTableRecord
2
ACAD
70
0
0
ENDTAB
0
TABLE
2
DIMSTYLE
5
A
100
AcDbSymbolTable
70
1
0
ENDTAB
0
TABLE
2
BLOCK_RECORD
5
1
100
AcDbSymbolTable
70
1
0
BLOCK_RECORD
5
1F
100
AcDbSymbolTableRecord
100
AcDbBlockTableRecord
2
*MODEL_SPACE
0
BLOCK_RECORD
5
1B
100
AcDbSymbolTableRecord
100
AcDbBlockTableRecord
2
*PAPER_SPACE
0
ENDTAB
0
ENDSEC
0
SECTION
2
BLOCKS
0
BLOCK
5
20
100
AcDbEntity
100
AcDbBlockBegin
2
*MODEL_SPACE
0
ENDBLK
5
21
100
AcDbEntity
100
AcDbBlockEnd
0
BLOCK
5
1C
100
AcDbEntity
100
AcDbBlockBegin
2
*PAPER_SPACE
0
ENDBLK
5
1D
100
AcDbEntity
100
AcDbBlockEnd
0
ENDSEC
0
SECTION
2
ENTITIES
0
LWPOLYLINE
5
100
100
AcDbEntity
8
0
100
AcDbPolyline
90
4
70
1
43
0.0
10
190
20
50
10
0
20
50
10
0
20
90
10
190
20
90
0
LWPOLYLINE
5
101
100
AcDbEntity
8
0
100
AcDbPolyline
90
8
70
1
43
0.0
10
96.000000000000014
20
68
42
-0.41421356237309764
10
97.000000000000014
20
67
10
97
20
60
42
-0.41421356237309764
10
96.000000000000014
20
59
10
61.000000000000007
20
59
42
-0.41421356237309503
10
60.000000000000007
20
60
10
60.000000000000007
20
67
42
-0.41421356237309503
10
61.000000000000007
20
68
0
LWPOLYLINE
5
102
100
AcDbEntity
8
0
100
AcDbPolyline
90
8
70
1
43
0.0
10
96.000000000000014
20
81
10
61.000000000000007
20
81
42
0.41421356237309764
10
60.000000000000007
20
80
10
60.000000000000007
20
73
42
0.41421356237309503
10
61.000000000000007
20
72.000000000000014
10
96.000000000000014
20
72.000000000000014
42
0.41421356237309764
10
97.000000000000014
20
73.000000000000014
10
97.000000000000014
20
80.000000000000014
42
0.41421356237310025
0
LWPOLYLINE
5
103
100
AcDbEntity
8
0
100
AcDbPolyline
90
8
70
1
43
0.0
10
39
20
81
10
4
20
81
42
0.41421356237310153
10
3.0000000000000004
20
79.999999999999986
10
3.0000000000000004
20
72.999999999999815
42
0.41421356237309553
10
3.9999999999999991
20
71.999999999999829
10
39
20
71.999999999999972
42
0.41421356237309631
10
40
20
72.999999999999972
10
40
20
80
42
0.41421356237309764
0
LWPOLYLINE
5
104
100
AcDbEntity
8
0
100
AcDbPolyline
90
8
70
1
43
0.0
10
3.0000000000000004
20
67
10
3.0000000000000004
20
60
42
0.41421356237309503
10
3.9999999999999991
20
59
10
39
20
59
42
0.41421356237309631
10
40
20
60
10
40
20
67
42
0.41421356237309631
10
39
20
68
10
3.9999999999999991
20
68
42
0.41421356237309553
0
LWPOLYLINE
5
105
100
AcDbEntity
8
0
100
AcDbPolyline
90
4
70
1
43
0.0
10
152
20
56.000000000000007
10
146
20
56.000000000000007
42
0.99999999999999989
10
146
20
53
10
152
20
53
42
0.99999999999999989
0
LWPOLYLINE
5
106
100
AcDbEntity
8
0
100
AcDbPolyline
90
4
70
1
43
0.0
10
48.000000000000007
20
65
10
54.000000000000014
20
65
42
0.99999999999999989
10
54.000000000000014
20
68
10
48.000000000000007
20
68
42
0.99999999999999989
0
LWPOLYLINE
5
107
100
AcDbEntity
8
0
100
AcDbPolyline
90
4
70
1
43
0.0
10
103
20
72.000000000000028
10
109
20
72
42
0.99999999999999989
10
109
20
75.000000000000014
10
103
20
75.000000000000028
42
0.99999999999999989
0
LWPOLYLINE
5
108
100
AcDbEntity
8
0
100
AcDbPolyline
90
4
70
1
43
0.0
10
103
20
65
10
109
20
65
42
0.99999999999999989
10
109
20
68
10
103
20
68
42
0.99999999999999989
0
LWPOLYLINE
5
109
100
AcDbEntity
8
0
100
AcDbPolyline
90
4
70
1
43
0.0
10
152.00000000000006
20
87.000000000000014
42
-0.99999999999999989
10
152
20
84
10
146
20
84
42
-0.99999999999999989
10
146
20
87.000000000000014
0
LWPOLYLINE
5
110
100
AcDbEntity
8
0
100
AcDbPolyline
90
4
70
1
43
0.0
10
12.764693786366678
20
52.426431414962273
10
38.764693786366692
20
52.426431414962273
42
0.99999999999999989
10
38.764693786366692
20
55.426431414962281
10
12.764693786366676
20
55.426431414962281
42
0.99999999999999989
0
LWPOLYLINE
5
111
100
AcDbEntity
8
0
100
AcDbPolyline
90
4
70
1
43
0.0
10
54.000000000000021
20
75.000000000000014
42
-0.99999999999999989
10
54
20
71.999999999999986
10
48.000000000000014
20
72
42
-0.99999999999999989
10
48
20
75.000000000000014
0
LWPOLYLINE
5
112
100
AcDbEntity
8
0
100
AcDbPolyline
90
4
70
1
43
0.0
10
124
20
58.5
10
130
20
58.5
42
0.99999999999999989
10
130
20
61.5
10
124
20
61.5
42
0.99999999999999989
0
LWPOLYLINE
5
113
100
AcDbEntity
8
0
100
AcDbPolyline
90
4
70
1
43
0.0
10
12.764693786366678
20
84.573568585037734
10
38.764693786366692
20
84.573568585037734
42
0.99999999999999989
10
38.764693786366692
20
87.573568585037748
10
12.764693786366683
20
87.573568585037748
42
0.99999999999999989
0
LWPOLYLINE
5
114
100
AcDbEntity
8
0
100
AcDbPolyline
90
4
70
1
43
0.0
10
174.09999999999999
20
68
10
162.10000000000002
20
68
42
0.99999999999999989
10
162.10000000000002
20
65
10
174.09999999999999
20
65
42
0.99999999999999989
0
LWPOLYLINE
5
115
100
AcDbEntity
8
0
100
AcDbPolyline
90
4
70
1
43
0.0
10
123.99999999999997
20
78.5
42
-0.99999999999999989
10
124
20
81.5
10
130
20
81.5
42
-0.99999999999999989
10
130
20
78.5
0
LWPOLYLINE
5
116
100
AcDbEntity
8
0
100
AcDbPolyline
90
4
70
1
43
0.0
10
174.09999999999999
20
75.000000000000441
10
162.10000000000002
20
74.999999999999943
42
0.99999999999999989
10
162.10000000000002
20
71.999999999999929
10
174.09999999999999
20
72.000000000000441
42
0.99999999999999989
0
CIRCLE
5
117
100
AcDbEntity
8
0
100
AcDbCircle
10
4.5
20
54.250000000000007
30
0
40
1.6000000000000028
210
0
220
0
230
1
0
CIRCLE
5
118
100
AcDbEntity
8
0
100
AcDbCircle
10
4.4999999999999867
20
85.749999999999972
30
0
40
1.5999999999999965
210
0
220
0
230
1
0
CIRCLE
5
119
100
AcDbEntity
8
0
100
AcDbCircle
10
51
20
85.750000000000014
30
0
40
1.6000000000000014
210
0
220
0
230
1
0
CIRCLE
5
120
100
AcDbEntity
8
0
100
AcDbCircle
10
51.000000000000007
20
54.250000000000007
30
0
40
1.6000000000000014
210
0
220
0
230
1
0
CIRCLE
5
121
100
AcDbEntity
8
0
100
AcDbCircle
10
106.00000000000001
20
54.250000000000007
30
0
40
1.6000000000000014
210
0
220
0
230
1
0
CIRCLE
5
122
100
AcDbEntity
8
0
100
AcDbCircle
10
106.00000000000001
20
85.750000000000014
30
0
40
1.6000000000000014
210
0
220
0
230
1
0
CIRCLE
5
123
100
AcDbEntity
8
0
100
AcDbCircle
10
174.00000000000003
20
54.250000000000007
30
0
40
1.6000000000000014
210
0
220
0
230
1
0
CIRCLE
5
124
100
AcDbEntity
8
0
100
AcDbCircle
10
185.5
20
54.250000000000007
30
0
40
1.6000000000000014
210
0
220
0
230
1
0
CIRCLE
5
125
100
AcDbEntity
8
0
100
AcDbCircle
10
185.5
20
85.750000000000028
30
0
40
1.6000000000000014
210
0
220
0
230
1
0
CIRCLE
5
126
100
AcDbEntity
8
0
100
AcDbCircle
10
174.00000000000003
20
85.750000000000028
30
0
40
1.6000000000000014
210
0
220
0
230
1
0
LWPOLYLINE
5
127
100
AcDbEntity
8
0
100
AcDbPolyline
90
8
70
1
43
0.0
10
115.375
20
65.5
10
134.625
20
65.5
42
0.41421356237309503
10
135.625
20
66.5
10
135.625
20
73.5
42
0.41421356237309503
10
134.625
20
74.5
10
115.375
20
74.5
42
0.41421356237309503
10
114.375
20
73.5
10
114.375
20
66.5
42
0.41421356237309503
0
LWPOLYLINE
5
128
100
AcDbEntity
8
0
100
AcDbPolyline
90
8
70
1
43
0.0
10
143.375
20
65.5
10
154.625
20
65.5
42
0.41421356237309503
10
155.625
20
66.5
10
155.625
20
73.5
42
0.41421356237309503
10
154.625
20
74.5
10
143.375
20
74.5
42
0.41421356237309503
10
142.375
20
73.5
10
142.375
20
66.5
42
0.41421356237309503
0
LWPOLYLINE
5
129
100
AcDbEntity
8
0
100
AcDbPolyline
90
4
70
1
43
0.0
10
141.47487373415291
20
82.474873734152908
10
136.22487373415291
20
87.724873734152908
42
0.99999999999999989
10
131.27512626584709
20
82.775126265847092
10
136.52512626584709
20
77.525126265847092
42
0.99999999999999989
0
LINE
5
130
100
AcDbEntity
8
0
100
AcDbLine
10
166.72487373415294
20
82.775126265847064
30
0
11
161.47487373415291
21
77.525126265847078
31
0
0
ARC
5
131
100
AcDbEntity
8
0
100
AcDbCircle
10
159
20
79.999999999999986
30
0
40
3.5000000000000249
210
0
220
0
230
1
100
AcDbArc
50
134.99999999999986
51
315
0
LINE
5
132
100
AcDbEntity
8
0
100
AcDbLine
10
156.52512626584706
20
82.474873734152936
30
0
11
161.77512626584706
21
87.724873734152908
31
0
0
ARC
5
133
100
AcDbEntity
8
0
100
AcDbCircle
10
164.25
20
85.249999999999986
30
0
40
3.5000000000000182
210
-0
220
0
230
1
100
AcDbArc
50
-44.999999999999851
51
135.00000000000017
0
LWPOLYLINE
5
134
100
AcDbEntity
8
0
100
AcDbPolyline
90
4
70
1
43
0.0
10
166.72487373415294
20
57.224873734152936
10
161.47487373415294
20
62.474873734152929
42
0.99999999999999989
10
156.52512626584706
20
57.525126265847071
10
161.77512626584706
20
52.275126265847078
42
0.99999999999999989
0
LWPOLYLINE
5
135
100
AcDbEntity
8
0
100
AcDbPolyline
90
4
70
1
43
0.0
10
136.52512626584709
20
62.474873734152922
10
131.27512626584709
20
57.224873734152922
42
0.99999999999999989
10
136.22487373415291
20
52.275126265847085
10
141.47487373415291
20
57.525126265847078
42
0.99999999999999989
0
ENDSEC
0
SECTION
2
OBJECTS
0
DICTIONARY
5
C
100
AcDbDictionary
3
ACAD_GROUP
350
D
3
ACAD_MLINESTYLE
350
17
0
DICTIONARY
5
D
100
AcDbDictionary
0
DICTIONARY
5
1A
330
C
100
AcDbDictionary
0
DICTIONARY
5
17
100
AcDbDictionary
0
ENDSEC
0
EOF
