  0
SECTION
  2
BLOCKS
  0
ENDSEC
  0
SECTION
  2
ENTITIES
  0
LINE
  8
0
 10
65.0538
 20
-67.8388
 11
69.5538
 21
-67.3788
  0
LINE
  8
0
 10
69.5538
 20
-67.3788
 11
70.1556
 21
-67.2996
  0
LINE
  8
0
 10
70.1556
 20
-67.2996
 11
70.7163
 21
-67.0673
  0
LINE
  8
0
 10
70.7163
 20
-67.0673
 11
71.1978
 21
-66.6978
  0
LINE
  8
0
 10
71.1978
 20
-66.6978
 11
71.5673
 21
-66.2163
  0
LINE
  8
0
 10
71.5673
 20
-66.2163
 11
71.7996
 21
-65.6556
  0
LINE
  8
0
 10
71.7996
 20
-65.6556
 11
71.8788
 21
-65.0538
  0
LINE
  8
0
 10
71.8788
 20
-65.0538
 11
71.7996
 21
-64.4521
  0
LINE
  8
0
 10
71.7996
 20
-64.4521
 11
71.5673
 21
-63.8913
  0
LINE
  8
0
 10
71.5673
 20
-63.8913
 11
71.1978
 21
-63.4098
  0
LINE
  8
0
 10
71.1978
 20
-63.4098
 11
70.7163
 21
-63.0403
  0
LINE
  8
0
 10
70.7163
 20
-63.0403
 11
70.1556
 21
-62.808
  0
LINE
  8
0
 10
70.1556
 20
-62.808
 11
65.904
 21
-61.3808
  0
LINE
  8
0
 10
65.904
 20
-61.3808
 11
65.5456
 21
-61.2947
  0
LINE
  8
0
 10
65.5456
 20
-61.2947
 11
64.0539
 21
-60.772
  0
LINE
  8
0
 10
64.0539
 20
-60.772
 11
62.653
 21
-60.0851
  0
LINE
  8
0
 10
62.653
 20
-60.0851
 11
61.6441
 21
-59.3924
  0
LINE
  8
0
 10
61.6441
 20
-59.3924
 11
60.9652
 21
-58.7724
  0
LINE
  8
0
 10
60.9652
 20
-58.7724
 11
26.4008
 21
-23.2767
  0
LINE
  8
0
 10
26.4008
 20
-23.2767
 11
25.638
 21
-22.2862
  0
LINE
  8
0
 10
25.638
 20
-22.2862
 11
24.9765
 21
-21.1927
  0
LINE
  8
0
 10
24.9765
 20
-21.1927
 11
24.2219
 21
-19.5803
  0
LINE
  8
0
 10
24.2219
 20
-19.5803
 11
23.6169
 21
-17.8215
  0
LINE
  8
0
 10
23.6169
 20
-17.8215
 11
23.2901
 21
-16.3767
  0
LINE
  8
0
 10
23.2901
 20
-16.3767
 11
23.15
 21
-15.141
  0
LINE
  8
0
 10
23.15
 20
-15.141
 11
23.15
 21
-8.86444
  0
LINE
  8
0
 10
23.15
 20
-8.86444
 11
23.3557
 21
-7.4782
  0
LINE
  8
0
 10
23.3557
 20
-7.4782
 11
24.381
 21
-3.63799
  0
LINE
  8
0
 10
24.381
 20
-3.63799
 11
24.465
 21
-3
  0
LINE
  8
0
 10
24.465
 20
-3
 11
24.381
 21
-2.362
  0
LINE
  8
0
 10
24.381
 20
-2.362
 11
23.7504
 21
0
  0
LINE
  8
0
 10
23.7504
 20
0
 11
24.381
 21
2.362
  0
LINE
  8
0
 10
24.381
 20
2.362
 11
24.465
 21
3
  0
LINE
  8
0
 10
24.465
 20
3
 11
24.381
 21
3.63799
  0
LINE
  8
0
 10
24.381
 20
3.63799
 11
23.3557
 21
7.4782
  0
LINE
  8
0
 10
23.3557
 20
7.4782
 11
23.15
 21
8.86444
  0
LINE
  8
0
 10
23.15
 20
8.86444
 11
23.15
 21
15.141
  0
LINE
  8
0
 10
23.15
 20
15.141
 11
23.2901
 21
16.3767
  0
LINE
  8
0
 10
23.2901
 20
16.3767
 11
23.6169
 21
17.8215
  0
LINE
  8
0
 10
23.6169
 20
17.8215
 11
24.2219
 21
19.5803
  0
LINE
  8
0
 10
24.2219
 20
19.5803
 11
24.9765
 21
21.1927
  0
LINE
  8
0
 10
24.9765
 20
21.1927
 11
25.638
 21
22.2862
  0
LINE
  8
0
 10
25.638
 20
22.2862
 11
26.4008
 21
23.2767
  0
LINE
  8
0
 10
26.4008
 20
23.2767
 11
60.9652
 21
58.7724
  0
LINE
  8
0
 10
60.9652
 20
58.7724
 11
61.6441
 21
59.3924
  0
LINE
  8
0
 10
61.6441
 20
59.3924
 11
62.653
 21
60.0851
  0
LINE
  8
0
 10
62.653
 20
60.0851
 11
64.0539
 21
60.772
  0
LINE
  8
0
 10
64.0539
 20
60.772
 11
65.5456
 21
61.2947
  0
LINE
  8
0
 10
65.5456
 20
61.2947
 11
65.904
 21
61.3808
  0
LINE
  8
0
 10
65.904
 20
61.3808
 11
70.1556
 21
62.808
  0
LINE
  8
0
 10
70.1556
 20
62.808
 11
70.7163
 21
63.0403
  0
LINE
  8
0
 10
70.7163
 20
63.0403
 11
71.1978
 21
63.4098
  0
LINE
  8
0
 10
71.1978
 20
63.4098
 11
71.5673
 21
63.8913
  0
LINE
  8
0
 10
71.5673
 20
63.8913
 11
71.7996
 21
64.4521
  0
LINE
  8
0
 10
71.7996
 20
64.4521
 11
71.8788
 21
65.0538
  0
LINE
  8
0
 10
71.8788
 20
65.0538
 11
71.7996
 21
65.6556
  0
LINE
  8
0
 10
71.7996
 20
65.6556
 11
71.5673
 21
66.2163
  0
LINE
  8
0
 10
71.5673
 20
66.2163
 11
71.1978
 21
66.6978
  0
LINE
  8
0
 10
71.1978
 20
66.6978
 11
70.7163
 21
67.0673
  0
LINE
  8
0
 10
70.7163
 20
67.0673
 11
70.1556
 21
67.2996
  0
LINE
  8
0
 10
70.1556
 20
67.2996
 11
69.5538
 21
67.3788
  0
LINE
  8
0
 10
69.5538
 20
67.3788
 11
65.0538
 21
67.8388
  0
LINE
  8
0
 10
65.0538
 20
67.8388
 11
60.5538
 21
67.3788
  0
LINE
  8
0
 10
60.5538
 20
67.3788
 11
59.9521
 21
67.2996
  0
LINE
  8
0
 10
59.9521
 20
67.2996
 11
59.3913
 21
67.0673
  0
LINE
  8
0
 10
59.3913
 20
67.0673
 11
58.9098
 21
66.6978
  0
LINE
  8
0
 10
58.9098
 20
66.6978
 11
58.5403
 21
66.2163
  0
LINE
  8
0
 10
58.5403
 20
66.2163
 11
58.308
 21
65.6556
  0
LINE
  8
0
 10
58.308
 20
65.6556
 11
58.2288
 21
65.0538
  0
LINE
  8
0
 10
58.2288
 20
65.0538
 11
58.308
 21
64.4521
  0
LINE
  8
0
 10
58.308
 20
64.4521
 11
58.5403
 21
63.8913
  0
LINE
  8
0
 10
58.5403
 20
63.8913
 11
58.5408
 21
63.8903
  0
LINE
  8
0
 10
58.5408
 20
63.8903
 11
58.8713
 21
62.5452
  0
LINE
  8
0
 10
58.8713
 20
62.5452
 11
58.7903
 21
61.6355
  0
LINE
  8
0
 10
58.7903
 20
61.6355
 11
58.4767
 21
60.9229
  0
LINE
  8
0
 10
58.4767
 20
60.9229
 11
57.8488
 21
60.0658
  0
LINE
  8
0
 10
57.8488
 20
60.0658
 11
22.6777
 21
25.8174
  0
LINE
  8
0
 10
22.6777
 20
25.8174
 11
21.6441
 21
25.0767
  0
LINE
  8
0
 10
21.6441
 20
25.0767
 11
18.9833
 21
23.6844
  0
LINE
  8
0
 10
18.9833
 20
23.6844
 11
18.2862
 21
23.3692
  0
LINE
  8
0
 10
18.2862
 20
23.3692
 11
15.0068
 21
22.8597
  0
LINE
  8
0
 10
15.0068
 20
22.8597
 11
14.7608
 21
22.8256
  0
LINE
  8
0
 10
14.7608
 20
22.8256
 11
14.305
 21
22.6368
  0
LINE
  8
0
 10
14.305
 20
22.6368
 11
12.9158
 21
22.0273
  0
LINE
  8
0
 10
12.9158
 20
22.0273
 11
10.8605
 21
21.3379
  0
LINE
  8
0
 10
10.8605
 20
21.3379
 11
9.68422
 21
21.15
  0
LINE
  8
0
 10
9.68422
 20
21.15
 11
-9.68422
 21
21.15
  0
LINE
  8
0
 10
-9.68422
 20
21.15
 11
-10.8605
 21
21.3379
  0
LINE
  8
0
 10
-10.8605
 20
21.3379
 11
-12.9158
 21
22.0273
  0
LINE
  8
0
 10
-12.9158
 20
22.0273
 11
-14.305
 21
22.6368
  0
LINE
  8
0
 10
-14.305
 20
22.6368
 11
-14.7608
 21
22.8256
  0
LINE
  8
0
 10
-14.7608
 20
22.8256
 11
-15.0068
 21
22.8597
  0
LINE
  8
0
 10
-15.0068
 20
22.8597
 11
-18.2862
 21
23.3692
  0
LINE
  8
0
 10
-18.2862
 20
23.3692
 11
-18.9833
 21
23.6844
  0
LINE
  8
0
 10
-18.9833
 20
23.6844
 11
-21.6441
 21
25.0767
  0
LINE
  8
0
 10
-21.6441
 20
25.0767
 11
-22.6777
 21
25.8174
  0
LINE
  8
0
 10
-22.6777
 20
25.8174
 11
-57.8488
 21
60.0658
  0
LINE
  8
0
 10
-57.8488
 20
60.0658
 11
-58.4767
 21
60.9229
  0
LINE
  8
0
 10
-58.4767
 20
60.9229
 11
-58.7903
 21
61.6355
  0
LINE
  8
0
 10
-58.7903
 20
61.6355
 11
-58.8713
 21
62.5452
  0
LINE
  8
0
 10
-58.8713
 20
62.5452
 11
-58.5408
 21
63.8903
  0
LINE
  8
0
 10
-58.5408
 20
63.8903
 11
-58.5403
 21
63.8913
  0
LINE
  8
0
 10
-58.5403
 20
63.8913
 11
-58.308
 21
64.4521
  0
LINE
  8
0
 10
-58.308
 20
64.4521
 11
-58.2288
 21
65.0538
  0
LINE
  8
0
 10
-58.2288
 20
65.0538
 11
-58.308
 21
65.6556
  0
LINE
  8
0
 10
-58.308
 20
65.6556
 11
-58.5403
 21
66.2163
  0
LINE
  8
0
 10
-58.5403
 20
66.2163
 11
-58.9098
 21
66.6978
  0
LINE
  8
0
 10
-58.9098
 20
66.6978
 11
-59.3913
 21
67.0673
  0
LINE
  8
0
 10
-59.3913
 20
67.0673
 11
-59.9521
 21
67.2996
  0
LINE
  8
0
 10
-59.9521
 20
67.2996
 11
-60.5538
 21
67.3788
  0
LINE
  8
0
 10
-60.5538
 20
67.3788
 11
-65.0538
 21
67.8388
  0
LINE
  8
0
 10
-65.0538
 20
67.8388
 11
-69.5538
 21
67.3788
  0
LINE
  8
0
 10
-69.5538
 20
67.3788
 11
-70.1556
 21
67.2996
  0
LINE
  8
0
 10
-70.1556
 20
67.2996
 11
-70.7163
 21
67.0673
  0
LINE
  8
0
 10
-70.7163
 20
67.0673
 11
-71.1978
 21
66.6978
  0
LINE
  8
0
 10
-71.1978
 20
66.6978
 11
-71.5673
 21
66.2163
  0
LINE
  8
0
 10
-71.5673
 20
66.2163
 11
-71.7996
 21
65.6556
  0
LINE
  8
0
 10
-71.7996
 20
65.6556
 11
-71.8788
 21
65.0538
  0
LINE
  8
0
 10
-71.8788
 20
65.0538
 11
-71.7996
 21
64.4521
  0
LINE
  8
0
 10
-71.7996
 20
64.4521
 11
-71.5673
 21
63.8913
  0
LINE
  8
0
 10
-71.5673
 20
63.8913
 11
-71.1978
 21
63.4098
  0
LINE
  8
0
 10
-71.1978
 20
63.4098
 11
-70.7163
 21
63.0403
  0
LINE
  8
0
 10
-70.7163
 20
63.0403
 11
-70.1556
 21
62.808
  0
LINE
  8
0
 10
-70.1556
 20
62.808
 11
-65.904
 21
61.3808
  0
LINE
  8
0
 10
-65.904
 20
61.3808
 11
-65.5456
 21
61.2947
  0
LINE
  8
0
 10
-65.5456
 20
61.2947
 11
-64.0539
 21
60.772
  0
LINE
  8
0
 10
-64.0539
 20
60.772
 11
-62.653
 21
60.0851
  0
LINE
  8
0
 10
-62.653
 20
60.0851
 11
-61.6441
 21
59.3924
  0
LINE
  8
0
 10
-61.6441
 20
59.3924
 11
-60.9652
 21
58.7724
  0
LINE
  8
0
 10
-60.9652
 20
58.7724
 11
-26.4008
 21
23.2767
  0
LINE
  8
0
 10
-26.4008
 20
23.2767
 11
-25.638
 21
22.2862
  0
LINE
  8
0
 10
-25.638
 20
22.2862
 11
-24.9765
 21
21.1927
  0
LINE
  8
0
 10
-24.9765
 20
21.1927
 11
-24.2219
 21
19.5803
  0
LINE
  8
0
 10
-24.2219
 20
19.5803
 11
-23.6169
 21
17.8215
  0
LINE
  8
0
 10
-23.6169
 20
17.8215
 11
-23.2901
 21
16.3767
  0
LINE
  8
0
 10
-23.2901
 20
16.3767
 11
-23.15
 21
15.141
  0
LINE
  8
0
 10
-23.15
 20
15.141
 11
-23.15
 21
8.86444
  0
LINE
  8
0
 10
-23.15
 20
8.86444
 11
-23.3557
 21
7.4782
  0
LINE
  8
0
 10
-23.3557
 20
7.4782
 11
-24.381
 21
3.63799
  0
LINE
  8
0
 10
-24.381
 20
3.63799
 11
-24.465
 21
3
  0
LINE
  8
0
 10
-24.465
 20
3
 11
-24.381
 21
2.362
  0
LINE
  8
0
 10
-24.381
 20
2.362
 11
-23.7504
 21
0
  0
LINE
  8
0
 10
-23.7504
 20
0
 11
-24.381
 21
-2.362
  0
LINE
  8
0
 10
-24.381
 20
-2.362
 11
-24.465
 21
-3
  0
LINE
  8
0
 10
-24.465
 20
-3
 11
-24.381
 21
-3.63799
  0
LINE
  8
0
 10
-24.381
 20
-3.63799
 11
-23.3557
 21
-7.4782
  0
LINE
  8
0
 10
-23.3557
 20
-7.4782
 11
-23.15
 21
-8.86444
  0
LINE
  8
0
 10
-23.15
 20
-8.86444
 11
-23.15
 21
-15.141
  0
LINE
  8
0
 10
-23.15
 20
-15.141
 11
-23.2901
 21
-16.3767
  0
LINE
  8
0
 10
-23.2901
 20
-16.3767
 11
-23.6169
 21
-17.8215
  0
LINE
  8
0
 10
-23.6169
 20
-17.8215
 11
-24.2219
 21
-19.5803
  0
LINE
  8
0
 10
-24.2219
 20
-19.5803
 11
-24.9765
 21
-21.1927
  0
LINE
  8
0
 10
-24.9765
 20
-21.1927
 11
-25.638
 21
-22.2862
  0
LINE
  8
0
 10
-25.638
 20
-22.2862
 11
-26.4008
 21
-23.2767
  0
LINE
  8
0
 10
-26.4008
 20
-23.2767
 11
-60.9652
 21
-58.7724
  0
LINE
  8
0
 10
-60.9652
 20
-58.7724
 11
-61.6441
 21
-59.3924
  0
LINE
  8
0
 10
-61.6441
 20
-59.3924
 11
-62.653
 21
-60.0851
  0
LINE
  8
0
 10
-62.653
 20
-60.0851
 11
-64.0539
 21
-60.772
  0
LINE
  8
0
 10
-64.0539
 20
-60.772
 11
-65.5456
 21
-61.2947
  0
LINE
  8
0
 10
-65.5456
 20
-61.2947
 11
-65.904
 21
-61.3808
  0
LINE
  8
0
 10
-65.904
 20
-61.3808
 11
-70.1556
 21
-62.808
  0
LINE
  8
0
 10
-70.1556
 20
-62.808
 11
-70.7163
 21
-63.0403
  0
LINE
  8
0
 10
-70.7163
 20
-63.0403
 11
-71.1978
 21
-63.4098
  0
LINE
  8
0
 10
-71.1978
 20
-63.4098
 11
-71.5673
 21
-63.8913
  0
LINE
  8
0
 10
-71.5673
 20
-63.8913
 11
-71.7996
 21
-64.4521
  0
LINE
  8
0
 10
-71.7996
 20
-64.4521
 11
-71.8788
 21
-65.0538
  0
LINE
  8
0
 10
-71.8788
 20
-65.0538
 11
-71.7996
 21
-65.6556
  0
LINE
  8
0
 10
-71.7996
 20
-65.6556
 11
-71.5673
 21
-66.2163
  0
LINE
  8
0
 10
-71.5673
 20
-66.2163
 11
-71.1978
 21
-66.6978
  0
LINE
  8
0
 10
-71.1978
 20
-66.6978
 11
-70.7163
 21
-67.0673
  0
LINE
  8
0
 10
-70.7163
 20
-67.0673
 11
-70.1556
 21
-67.2996
  0
LINE
  8
0
 10
-70.1556
 20
-67.2996
 11
-69.5538
 21
-67.3788
  0
LINE
  8
0
 10
-69.5538
 20
-67.3788
 11
-65.0538
 21
-67.8388
  0
LINE
  8
0
 10
-65.0538
 20
-67.8388
 11
-60.5538
 21
-67.3788
  0
LINE
  8
0
 10
-60.5538
 20
-67.3788
 11
-59.9521
 21
-67.2996
  0
LINE
  8
0
 10
-59.9521
 20
-67.2996
 11
-59.3913
 21
-67.0673
  0
LINE
  8
0
 10
-59.3913
 20
-67.0673
 11
-58.9098
 21
-66.6978
  0
LINE
  8
0
 10
-58.9098
 20
-66.6978
 11
-58.5403
 21
-66.2163
  0
LINE
  8
0
 10
-58.5403
 20
-66.2163
 11
-58.308
 21
-65.6556
  0
LINE
  8
0
 10
-58.308
 20
-65.6556
 11
-58.2288
 21
-65.0538
  0
LINE
  8
0
 10
-58.2288
 20
-65.0538
 11
-58.308
 21
-64.4521
  0
LINE
  8
0
 10
-58.308
 20
-64.4521
 11
-58.5403
 21
-63.8913
  0
LINE
  8
0
 10
-58.5403
 20
-63.8913
 11
-58.5408
 21
-63.8903
  0
LINE
  8
0
 10
-58.5408
 20
-63.8903
 11
-58.8713
 21
-62.5452
  0
LINE
  8
0
 10
-58.8713
 20
-62.5452
 11
-58.7903
 21
-61.6355
  0
LINE
  8
0
 10
-58.7903
 20
-61.6355
 11
-58.4767
 21
-60.9229
  0
LINE
  8
0
 10
-58.4767
 20
-60.9229
 11
-57.8488
 21
-60.0658
  0
LINE
  8
0
 10
-57.8488
 20
-60.0658
 11
-22.6777
 21
-25.8174
  0
LINE
  8
0
 10
-22.6777
 20
-25.8174
 11
-21.6441
 21
-25.0767
  0
LINE
  8
0
 10
-21.6441
 20
-25.0767
 11
-18.9833
 21
-23.6844
  0
LINE
  8
0
 10
-18.9833
 20
-23.6844
 11
-18.2862
 21
-23.3692
  0
LINE
  8
0
 10
-18.2862
 20
-23.3692
 11
-15.0068
 21
-22.8597
  0
LINE
  8
0
 10
-15.0068
 20
-22.8597
 11
-14.7608
 21
-22.8256
  0
LINE
  8
0
 10
-14.7608
 20
-22.8256
 11
-14.305
 21
-22.6368
  0
LINE
  8
0
 10
-14.305
 20
-22.6368
 11
-12.9158
 21
-22.0273
  0
LINE
  8
0
 10
-12.9158
 20
-22.0273
 11
-10.8605
 21
-21.3379
  0
LINE
  8
0
 10
-10.8605
 20
-21.3379
 11
-9.68422
 21
-21.15
  0
LINE
  8
0
 10
-9.68422
 20
-21.15
 11
9.68422
 21
-21.15
  0
LINE
  8
0
 10
9.68422
 20
-21.15
 11
10.8605
 21
-21.3379
  0
LINE
  8
0
 10
10.8605
 20
-21.3379
 11
12.9158
 21
-22.0273
  0
LINE
  8
0
 10
12.9158
 20
-22.0273
 11
14.305
 21
-22.6368
  0
LINE
  8
0
 10
14.305
 20
-22.6368
 11
14.7608
 21
-22.8256
  0
LINE
  8
0
 10
14.7608
 20
-22.8256
 11
15.0068
 21
-22.8597
  0
LINE
  8
0
 10
15.0068
 20
-22.8597
 11
18.2862
 21
-23.3692
  0
LINE
  8
0
 10
18.2862
 20
-23.3692
 11
18.9833
 21
-23.6844
  0
LINE
  8
0
 10
18.9833
 20
-23.6844
 11
21.6441
 21
-25.0767
  0
LINE
  8
0
 10
21.6441
 20
-25.0767
 11
22.6777
 21
-25.8174
  0
LINE
  8
0
 10
22.6777
 20
-25.8174
 11
57.8488
 21
-60.0658
  0
LINE
  8
0
 10
57.8488
 20
-60.0658
 11
58.4767
 21
-60.9229
  0
LINE
  8
0
 10
58.4767
 20
-60.9229
 11
58.7903
 21
-61.6355
  0
LINE
  8
0
 10
58.7903
 20
-61.6355
 11
58.8713
 21
-62.5452
  0
LINE
  8
0
 10
58.8713
 20
-62.5452
 11
58.5408
 21
-63.8903
  0
LINE
  8
0
 10
58.5408
 20
-63.8903
 11
58.5403
 21
-63.8913
  0
LINE
  8
0
 10
58.5403
 20
-63.8913
 11
58.308
 21
-64.4521
  0
LINE
  8
0
 10
58.308
 20
-64.4521
 11
58.2288
 21
-65.0538
  0
LINE
  8
0
 10
58.2288
 20
-65.0538
 11
58.308
 21
-65.6556
  0
LINE
  8
0
 10
58.308
 20
-65.6556
 11
58.5403
 21
-66.2163
  0
LINE
  8
0
 10
58.5403
 20
-66.2163
 11
58.9098
 21
-66.6978
  0
LINE
  8
0
 10
58.9098
 20
-66.6978
 11
59.3913
 21
-67.0673
  0
LINE
  8
0
 10
59.3913
 20
-67.0673
 11
59.9521
 21
-67.2996
  0
LINE
  8
0
 10
59.9521
 20
-67.2996
 11
60.5538
 21
-67.3788
  0
LINE
  8
0
 10
60.5538
 20
-67.3788
 11
65.0538
 21
-67.8388
  0
LINE
  8
0
 10
-65.6232
 20
62.9288
 11
-66.1538
 21
63.1486
  0
LINE
  8
0
 10
-66.1538
 20
63.1486
 11
-66.6095
 21
63.4982
  0
LINE
  8
0
 10
-66.6095
 20
63.4982
 11
-66.9591
 21
63.9538
  0
LINE
  8
0
 10
-66.9591
 20
63.9538
 11
-67.1789
 21
64.4844
  0
LINE
  8
0
 10
-67.1789
 20
64.4844
 11
-67.2538
 21
65.0538
  0
LINE
  8
0
 10
-67.2538
 20
65.0538
 11
-67.1789
 21
65.6232
  0
LINE
  8
0
 10
-67.1789
 20
65.6232
 11
-66.9591
 21
66.1538
  0
LINE
  8
0
 10
-66.9591
 20
66.1538
 11
-66.6095
 21
66.6095
  0
LINE
  8
0
 10
-66.6095
 20
66.6095
 11
-66.1538
 21
66.9591
  0
LINE
  8
0
 10
-66.1538
 20
66.9591
 11
-65.6232
 21
67.1789
  0
LINE
  8
0
 10
-65.6232
 20
67.1789
 11
-65.0538
 21
67.2538
  0
LINE
  8
0
 10
-65.0538
 20
67.2538
 11
-64.4844
 21
67.1789
  0
LINE
  8
0
 10
-64.4844
 20
67.1789
 11
-63.9538
 21
66.9591
  0
LINE
  8
0
 10
-63.9538
 20
66.9591
 11
-63.4982
 21
66.6095
  0
LINE
  8
0
 10
-63.4982
 20
66.6095
 11
-63.1486
 21
66.1538
  0
LINE
  8
0
 10
-63.1486
 20
66.1538
 11
-62.9288
 21
65.6232
  0
LINE
  8
0
 10
-62.9288
 20
65.6232
 11
-62.8538
 21
65.0538
  0
LINE
  8
0
 10
-62.8538
 20
65.0538
 11
-62.9288
 21
64.4844
  0
LINE
  8
0
 10
-62.9288
 20
64.4844
 11
-63.1486
 21
63.9538
  0
LINE
  8
0
 10
-63.1486
 20
63.9538
 11
-63.4982
 21
63.4982
  0
LINE
  8
0
 10
-63.4982
 20
63.4982
 11
-63.9538
 21
63.1486
  0
LINE
  8
0
 10
-63.9538
 20
63.1486
 11
-64.4844
 21
62.9288
  0
LINE
  8
0
 10
-64.4844
 20
62.9288
 11
-65.0538
 21
62.8538
  0
LINE
  8
0
 10
-65.0538
 20
62.8538
 11
-65.6232
 21
62.9288
  0
LINE
  8
0
 10
64.4844
 20
62.9288
 11
63.9538
 21
63.1486
  0
LINE
  8
0
 10
63.9538
 20
63.1486
 11
63.4982
 21
63.4982
  0
LINE
  8
0
 10
63.4982
 20
63.4982
 11
63.1486
 21
63.9538
  0
LINE
  8
0
 10
63.1486
 20
63.9538
 11
62.9288
 21
64.4844
  0
LINE
  8
0
 10
62.9288
 20
64.4844
 11
62.8538
 21
65.0538
  0
LINE
  8
0
 10
62.8538
 20
65.0538
 11
62.9288
 21
65.6232
  0
LINE
  8
0
 10
62.9288
 20
65.6232
 11
63.1486
 21
66.1538
  0
LINE
  8
0
 10
63.1486
 20
66.1538
 11
63.4982
 21
66.6095
  0
LINE
  8
0
 10
63.4982
 20
66.6095
 11
63.9538
 21
66.9591
  0
LINE
  8
0
 10
63.9538
 20
66.9591
 11
64.4844
 21
67.1789
  0
LINE
  8
0
 10
64.4844
 20
67.1789
 11
65.0538
 21
67.2538
  0
LINE
  8
0
 10
65.0538
 20
67.2538
 11
65.6232
 21
67.1789
  0
LINE
  8
0
 10
65.6232
 20
67.1789
 11
66.1538
 21
66.9591
  0
LINE
  8
0
 10
66.1538
 20
66.9591
 11
66.6095
 21
66.6095
  0
LINE
  8
0
 10
66.6095
 20
66.6095
 11
66.9591
 21
66.1538
  0
LINE
  8
0
 10
66.9591
 20
66.1538
 11
67.1789
 21
65.6232
  0
LINE
  8
0
 10
67.1789
 20
65.6232
 11
67.2538
 21
65.0538
  0
LINE
  8
0
 10
67.2538
 20
65.0538
 11
67.1789
 21
64.4844
  0
LINE
  8
0
 10
67.1789
 20
64.4844
 11
66.9591
 21
63.9538
  0
LINE
  8
0
 10
66.9591
 20
63.9538
 11
66.6095
 21
63.4982
  0
LINE
  8
0
 10
66.6095
 20
63.4982
 11
66.1538
 21
63.1486
  0
LINE
  8
0
 10
66.1538
 20
63.1486
 11
65.6232
 21
62.9288
  0
LINE
  8
0
 10
65.6232
 20
62.9288
 11
65.0538
 21
62.8538
  0
LINE
  8
0
 10
65.0538
 20
62.8538
 11
64.4844
 21
62.9288
  0
LINE
  8
0
 10
-69.8644
 20
63.8947
 11
-70.1538
 21
64.0146
  0
LINE
  8
0
 10
-70.1538
 20
64.0146
 11
-70.4023
 21
64.2053
  0
LINE
  8
0
 10
-70.4023
 20
64.2053
 11
-70.593
 21
64.4538
  0
LINE
  8
0
 10
-70.593
 20
64.4538
 11
-70.7129
 21
64.7432
  0
LINE
  8
0
 10
-70.7129
 20
64.7432
 11
-70.7538
 21
65.0538
  0
LINE
  8
0
 10
-70.7538
 20
65.0538
 11
-70.7129
 21
65.3644
  0
LINE
  8
0
 10
-70.7129
 20
65.3644
 11
-70.593
 21
65.6538
  0
LINE
  8
0
 10
-70.593
 20
65.6538
 11
-70.4023
 21
65.9023
  0
LINE
  8
0
 10
-70.4023
 20
65.9023
 11
-70.1538
 21
66.093
  0
LINE
  8
0
 10
-70.1538
 20
66.093
 11
-69.8644
 21
66.2129
  0
LINE
  8
0
 10
-69.8644
 20
66.2129
 11
-69.5538
 21
66.2538
  0
LINE
  8
0
 10
-69.5538
 20
66.2538
 11
-69.2432
 21
66.2129
  0
LINE
  8
0
 10
-69.2432
 20
66.2129
 11
-68.9538
 21
66.093
  0
LINE
  8
0
 10
-68.9538
 20
66.093
 11
-68.7053
 21
65.9023
  0
LINE
  8
0
 10
-68.7053
 20
65.9023
 11
-68.5146
 21
65.6538
  0
LINE
  8
0
 10
-68.5146
 20
65.6538
 11
-68.3947
 21
65.3644
  0
LINE
  8
0
 10
-68.3947
 20
65.3644
 11
-68.3538
 21
65.0538
  0
LINE
  8
0
 10
-68.3538
 20
65.0538
 11
-68.3947
 21
64.7432
  0
LINE
  8
0
 10
-68.3947
 20
64.7432
 11
-68.5146
 21
64.4538
  0
LINE
  8
0
 10
-68.5146
 20
64.4538
 11
-68.7053
 21
64.2053
  0
LINE
  8
0
 10
-68.7053
 20
64.2053
 11
-68.9538
 21
64.0146
  0
LINE
  8
0
 10
-68.9538
 20
64.0146
 11
-69.2432
 21
63.8947
  0
LINE
  8
0
 10
-69.2432
 20
63.8947
 11
-69.5538
 21
63.8538
  0
LINE
  8
0
 10
-69.5538
 20
63.8538
 11
-69.8644
 21
63.8947
  0
LINE
  8
0
 10
69.2432
 20
63.8947
 11
68.9538
 21
64.0146
  0
LINE
  8
0
 10
68.9538
 20
64.0146
 11
68.7053
 21
64.2053
  0
LINE
  8
0
 10
68.7053
 20
64.2053
 11
68.5146
 21
64.4538
  0
LINE
  8
0
 10
68.5146
 20
64.4538
 11
68.3947
 21
64.7432
  0
LINE
  8
0
 10
68.3947
 20
64.7432
 11
68.3538
 21
65.0538
  0
LINE
  8
0
 10
68.3538
 20
65.0538
 11
68.3947
 21
65.3644
  0
LINE
  8
0
 10
68.3947
 20
65.3644
 11
68.5146
 21
65.6538
  0
LINE
  8
0
 10
68.5146
 20
65.6538
 11
68.7053
 21
65.9023
  0
LINE
  8
0
 10
68.7053
 20
65.9023
 11
68.9538
 21
66.093
  0
LINE
  8
0
 10
68.9538
 20
66.093
 11
69.2432
 21
66.2129
  0
LINE
  8
0
 10
69.2432
 20
66.2129
 11
69.5538
 21
66.2538
  0
LINE
  8
0
 10
69.5538
 20
66.2538
 11
69.8644
 21
66.2129
  0
LINE
  8
0
 10
69.8644
 20
66.2129
 11
70.1538
 21
66.093
  0
LINE
  8
0
 10
70.1538
 20
66.093
 11
70.4023
 21
65.9023
  0
LINE
  8
0
 10
70.4023
 20
65.9023
 11
70.593
 21
65.6538
  0
LINE
  8
0
 10
70.593
 20
65.6538
 11
70.7129
 21
65.3644
  0
LINE
  8
0
 10
70.7129
 20
65.3644
 11
70.7538
 21
65.0538
  0
LINE
  8
0
 10
70.7538
 20
65.0538
 11
70.7129
 21
64.7432
  0
LINE
  8
0
 10
70.7129
 20
64.7432
 11
70.593
 21
64.4538
  0
LINE
  8
0
 10
70.593
 20
64.4538
 11
70.4023
 21
64.2053
  0
LINE
  8
0
 10
70.4023
 20
64.2053
 11
70.1538
 21
64.0146
  0
LINE
  8
0
 10
70.1538
 20
64.0146
 11
69.8644
 21
63.8947
  0
LINE
  8
0
 10
69.8644
 20
63.8947
 11
69.5538
 21
63.8538
  0
LINE
  8
0
 10
69.5538
 20
63.8538
 11
69.2432
 21
63.8947
  0
LINE
  8
0
 10
60.2432
 20
63.8947
 11
59.9538
 21
64.0146
  0
LINE
  8
0
 10
59.9538
 20
64.0146
 11
59.7053
 21
64.2053
  0
LINE
  8
0
 10
59.7053
 20
64.2053
 11
59.5146
 21
64.4538
  0
LINE
  8
0
 10
59.5146
 20
64.4538
 11
59.3947
 21
64.7432
  0
LINE
  8
0
 10
59.3947
 20
64.7432
 11
59.3538
 21
65.0538
  0
LINE
  8
0
 10
59.3538
 20
65.0538
 11
59.3947
 21
65.3644
  0
LINE
  8
0
 10
59.3947
 20
65.3644
 11
59.5146
 21
65.6538
  0
LINE
  8
0
 10
59.5146
 20
65.6538
 11
59.7053
 21
65.9023
  0
LINE
  8
0
 10
59.7053
 20
65.9023
 11
59.9538
 21
66.093
  0
LINE
  8
0
 10
59.9538
 20
66.093
 11
60.2432
 21
66.2129
  0
LINE
  8
0
 10
60.2432
 20
66.2129
 11
60.5538
 21
66.2538
  0
LINE
  8
0
 10
60.5538
 20
66.2538
 11
60.8644
 21
66.2129
  0
LINE
  8
0
 10
60.8644
 20
66.2129
 11
61.1538
 21
66.093
  0
LINE
  8
0
 10
61.1538
 20
66.093
 11
61.4023
 21
65.9023
  0
LINE
  8
0
 10
61.4023
 20
65.9023
 11
61.593
 21
65.6538
  0
LINE
  8
0
 10
61.593
 20
65.6538
 11
61.7129
 21
65.3644
  0
LINE
  8
0
 10
61.7129
 20
65.3644
 11
61.7538
 21
65.0538
  0
LINE
  8
0
 10
61.7538
 20
65.0538
 11
61.7129
 21
64.7432
  0
LINE
  8
0
 10
61.7129
 20
64.7432
 11
61.593
 21
64.4538
  0
LINE
  8
0
 10
61.593
 20
64.4538
 11
61.4023
 21
64.2053
  0
LINE
  8
0
 10
61.4023
 20
64.2053
 11
61.1538
 21
64.0146
  0
LINE
  8
0
 10
61.1538
 20
64.0146
 11
60.8644
 21
63.8947
  0
LINE
  8
0
 10
60.8644
 20
63.8947
 11
60.5538
 21
63.8538
  0
LINE
  8
0
 10
60.5538
 20
63.8538
 11
60.2432
 21
63.8947
  0
LINE
  8
0
 10
-60.8644
 20
63.8947
 11
-61.1538
 21
64.0146
  0
LINE
  8
0
 10
-61.1538
 20
64.0146
 11
-61.4023
 21
64.2053
  0
LINE
  8
0
 10
-61.4023
 20
64.2053
 11
-61.593
 21
64.4538
  0
LINE
  8
0
 10
-61.593
 20
64.4538
 11
-61.7129
 21
64.7432
  0
LINE
  8
0
 10
-61.7129
 20
64.7432
 11
-61.7538
 21
65.0538
  0
LINE
  8
0
 10
-61.7538
 20
65.0538
 11
-61.7129
 21
65.3644
  0
LINE
  8
0
 10
-61.7129
 20
65.3644
 11
-61.593
 21
65.6538
  0
LINE
  8
0
 10
-61.593
 20
65.6538
 11
-61.4023
 21
65.9023
  0
LINE
  8
0
 10
-61.4023
 20
65.9023
 11
-61.1538
 21
66.093
  0
LINE
  8
0
 10
-61.1538
 20
66.093
 11
-60.8644
 21
66.2129
  0
LINE
  8
0
 10
-60.8644
 20
66.2129
 11
-60.5538
 21
66.2538
  0
LINE
  8
0
 10
-60.5538
 20
66.2538
 11
-60.2432
 21
66.2129
  0
LINE
  8
0
 10
-60.2432
 20
66.2129
 11
-59.9538
 21
66.093
  0
LINE
  8
0
 10
-59.9538
 20
66.093
 11
-59.7053
 21
65.9023
  0
LINE
  8
0
 10
-59.7053
 20
65.9023
 11
-59.5146
 21
65.6538
  0
LINE
  8
0
 10
-59.5146
 20
65.6538
 11
-59.3947
 21
65.3644
  0
LINE
  8
0
 10
-59.3947
 20
65.3644
 11
-59.3538
 21
65.0538
  0
LINE
  8
0
 10
-59.3538
 20
65.0538
 11
-59.3947
 21
64.7432
  0
LINE
  8
0
 10
-59.3947
 20
64.7432
 11
-59.5146
 21
64.4538
  0
LINE
  8
0
 10
-59.5146
 20
64.4538
 11
-59.7053
 21
64.2053
  0
LINE
  8
0
 10
-59.7053
 20
64.2053
 11
-59.9538
 21
64.0146
  0
LINE
  8
0
 10
-59.9538
 20
64.0146
 11
-60.2432
 21
63.8947
  0
LINE
  8
0
 10
-60.2432
 20
63.8947
 11
-60.5538
 21
63.8538
  0
LINE
  8
0
 10
-60.5538
 20
63.8538
 11
-60.8644
 21
63.8947
  0
LINE
  8
0
 10
14.9394
 20
18.8409
 11
14.65
 21
18.9608
  0
LINE
  8
0
 10
14.65
 20
18.9608
 11
14.4015
 21
19.1515
  0
LINE
  8
0
 10
14.4015
 20
19.1515
 11
14.2108
 21
19.4
  0
LINE
  8
0
 10
14.2108
 20
19.4
 11
14.0909
 21
19.6894
  0
LINE
  8
0
 10
14.0909
 20
19.6894
 11
14.05
 21
20
  0
LINE
  8
0
 10
14.05
 20
20
 11
14.0909
 21
20.3106
  0
LINE
  8
0
 10
14.0909
 20
20.3106
 11
14.2108
 21
20.6
  0
LINE
  8
0
 10
14.2108
 20
20.6
 11
14.4015
 21
20.8485
  0
LINE
  8
0
 10
14.4015
 20
20.8485
 11
14.65
 21
21.0392
  0
LINE
  8
0
 10
14.65
 20
21.0392
 11
14.9394
 21
21.1591
  0
LINE
  8
0
 10
14.9394
 20
21.1591
 11
15.25
 21
21.2
  0
LINE
  8
0
 10
15.25
 20
21.2
 11
15.5606
 21
21.1591
  0
LINE
  8
0
 10
15.5606
 20
21.1591
 11
15.85
 21
21.0392
  0
LINE
  8
0
 10
15.85
 20
21.0392
 11
16.0985
 21
20.8485
  0
LINE
  8
0
 10
16.0985
 20
20.8485
 11
16.2892
 21
20.6
  0
LINE
  8
0
 10
16.2892
 20
20.6
 11
16.4091
 21
20.3106
  0
LINE
  8
0
 10
16.4091
 20
20.3106
 11
16.45
 21
20
  0
LINE
  8
0
 10
16.45
 20
20
 11
16.4091
 21
19.6894
  0
LINE
  8
0
 10
16.4091
 20
19.6894
 11
16.2892
 21
19.4
  0
LINE
  8
0
 10
16.2892
 20
19.4
 11
16.0985
 21
19.1515
  0
LINE
  8
0
 10
16.0985
 20
19.1515
 11
15.85
 21
18.9608
  0
LINE
  8
0
 10
15.85
 20
18.9608
 11
15.5606
 21
18.8409
  0
LINE
  8
0
 10
15.5606
 20
18.8409
 11
15.25
 21
18.8
  0
LINE
  8
0
 10
15.25
 20
18.8
 11
14.9394
 21
18.8409
  0
LINE
  8
0
 10
-20.3106
 20
18.8409
 11
-20.6
 21
18.9608
  0
LINE
  8
0
 10
-20.6
 20
18.9608
 11
-20.8485
 21
19.1515
  0
LINE
  8
0
 10
-20.8485
 20
19.1515
 11
-21.0392
 21
19.4
  0
LINE
  8
0
 10
-21.0392
 20
19.4
 11
-21.1591
 21
19.6894
  0
LINE
  8
0
 10
-21.1591
 20
19.6894
 11
-21.2
 21
20
  0
LINE
  8
0
 10
-21.2
 20
20
 11
-21.1591
 21
20.3106
  0
LINE
  8
0
 10
-21.1591
 20
20.3106
 11
-21.0392
 21
20.6
  0
LINE
  8
0
 10
-21.0392
 20
20.6
 11
-20.8485
 21
20.8485
  0
LINE
  8
0
 10
-20.8485
 20
20.8485
 11
-20.6
 21
21.0392
  0
LINE
  8
0
 10
-20.6
 20
21.0392
 11
-20.3106
 21
21.1591
  0
LINE
  8
0
 10
-20.3106
 20
21.1591
 11
-20
 21
21.2
  0
LINE
  8
0
 10
-20
 20
21.2
 11
-19.6894
 21
21.1591
  0
LINE
  8
0
 10
-19.6894
 20
21.1591
 11
-19.4
 21
21.0392
  0
LINE
  8
0
 10
-19.4
 20
21.0392
 11
-19.1515
 21
20.8485
  0
LINE
  8
0
 10
-19.1515
 20
20.8485
 11
-18.9608
 21
20.6
  0
LINE
  8
0
 10
-18.9608
 20
20.6
 11
-18.8409
 21
20.3106
  0
LINE
  8
0
 10
-18.8409
 20
20.3106
 11
-18.8
 21
20
  0
LINE
  8
0
 10
-18.8
 20
20
 11
-18.8409
 21
19.6894
  0
LINE
  8
0
 10
-18.8409
 20
19.6894
 11
-18.9608
 21
19.4
  0
LINE
  8
0
 10
-18.9608
 20
19.4
 11
-19.1515
 21
19.1515
  0
LINE
  8
0
 10
-19.1515
 20
19.1515
 11
-19.4
 21
18.9608
  0
LINE
  8
0
 10
-19.4
 20
18.9608
 11
-19.6894
 21
18.8409
  0
LINE
  8
0
 10
-19.6894
 20
18.8409
 11
-20
 21
18.8
  0
LINE
  8
0
 10
-20
 20
18.8
 11
-20.3106
 21
18.8409
  0
LINE
  8
0
 10
19.6894
 20
18.8409
 11
19.4
 21
18.9608
  0
LINE
  8
0
 10
19.4
 20
18.9608
 11
19.1515
 21
19.1515
  0
LINE
  8
0
 10
19.1515
 20
19.1515
 11
18.9608
 21
19.4
  0
LINE
  8
0
 10
18.9608
 20
19.4
 11
18.8409
 21
19.6894
  0
LINE
  8
0
 10
18.8409
 20
19.6894
 11
18.8
 21
20
  0
LINE
  8
0
 10
18.8
 20
20
 11
18.8409
 21
20.3106
  0
LINE
  8
0
 10
18.8409
 20
20.3106
 11
18.9608
 21
20.6
  0
LINE
  8
0
 10
18.9608
 20
20.6
 11
19.1515
 21
20.8485
  0
LINE
  8
0
 10
19.1515
 20
20.8485
 11
19.4
 21
21.0392
  0
LINE
  8
0
 10
19.4
 20
21.0392
 11
19.6894
 21
21.1591
  0
LINE
  8
0
 10
19.6894
 20
21.1591
 11
20
 21
21.2
  0
LINE
  8
0
 10
20
 20
21.2
 11
20.3106
 21
21.1591
  0
LINE
  8
0
 10
20.3106
 20
21.1591
 11
20.6
 21
21.0392
  0
LINE
  8
0
 10
20.6
 20
21.0392
 11
20.8485
 21
20.8485
  0
LINE
  8
0
 10
20.8485
 20
20.8485
 11
21.0392
 21
20.6
  0
LINE
  8
0
 10
21.0392
 20
20.6
 11
21.1591
 21
20.3106
  0
LINE
  8
0
 10
21.1591
 20
20.3106
 11
21.2
 21
20
  0
LINE
  8
0
 10
21.2
 20
20
 11
21.1591
 21
19.6894
  0
LINE
  8
0
 10
21.1591
 20
19.6894
 11
21.0392
 21
19.4
  0
LINE
  8
0
 10
21.0392
 20
19.4
 11
20.8485
 21
19.1515
  0
LINE
  8
0
 10
20.8485
 20
19.1515
 11
20.6
 21
18.9608
  0
LINE
  8
0
 10
20.6
 20
18.9608
 11
20.3106
 21
18.8409
  0
LINE
  8
0
 10
20.3106
 20
18.8409
 11
20
 21
18.8
  0
LINE
  8
0
 10
20
 20
18.8
 11
19.6894
 21
18.8409
  0
LINE
  8
0
 10
-15.5606
 20
18.8409
 11
-15.85
 21
18.9608
  0
LINE
  8
0
 10
-15.85
 20
18.9608
 11
-16.0985
 21
19.1515
  0
LINE
  8
0
 10
-16.0985
 20
19.1515
 11
-16.2892
 21
19.4
  0
LINE
  8
0
 10
-16.2892
 20
19.4
 11
-16.4091
 21
19.6894
  0
LINE
  8
0
 10
-16.4091
 20
19.6894
 11
-16.45
 21
20
  0
LINE
  8
0
 10
-16.45
 20
20
 11
-16.4091
 21
20.3106
  0
LINE
  8
0
 10
-16.4091
 20
20.3106
 11
-16.2892
 21
20.6
  0
LINE
  8
0
 10
-16.2892
 20
20.6
 11
-16.0985
 21
20.8485
  0
LINE
  8
0
 10
-16.0985
 20
20.8485
 11
-15.85
 21
21.0392
  0
LINE
  8
0
 10
-15.85
 20
21.0392
 11
-15.5606
 21
21.1591
  0
LINE
  8
0
 10
-15.5606
 20
21.1591
 11
-15.25
 21
21.2
  0
LINE
  8
0
 10
-15.25
 20
21.2
 11
-14.9394
 21
21.1591
  0
LINE
  8
0
 10
-14.9394
 20
21.1591
 11
-14.65
 21
21.0392
  0
LINE
  8
0
 10
-14.65
 20
21.0392
 11
-14.4015
 21
20.8485
  0
LINE
  8
0
 10
-14.4015
 20
20.8485
 11
-14.2108
 21
20.6
  0
LINE
  8
0
 10
-14.2108
 20
20.6
 11
-14.0909
 21
20.3106
  0
LINE
  8
0
 10
-14.0909
 20
20.3106
 11
-14.05
 21
20
  0
LINE
  8
0
 10
-14.05
 20
20
 11
-14.0909
 21
19.6894
  0
LINE
  8
0
 10
-14.0909
 20
19.6894
 11
-14.2108
 21
19.4
  0
LINE
  8
0
 10
-14.2108
 20
19.4
 11
-14.4015
 21
19.1515
  0
LINE
  8
0
 10
-14.4015
 20
19.1515
 11
-14.65
 21
18.9608
  0
LINE
  8
0
 10
-14.65
 20
18.9608
 11
-14.9394
 21
18.8409
  0
LINE
  8
0
 10
-14.9394
 20
18.8409
 11
-15.25
 21
18.8
  0
LINE
  8
0
 10
-15.25
 20
18.8
 11
-15.5606
 21
18.8409
  0
LINE
  8
0
 10
-18.0606
 20
16.5909
 11
-18.35
 21
16.7108
  0
LINE
  8
0
 10
-18.35
 20
16.7108
 11
-18.5985
 21
16.9015
  0
LINE
  8
0
 10
-18.5985
 20
16.9015
 11
-18.7892
 21
17.15
  0
LINE
  8
0
 10
-18.7892
 20
17.15
 11
-18.9091
 21
17.4394
  0
LINE
  8
0
 10
-18.9091
 20
17.4394
 11
-18.95
 21
17.75
  0
LINE
  8
0
 10
-18.95
 20
17.75
 11
-18.9091
 21
18.0606
  0
LINE
  8
0
 10
-18.9091
 20
18.0606
 11
-18.7892
 21
18.35
  0
LINE
  8
0
 10
-18.7892
 20
18.35
 11
-18.5985
 21
18.5985
  0
LINE
  8
0
 10
-18.5985
 20
18.5985
 11
-18.35
 21
18.7892
  0
LINE
  8
0
 10
-18.35
 20
18.7892
 11
-18.0606
 21
18.9091
  0
LINE
  8
0
 10
-18.0606
 20
18.9091
 11
-17.75
 21
18.95
  0
LINE
  8
0
 10
-17.75
 20
18.95
 11
-17.4394
 21
18.9091
  0
LINE
  8
0
 10
-17.4394
 20
18.9091
 11
-17.15
 21
18.7892
  0
LINE
  8
0
 10
-17.15
 20
18.7892
 11
-16.9015
 21
18.5985
  0
LINE
  8
0
 10
-16.9015
 20
18.5985
 11
-16.7108
 21
18.35
  0
LINE
  8
0
 10
-16.7108
 20
18.35
 11
-16.5909
 21
18.0606
  0
LINE
  8
0
 10
-16.5909
 20
18.0606
 11
-16.55
 21
17.75
  0
LINE
  8
0
 10
-16.55
 20
17.75
 11
-16.5909
 21
17.4394
  0
LINE
  8
0
 10
-16.5909
 20
17.4394
 11
-16.7108
 21
17.15
  0
LINE
  8
0
 10
-16.7108
 20
17.15
 11
-16.9015
 21
16.9015
  0
LINE
  8
0
 10
-16.9015
 20
16.9015
 11
-17.15
 21
16.7108
  0
LINE
  8
0
 10
-17.15
 20
16.7108
 11
-17.4394
 21
16.5909
  0
LINE
  8
0
 10
-17.4394
 20
16.5909
 11
-17.75
 21
16.55
  0
LINE
  8
0
 10
-17.75
 20
16.55
 11
-18.0606
 21
16.5909
  0
LINE
  8
0
 10
17.4394
 20
16.5909
 11
17.15
 21
16.7108
  0
LINE
  8
0
 10
17.15
 20
16.7108
 11
16.9015
 21
16.9015
  0
LINE
  8
0
 10
16.9015
 20
16.9015
 11
16.7108
 21
17.15
  0
LINE
  8
0
 10
16.7108
 20
17.15
 11
16.5909
 21
17.4394
  0
LINE
  8
0
 10
16.5909
 20
17.4394
 11
16.55
 21
17.75
  0
LINE
  8
0
 10
16.55
 20
17.75
 11
16.5909
 21
18.0606
  0
LINE
  8
0
 10
16.5909
 20
18.0606
 11
16.7108
 21
18.35
  0
LINE
  8
0
 10
16.7108
 20
18.35
 11
16.9015
 21
18.5985
  0
LINE
  8
0
 10
16.9015
 20
18.5985
 11
17.15
 21
18.7892
  0
LINE
  8
0
 10
17.15
 20
18.7892
 11
17.4394
 21
18.9091
  0
LINE
  8
0
 10
17.4394
 20
18.9091
 11
17.75
 21
18.95
  0
LINE
  8
0
 10
17.75
 20
18.95
 11
18.0606
 21
18.9091
  0
LINE
  8
0
 10
18.0606
 20
18.9091
 11
18.35
 21
18.7892
  0
LINE
  8
0
 10
18.35
 20
18.7892
 11
18.5985
 21
18.5985
  0
LINE
  8
0
 10
18.5985
 20
18.5985
 11
18.7892
 21
18.35
  0
LINE
  8
0
 10
18.7892
 20
18.35
 11
18.9091
 21
18.0606
  0
LINE
  8
0
 10
18.9091
 20
18.0606
 11
18.95
 21
17.75
  0
LINE
  8
0
 10
18.95
 20
17.75
 11
18.9091
 21
17.4394
  0
LINE
  8
0
 10
18.9091
 20
17.4394
 11
18.7892
 21
17.15
  0
LINE
  8
0
 10
18.7892
 20
17.15
 11
18.5985
 21
16.9015
  0
LINE
  8
0
 10
18.5985
 20
16.9015
 11
18.35
 21
16.7108
  0
LINE
  8
0
 10
18.35
 20
16.7108
 11
18.0606
 21
16.5909
  0
LINE
  8
0
 10
18.0606
 20
16.5909
 11
17.75
 21
16.55
  0
LINE
  8
0
 10
17.75
 20
16.55
 11
17.4394
 21
16.5909
  0
LINE
  8
0
 10
-0.871033
 20
3.24399
 11
-1.74208
 21
3.61729
  0
LINE
  8
0
 10
-1.74208
 20
3.61729
 11
-2.61311
 21
4.23946
  0
LINE
  8
0
 10
-2.61311
 20
4.23946
 11
-3.04004
 21
4.66638
  0
LINE
  8
0
 10
-3.04004
 20
4.66638
 11
-3.87482
 21
5.79204
  0
LINE
  8
0
 10
-3.87482
 20
5.79204
 11
-5.86523
 21
9.2325
  0
LINE
  8
0
 10
-5.86523
 20
9.2325
 11
-6.25697
 21
9.74301
  0
LINE
  8
0
 10
-6.25697
 20
9.74301
 11
-11.6474
 21
16.1136
  0
LINE
  8
0
 10
-11.6474
 20
16.1136
 11
-12.1567
 21
16.9729
  0
LINE
  8
0
 10
-12.1567
 20
16.9729
 11
-12.3324
 21
17.5469
  0
LINE
  8
0
 10
-12.3324
 20
17.5469
 11
-12.2455
 21
18.0682
  0
LINE
  8
0
 10
-12.2455
 20
18.0682
 11
-11.8796
 21
18.4515
  0
LINE
  8
0
 10
-11.8796
 20
18.4515
 11
-11.3232
 21
18.674
  0
LINE
  8
0
 10
-11.3232
 20
18.674
 11
-10.2674
 21
18.85
  0
LINE
  8
0
 10
-10.2674
 20
18.85
 11
10.2674
 21
18.85
  0
LINE
  8
0
 10
10.2674
 20
18.85
 11
11.3232
 21
18.674
  0
LINE
  8
0
 10
11.3232
 20
18.674
 11
11.8796
 21
18.4515
  0
LINE
  8
0
 10
11.8796
 20
18.4515
 11
12.2455
 21
18.0682
  0
LINE
  8
0
 10
12.2455
 20
18.0682
 11
12.3324
 21
17.5469
  0
LINE
  8
0
 10
12.3324
 20
17.5469
 11
12.1567
 21
16.9729
  0
LINE
  8
0
 10
12.1567
 20
16.9729
 11
11.6474
 21
16.1136
  0
LINE
  8
0
 10
11.6474
 20
16.1136
 11
6.25697
 21
9.74301
  0
LINE
  8
0
 10
6.25697
 20
9.74301
 11
5.86523
 21
9.2325
  0
LINE
  8
0
 10
5.86523
 20
9.2325
 11
3.87482
 21
5.79204
  0
LINE
  8
0
 10
3.87482
 20
5.79204
 11
3.04004
 21
4.66638
  0
LINE
  8
0
 10
3.04004
 20
4.66638
 11
2.61311
 21
4.23946
  0
LINE
  8
0
 10
2.61311
 20
4.23946
 11
1.74208
 21
3.61729
  0
LINE
  8
0
 10
1.74208
 20
3.61729
 11
0.871033
 21
3.24399
  0
LINE
  8
0
 10
0.871033
 20
3.24399
 11
0
 21
3.11955
  0
LINE
  8
0
 10
0
 20
3.11955
 11
-0.871033
 21
3.24399
  0
LINE
  8
0
 10
-15.677
 20
13.6562
 11
-16.075
 21
13.821
  0
LINE
  8
0
 10
-16.075
 20
13.821
 11
-16.4167
 21
14.0833
  0
LINE
  8
0
 10
-16.4167
 20
14.0833
 11
-16.6789
 21
14.425
  0
LINE
  8
0
 10
-16.6789
 20
14.425
 11
-16.8438
 21
14.8229
  0
LINE
  8
0
 10
-16.8438
 20
14.8229
 11
-16.9
 21
15.25
  0
LINE
  8
0
 10
-16.9
 20
15.25
 11
-16.8438
 21
15.677
  0
LINE
  8
0
 10
-16.8438
 20
15.677
 11
-16.6789
 21
16.075
  0
LINE
  8
0
 10
-16.6789
 20
16.075
 11
-16.4167
 21
16.4167
  0
LINE
  8
0
 10
-16.4167
 20
16.4167
 11
-16.075
 21
16.6789
  0
LINE
  8
0
 10
-16.075
 20
16.6789
 11
-15.677
 21
16.8438
  0
LINE
  8
0
 10
-15.677
 20
16.8438
 11
-15.25
 21
16.9
  0
LINE
  8
0
 10
-15.25
 20
16.9
 11
-14.8229
 21
16.8438
  0
LINE
  8
0
 10
-14.8229
 20
16.8438
 11
-14.425
 21
16.6789
  0
LINE
  8
0
 10
-14.425
 20
16.6789
 11
-14.0833
 21
16.4167
  0
LINE
  8
0
 10
-14.0833
 20
16.4167
 11
-13.821
 21
16.075
  0
LINE
  8
0
 10
-13.821
 20
16.075
 11
-13.6562
 21
15.677
  0
LINE
  8
0
 10
-13.6562
 20
15.677
 11
-13.6
 21
15.25
  0
LINE
  8
0
 10
-13.6
 20
15.25
 11
-13.6562
 21
14.8229
  0
LINE
  8
0
 10
-13.6562
 20
14.8229
 11
-13.821
 21
14.425
  0
LINE
  8
0
 10
-13.821
 20
14.425
 11
-14.0833
 21
14.0833
  0
LINE
  8
0
 10
-14.0833
 20
14.0833
 11
-14.425
 21
13.821
  0
LINE
  8
0
 10
-14.425
 20
13.821
 11
-14.8229
 21
13.6562
  0
LINE
  8
0
 10
-14.8229
 20
13.6562
 11
-15.25
 21
13.6
  0
LINE
  8
0
 10
-15.25
 20
13.6
 11
-15.677
 21
13.6562
  0
LINE
  8
0
 10
14.8229
 20
13.6562
 11
14.425
 21
13.821
  0
LINE
  8
0
 10
14.425
 20
13.821
 11
14.0833
 21
14.0833
  0
LINE
  8
0
 10
14.0833
 20
14.0833
 11
13.821
 21
14.425
  0
LINE
  8
0
 10
13.821
 20
14.425
 11
13.6562
 21
14.8229
  0
LINE
  8
0
 10
13.6562
 20
14.8229
 11
13.6
 21
15.25
  0
LINE
  8
0
 10
13.6
 20
15.25
 11
13.6562
 21
15.677
  0
LINE
  8
0
 10
13.6562
 20
15.677
 11
13.821
 21
16.075
  0
LINE
  8
0
 10
13.821
 20
16.075
 11
14.0833
 21
16.4167
  0
LINE
  8
0
 10
14.0833
 20
16.4167
 11
14.425
 21
16.6789
  0
LINE
  8
0
 10
14.425
 20
16.6789
 11
14.8229
 21
16.8438
  0
LINE
  8
0
 10
14.8229
 20
16.8438
 11
15.25
 21
16.9
  0
LINE
  8
0
 10
15.25
 20
16.9
 11
15.677
 21
16.8438
  0
LINE
  8
0
 10
15.677
 20
16.8438
 11
16.075
 21
16.6789
  0
LINE
  8
0
 10
16.075
 20
16.6789
 11
16.4167
 21
16.4167
  0
LINE
  8
0
 10
16.4167
 20
16.4167
 11
16.6789
 21
16.075
  0
LINE
  8
0
 10
16.6789
 20
16.075
 11
16.8438
 21
15.677
  0
LINE
  8
0
 10
16.8438
 20
15.677
 11
16.9
 21
15.25
  0
LINE
  8
0
 10
16.9
 20
15.25
 11
16.8438
 21
14.8229
  0
LINE
  8
0
 10
16.8438
 20
14.8229
 11
16.6789
 21
14.425
  0
LINE
  8
0
 10
16.6789
 20
14.425
 11
16.4167
 21
14.0833
  0
LINE
  8
0
 10
16.4167
 20
14.0833
 11
16.075
 21
13.821
  0
LINE
  8
0
 10
16.075
 20
13.821
 11
15.677
 21
13.6562
  0
LINE
  8
0
 10
15.677
 20
13.6562
 11
15.25
 21
13.6
  0
LINE
  8
0
 10
15.25
 20
13.6
 11
14.8229
 21
13.6562
  0
LINE
  8
0
 10
19.28
 20
-15.1735
 11
18.4777
 21
-14.5228
  0
LINE
  8
0
 10
18.4777
 20
-14.5228
 11
17.3112
 21
-13.1888
  0
LINE
  8
0
 10
17.3112
 20
-13.1888
 11
9.74301
 21
-6.25697
  0
LINE
  8
0
 10
9.74301
 20
-6.25697
 11
9.2325
 21
-5.86523
  0
LINE
  8
0
 10
9.2325
 20
-5.86523
 11
5.79204
 21
-3.87482
  0
LINE
  8
0
 10
5.79204
 20
-3.87482
 11
4.66638
 21
-3.04004
  0
LINE
  8
0
 10
4.66638
 20
-3.04004
 11
4.23946
 21
-2.61311
  0
LINE
  8
0
 10
4.23946
 20
-2.61311
 11
3.61729
 21
-1.74208
  0
LINE
  8
0
 10
3.61729
 20
-1.74208
 11
3.24399
 21
-0.871033
  0
LINE
  8
0
 10
3.24399
 20
-0.871033
 11
3.11955
 21
0
  0
LINE
  8
0
 10
3.11955
 20
0
 11
3.24399
 21
0.871033
  0
LINE
  8
0
 10
3.24399
 20
0.871033
 11
3.61729
 21
1.74208
  0
LINE
  8
0
 10
3.61729
 20
1.74208
 11
4.23946
 21
2.61311
  0
LINE
  8
0
 10
4.23946
 20
2.61311
 11
4.66638
 21
3.04004
  0
LINE
  8
0
 10
4.66638
 20
3.04004
 11
5.79204
 21
3.87482
  0
LINE
  8
0
 10
5.79204
 20
3.87482
 11
9.2325
 21
5.86523
  0
LINE
  8
0
 10
9.2325
 20
5.86523
 11
9.74301
 21
6.25697
  0
LINE
  8
0
 10
9.74301
 20
6.25697
 11
17.3112
 21
13.1888
  0
LINE
  8
0
 10
17.3112
 20
13.1888
 11
18.4777
 21
14.5228
  0
LINE
  8
0
 10
18.4777
 20
14.5228
 11
19.28
 21
15.1735
  0
LINE
  8
0
 10
19.28
 20
15.1735
 11
19.774
 21
15.4146
  0
LINE
  8
0
 10
19.774
 20
15.4146
 11
20.1345
 21
15.4057
  0
LINE
  8
0
 10
20.1345
 20
15.4057
 11
20.4685
 21
15.1099
  0
LINE
  8
0
 10
20.4685
 20
15.1099
 11
20.674
 21
14.5961
  0
LINE
  8
0
 10
20.674
 20
14.5961
 11
20.85
 21
13.5402
  0
LINE
  8
0
 10
20.85
 20
13.5402
 11
20.85
 21
8.86444
  0
LINE
  8
0
 10
20.85
 20
8.86444
 11
20.6443
 21
7.4782
  0
LINE
  8
0
 10
20.6443
 20
7.4782
 11
19.619
 21
3.63799
  0
LINE
  8
0
 10
19.619
 20
3.63799
 11
19.535
 21
3
  0
LINE
  8
0
 10
19.535
 20
3
 11
19.619
 21
2.362
  0
LINE
  8
0
 10
19.619
 20
2.362
 11
20.2496
 21
0
  0
LINE
  8
0
 10
20.2496
 20
0
 11
19.619
 21
-2.362
  0
LINE
  8
0
 10
19.619
 20
-2.362
 11
19.535
 21
-3
  0
LINE
  8
0
 10
19.535
 20
-3
 11
19.619
 21
-3.63799
  0
LINE
  8
0
 10
19.619
 20
-3.63799
 11
20.6443
 21
-7.4782
  0
LINE
  8
0
 10
20.6443
 20
-7.4782
 11
20.85
 21
-8.86444
  0
LINE
  8
0
 10
20.85
 20
-8.86444
 11
20.85
 21
-13.5402
  0
LINE
  8
0
 10
20.85
 20
-13.5402
 11
20.674
 21
-14.5961
  0
LINE
  8
0
 10
20.674
 20
-14.5961
 11
20.4685
 21
-15.1099
  0
LINE
  8
0
 10
20.4685
 20
-15.1099
 11
20.1345
 21
-15.4057
  0
LINE
  8
0
 10
20.1345
 20
-15.4057
 11
19.774
 21
-15.4146
  0
LINE
  8
0
 10
19.774
 20
-15.4146
 11
19.28
 21
-15.1735
  0
LINE
  8
0
 10
-20.1345
 20
-15.4057
 11
-20.4685
 21
-15.1099
  0
LINE
  8
0
 10
-20.4685
 20
-15.1099
 11
-20.674
 21
-14.5961
  0
LINE
  8
0
 10
-20.674
 20
-14.5961
 11
-20.85
 21
-13.5402
  0
LINE
  8
0
 10
-20.85
 20
-13.5402
 11
-20.85
 21
-8.86444
  0
LINE
  8
0
 10
-20.85
 20
-8.86444
 11
-20.6443
 21
-7.4782
  0
LINE
  8
0
 10
-20.6443
 20
-7.4782
 11
-19.619
 21
-3.63799
  0
LINE
  8
0
 10
-19.619
 20
-3.63799
 11
-19.535
 21
-3
  0
LINE
  8
0
 10
-19.535
 20
-3
 11
-19.619
 21
-2.362
  0
LINE
  8
0
 10
-19.619
 20
-2.362
 11
-20.2496
 21
0
  0
LINE
  8
0
 10
-20.2496
 20
0
 11
-19.619
 21
2.362
  0
LINE
  8
0
 10
-19.619
 20
2.362
 11
-19.535
 21
3
  0
LINE
  8
0
 10
-19.535
 20
3
 11
-19.619
 21
3.63799
  0
LINE
  8
0
 10
-19.619
 20
3.63799
 11
-20.6443
 21
7.4782
  0
LINE
  8
0
 10
-20.6443
 20
7.4782
 11
-20.85
 21
8.86444
  0
LINE
  8
0
 10
-20.85
 20
8.86444
 11
-20.85
 21
13.5402
  0
LINE
  8
0
 10
-20.85
 20
13.5402
 11
-20.674
 21
14.5961
  0
LINE
  8
0
 10
-20.674
 20
14.5961
 11
-20.4685
 21
15.1099
  0
LINE
  8
0
 10
-20.4685
 20
15.1099
 11
-20.1345
 21
15.4057
  0
LINE
  8
0
 10
-20.1345
 20
15.4057
 11
-19.774
 21
15.4146
  0
LINE
  8
0
 10
-19.774
 20
15.4146
 11
-19.28
 21
15.1735
  0
LINE
  8
0
 10
-19.28
 20
15.1735
 11
-18.4777
 21
14.5228
  0
LINE
  8
0
 10
-18.4777
 20
14.5228
 11
-17.3112
 21
13.1888
  0
LINE
  8
0
 10
-17.3112
 20
13.1888
 11
-9.74301
 21
6.25697
  0
LINE
  8
0
 10
-9.74301
 20
6.25697
 11
-9.2325
 21
5.86523
  0
LINE
  8
0
 10
-9.2325
 20
5.86523
 11
-5.79204
 21
3.87482
  0
LINE
  8
0
 10
-5.79204
 20
3.87482
 11
-4.66638
 21
3.04004
  0
LINE
  8
0
 10
-4.66638
 20
3.04004
 11
-4.23946
 21
2.61311
  0
LINE
  8
0
 10
-4.23946
 20
2.61311
 11
-3.61729
 21
1.74208
  0
LINE
  8
0
 10
-3.61729
 20
1.74208
 11
-3.24399
 21
0.871033
  0
LINE
  8
0
 10
-3.24399
 20
0.871033
 11
-3.11955
 21
0
  0
LINE
  8
0
 10
-3.11955
 20
0
 11
-3.24399
 21
-0.871033
  0
LINE
  8
0
 10
-3.24399
 20
-0.871033
 11
-3.61729
 21
-1.74208
  0
LINE
  8
0
 10
-3.61729
 20
-1.74208
 11
-4.23946
 21
-2.61311
  0
LINE
  8
0
 10
-4.23946
 20
-2.61311
 11
-4.66638
 21
-3.04004
  0
LINE
  8
0
 10
-4.66638
 20
-3.04004
 11
-5.79204
 21
-3.87482
  0
LINE
  8
0
 10
-5.79204
 20
-3.87482
 11
-9.2325
 21
-5.86523
  0
LINE
  8
0
 10
-9.2325
 20
-5.86523
 11
-9.74301
 21
-6.25697
  0
LINE
  8
0
 10
-9.74301
 20
-6.25697
 11
-17.3112
 21
-13.1888
  0
LINE
  8
0
 10
-17.3112
 20
-13.1888
 11
-18.4777
 21
-14.5228
  0
LINE
  8
0
 10
-18.4777
 20
-14.5228
 11
-19.28
 21
-15.1735
  0
LINE
  8
0
 10
-19.28
 20
-15.1735
 11
-19.774
 21
-15.4146
  0
LINE
  8
0
 10
-19.774
 20
-15.4146
 11
-20.1345
 21
-15.4057
  0
LINE
  8
0
 10
12.6894
 20
11.8409
 11
12.4
 21
11.9608
  0
LINE
  8
0
 10
12.4
 20
11.9608
 11
12.1515
 21
12.1515
  0
LINE
  8
0
 10
12.1515
 20
12.1515
 11
11.9608
 21
12.4
  0
LINE
  8
0
 10
11.9608
 20
12.4
 11
11.8409
 21
12.6894
  0
LINE
  8
0
 10
11.8409
 20
12.6894
 11
11.8
 21
13
  0
LINE
  8
0
 10
11.8
 20
13
 11
11.8409
 21
13.3106
  0
LINE
  8
0
 10
11.8409
 20
13.3106
 11
11.9608
 21
13.6
  0
LINE
  8
0
 10
11.9608
 20
13.6
 11
12.1515
 21
13.8485
  0
LINE
  8
0
 10
12.1515
 20
13.8485
 11
12.4
 21
14.0392
  0
LINE
  8
0
 10
12.4
 20
14.0392
 11
12.6894
 21
14.1591
  0
LINE
  8
0
 10
12.6894
 20
14.1591
 11
13
 21
14.2
  0
LINE
  8
0
 10
13
 20
14.2
 11
13.3106
 21
14.1591
  0
LINE
  8
0
 10
13.3106
 20
14.1591
 11
13.6
 21
14.0392
  0
LINE
  8
0
 10
13.6
 20
14.0392
 11
13.8485
 21
13.8485
  0
LINE
  8
0
 10
13.8485
 20
13.8485
 11
14.0392
 21
13.6
  0
LINE
  8
0
 10
14.0392
 20
13.6
 11
14.1591
 21
13.3106
  0
LINE
  8
0
 10
14.1591
 20
13.3106
 11
14.2
 21
13
  0
LINE
  8
0
 10
14.2
 20
13
 11
14.1591
 21
12.6894
  0
LINE
  8
0
 10
14.1591
 20
12.6894
 11
14.0392
 21
12.4
  0
LINE
  8
0
 10
14.0392
 20
12.4
 11
13.8485
 21
12.1515
  0
LINE
  8
0
 10
13.8485
 20
12.1515
 11
13.6
 21
11.9608
  0
LINE
  8
0
 10
13.6
 20
11.9608
 11
13.3106
 21
11.8409
  0
LINE
  8
0
 10
13.3106
 20
11.8409
 11
13
 21
11.8
  0
LINE
  8
0
 10
13
 20
11.8
 11
12.6894
 21
11.8409
  0
LINE
  8
0
 10
-13.3106
 20
11.8409
 11
-13.6
 21
11.9608
  0
LINE
  8
0
 10
-13.6
 20
11.9608
 11
-13.8485
 21
12.1515
  0
LINE
  8
0
 10
-13.8485
 20
12.1515
 11
-14.0392
 21
12.4
  0
LINE
  8
0
 10
-14.0392
 20
12.4
 11
-14.1591
 21
12.6894
  0
LINE
  8
0
 10
-14.1591
 20
12.6894
 11
-14.2
 21
13
  0
LINE
  8
0
 10
-14.2
 20
13
 11
-14.1591
 21
13.3106
  0
LINE
  8
0
 10
-14.1591
 20
13.3106
 11
-14.0392
 21
13.6
  0
LINE
  8
0
 10
-14.0392
 20
13.6
 11
-13.8485
 21
13.8485
  0
LINE
  8
0
 10
-13.8485
 20
13.8485
 11
-13.6
 21
14.0392
  0
LINE
  8
0
 10
-13.6
 20
14.0392
 11
-13.3106
 21
14.1591
  0
LINE
  8
0
 10
-13.3106
 20
14.1591
 11
-13
 21
14.2
  0
LINE
  8
0
 10
-13
 20
14.2
 11
-12.6894
 21
14.1591
  0
LINE
  8
0
 10
-12.6894
 20
14.1591
 11
-12.4
 21
14.0392
  0
LINE
  8
0
 10
-12.4
 20
14.0392
 11
-12.1515
 21
13.8485
  0
LINE
  8
0
 10
-12.1515
 20
13.8485
 11
-11.9608
 21
13.6
  0
LINE
  8
0
 10
-11.9608
 20
13.6
 11
-11.8409
 21
13.3106
  0
LINE
  8
0
 10
-11.8409
 20
13.3106
 11
-11.8
 21
13
  0
LINE
  8
0
 10
-11.8
 20
13
 11
-11.8409
 21
12.6894
  0
LINE
  8
0
 10
-11.8409
 20
12.6894
 11
-11.9608
 21
12.4
  0
LINE
  8
0
 10
-11.9608
 20
12.4
 11
-12.1515
 21
12.1515
  0
LINE
  8
0
 10
-12.1515
 20
12.1515
 11
-12.4
 21
11.9608
  0
LINE
  8
0
 10
-12.4
 20
11.9608
 11
-12.6894
 21
11.8409
  0
LINE
  8
0
 10
-12.6894
 20
11.8409
 11
-13
 21
11.8
  0
LINE
  8
0
 10
-13
 20
11.8
 11
-13.3106
 21
11.8409
  0
LINE
  8
0
 10
9.68941
 20
8.84088
 11
9.39999
 21
8.96075
  0
LINE
  8
0
 10
9.39999
 20
8.96075
 11
9.15146
 21
9.15146
  0
LINE
  8
0
 10
9.15146
 20
9.15146
 11
8.96075
 21
9.39999
  0
LINE
  8
0
 10
8.96075
 20
9.39999
 11
8.84088
 21
9.68941
  0
LINE
  8
0
 10
8.84088
 20
9.68941
 11
8.79999
 21
10
  0
LINE
  8
0
 10
8.79999
 20
10
 11
8.84088
 21
10.3106
  0
LINE
  8
0
 10
8.84088
 20
10.3106
 11
8.96075
 21
10.6
  0
LINE
  8
0
 10
8.96075
 20
10.6
 11
9.15146
 21
10.8485
  0
LINE
  8
0
 10
9.15146
 20
10.8485
 11
9.39999
 21
11.0392
  0
LINE
  8
0
 10
9.39999
 20
11.0392
 11
9.68941
 21
11.1591
  0
LINE
  8
0
 10
9.68941
 20
11.1591
 11
10
 21
11.2
  0
LINE
  8
0
 10
10
 20
11.2
 11
10.3106
 21
11.1591
  0
LINE
  8
0
 10
10.3106
 20
11.1591
 11
10.6
 21
11.0392
  0
LINE
  8
0
 10
10.6
 20
11.0392
 11
10.8485
 21
10.8485
  0
LINE
  8
0
 10
10.8485
 20
10.8485
 11
11.0392
 21
10.6
  0
LINE
  8
0
 10
11.0392
 20
10.6
 11
11.1591
 21
10.3106
  0
LINE
  8
0
 10
11.1591
 20
10.3106
 11
11.2
 21
10
  0
LINE
  8
0
 10
11.2
 20
10
 11
11.1591
 21
9.68941
  0
LINE
  8
0
 10
11.1591
 20
9.68941
 11
11.0392
 21
9.39999
  0
LINE
  8
0
 10
11.0392
 20
9.39999
 11
10.8485
 21
9.15146
  0
LINE
  8
0
 10
10.8485
 20
9.15146
 11
10.6
 21
8.96075
  0
LINE
  8
0
 10
10.6
 20
8.96075
 11
10.3106
 21
8.84088
  0
LINE
  8
0
 10
10.3106
 20
8.84088
 11
10
 21
8.79999
  0
LINE
  8
0
 10
10
 20
8.79999
 11
9.68941
 21
8.84088
  0
LINE
  8
0
 10
-10.3106
 20
8.84088
 11
-10.6
 21
8.96075
  0
LINE
  8
0
 10
-10.6
 20
8.96075
 11
-10.8485
 21
9.15146
  0
LINE
  8
0
 10
-10.8485
 20
9.15146
 11
-11.0392
 21
9.39999
  0
LINE
  8
0
 10
-11.0392
 20
9.39999
 11
-11.1591
 21
9.68941
  0
LINE
  8
0
 10
-11.1591
 20
9.68941
 11
-11.2
 21
10
  0
LINE
  8
0
 10
-11.2
 20
10
 11
-11.1591
 21
10.3106
  0
LINE
  8
0
 10
-11.1591
 20
10.3106
 11
-11.0392
 21
10.6
  0
LINE
  8
0
 10
-11.0392
 20
10.6
 11
-10.8485
 21
10.8485
  0
LINE
  8
0
 10
-10.8485
 20
10.8485
 11
-10.6
 21
11.0392
  0
LINE
  8
0
 10
-10.6
 20
11.0392
 11
-10.3106
 21
11.1591
  0
LINE
  8
0
 10
-10.3106
 20
11.1591
 11
-10
 21
11.2
  0
LINE
  8
0
 10
-10
 20
11.2
 11
-9.68941
 21
11.1591
  0
LINE
  8
0
 10
-9.68941
 20
11.1591
 11
-9.39999
 21
11.0392
  0
LINE
  8
0
 10
-9.39999
 20
11.0392
 11
-9.15146
 21
10.8485
  0
LINE
  8
0
 10
-9.15146
 20
10.8485
 11
-8.96075
 21
10.6
  0
LINE
  8
0
 10
-8.96075
 20
10.6
 11
-8.84088
 21
10.3106
  0
LINE
  8
0
 10
-8.84088
 20
10.3106
 11
-8.79999
 21
10
  0
LINE
  8
0
 10
-8.79999
 20
10
 11
-8.84088
 21
9.68941
  0
LINE
  8
0
 10
-8.84088
 20
9.68941
 11
-8.96075
 21
9.39999
  0
LINE
  8
0
 10
-8.96075
 20
9.39999
 11
-9.15146
 21
9.15146
  0
LINE
  8
0
 10
-9.15146
 20
9.15146
 11
-9.39999
 21
8.96075
  0
LINE
  8
0
 10
-9.39999
 20
8.96075
 11
-9.68941
 21
8.84088
  0
LINE
  8
0
 10
-9.68941
 20
8.84088
 11
-10
 21
8.79999
  0
LINE
  8
0
 10
-10
 20
8.79999
 11
-10.3106
 21
8.84088
  0
LINE
  8
0
 10
7.68941
 20
6.84088
 11
7.39999
 21
6.96075
  0
LINE
  8
0
 10
7.39999
 20
6.96075
 11
7.15146
 21
7.15146
  0
LINE
  8
0
 10
7.15146
 20
7.15146
 11
6.96075
 21
7.39999
  0
LINE
  8
0
 10
6.96075
 20
7.39999
 11
6.84088
 21
7.68941
  0
LINE
  8
0
 10
6.84088
 20
7.68941
 11
6.79999
 21
8
  0
LINE
  8
0
 10
6.79999
 20
8
 11
6.84088
 21
8.31058
  0
LINE
  8
0
 10
6.84088
 20
8.31058
 11
6.96075
 21
8.59999
  0
LINE
  8
0
 10
6.96075
 20
8.59999
 11
7.15146
 21
8.84853
  0
LINE
  8
0
 10
7.15146
 20
8.84853
 11
7.39999
 21
9.03923
  0
LINE
  8
0
 10
7.39999
 20
9.03923
 11
7.68941
 21
9.1591
  0
LINE
  8
0
 10
7.68941
 20
9.1591
 11
8
 21
9.2
  0
LINE
  8
0
 10
8
 20
9.2
 11
8.31058
 21
9.1591
  0
LINE
  8
0
 10
8.31058
 20
9.1591
 11
8.59999
 21
9.03923
  0
LINE
  8
0
 10
8.59999
 20
9.03923
 11
8.84853
 21
8.84853
  0
LINE
  8
0
 10
8.84853
 20
8.84853
 11
9.03923
 21
8.59999
  0
LINE
  8
0
 10
9.03923
 20
8.59999
 11
9.1591
 21
8.31058
  0
LINE
  8
0
 10
9.1591
 20
8.31058
 11
9.2
 21
8
  0
LINE
  8
0
 10
9.2
 20
8
 11
9.1591
 21
7.68941
  0
LINE
  8
0
 10
9.1591
 20
7.68941
 11
9.03923
 21
7.39999
  0
LINE
  8
0
 10
9.03923
 20
7.39999
 11
8.84853
 21
7.15146
  0
LINE
  8
0
 10
8.84853
 20
7.15146
 11
8.59999
 21
6.96075
  0
LINE
  8
0
 10
8.59999
 20
6.96075
 11
8.31058
 21
6.84088
  0
LINE
  8
0
 10
8.31058
 20
6.84088
 11
8
 21
6.79999
  0
LINE
  8
0
 10
8
 20
6.79999
 11
7.68941
 21
6.84088
  0
LINE
  8
0
 10
-8.31058
 20
6.84088
 11
-8.59999
 21
6.96075
  0
LINE
  8
0
 10
-8.59999
 20
6.96075
 11
-8.84853
 21
7.15146
  0
LINE
  8
0
 10
-8.84853
 20
7.15146
 11
-9.03923
 21
7.39999
  0
LINE
  8
0
 10
-9.03923
 20
7.39999
 11
-9.1591
 21
7.68941
  0
LINE
  8
0
 10
-9.1591
 20
7.68941
 11
-9.2
 21
8
  0
LINE
  8
0
 10
-9.2
 20
8
 11
-9.1591
 21
8.31058
  0
LINE
  8
0
 10
-9.1591
 20
8.31058
 11
-9.03923
 21
8.59999
  0
LINE
  8
0
 10
-9.03923
 20
8.59999
 11
-8.84853
 21
8.84853
  0
LINE
  8
0
 10
-8.84853
 20
8.84853
 11
-8.59999
 21
9.03923
  0
LINE
  8
0
 10
-8.59999
 20
9.03923
 11
-8.31058
 21
9.1591
  0
LINE
  8
0
 10
-8.31058
 20
9.1591
 11
-8
 21
9.2
  0
LINE
  8
0
 10
-8
 20
9.2
 11
-7.68941
 21
9.1591
  0
LINE
  8
0
 10
-7.68941
 20
9.1591
 11
-7.39999
 21
9.03923
  0
LINE
  8
0
 10
-7.39999
 20
9.03923
 11
-7.15146
 21
8.84853
  0
LINE
  8
0
 10
-7.15146
 20
8.84853
 11
-6.96075
 21
8.59999
  0
LINE
  8
0
 10
-6.96075
 20
8.59999
 11
-6.84088
 21
8.31058
  0
LINE
  8
0
 10
-6.84088
 20
8.31058
 11
-6.79999
 21
8
  0
LINE
  8
0
 10
-6.79999
 20
8
 11
-6.84088
 21
7.68941
  0
LINE
  8
0
 10
-6.84088
 20
7.68941
 11
-6.96075
 21
7.39999
  0
LINE
  8
0
 10
-6.96075
 20
7.39999
 11
-7.15146
 21
7.15146
  0
LINE
  8
0
 10
-7.15146
 20
7.15146
 11
-7.39999
 21
6.96075
  0
LINE
  8
0
 10
-7.39999
 20
6.96075
 11
-7.68941
 21
6.84088
  0
LINE
  8
0
 10
-7.68941
 20
6.84088
 11
-8
 21
6.79999
  0
LINE
  8
0
 10
-8
 20
6.79999
 11
-8.31058
 21
6.84088
  0
LINE
  8
0
 10
-22.3106
 20
1.84088
 11
-22.6
 21
1.96075
  0
LINE
  8
0
 10
-22.6
 20
1.96075
 11
-22.8485
 21
2.15146
  0
LINE
  8
0
 10
-22.8485
 20
2.15146
 11
-23.0392
 21
2.39999
  0
LINE
  8
0
 10
-23.0392
 20
2.39999
 11
-23.1591
 21
2.68941
  0
LINE
  8
0
 10
-23.1591
 20
2.68941
 11
-23.2
 21
3
  0
LINE
  8
0
 10
-23.2
 20
3
 11
-23.1591
 21
3.31058
  0
LINE
  8
0
 10
-23.1591
 20
3.31058
 11
-23.0392
 21
3.59999
  0
LINE
  8
0
 10
-23.0392
 20
3.59999
 11
-22.8485
 21
3.84853
  0
LINE
  8
0
 10
-22.8485
 20
3.84853
 11
-22.6
 21
4.03923
  0
LINE
  8
0
 10
-22.6
 20
4.03923
 11
-22.3106
 21
4.1591
  0
LINE
  8
0
 10
-22.3106
 20
4.1591
 11
-22
 21
4.2
  0
LINE
  8
0
 10
-22
 20
4.2
 11
-21.6894
 21
4.1591
  0
LINE
  8
0
 10
-21.6894
 20
4.1591
 11
-21.4
 21
4.03923
  0
LINE
  8
0
 10
-21.4
 20
4.03923
 11
-21.1515
 21
3.84853
  0
LINE
  8
0
 10
-21.1515
 20
3.84853
 11
-20.9608
 21
3.59999
  0
LINE
  8
0
 10
-20.9608
 20
3.59999
 11
-20.8409
 21
3.31058
  0
LINE
  8
0
 10
-20.8409
 20
3.31058
 11
-20.8
 21
3
  0
LINE
  8
0
 10
-20.8
 20
3
 11
-20.8409
 21
2.68941
  0
LINE
  8
0
 10
-20.8409
 20
2.68941
 11
-20.9608
 21
2.39999
  0
LINE
  8
0
 10
-20.9608
 20
2.39999
 11
-21.1515
 21
2.15146
  0
LINE
  8
0
 10
-21.1515
 20
2.15146
 11
-21.4
 21
1.96075
  0
LINE
  8
0
 10
-21.4
 20
1.96075
 11
-21.6894
 21
1.84088
  0
LINE
  8
0
 10
-21.6894
 20
1.84088
 11
-22
 21
1.79999
  0
LINE
  8
0
 10
-22
 20
1.79999
 11
-22.3106
 21
1.84088
  0
LINE
  8
0
 10
21.6894
 20
1.84088
 11
21.4
 21
1.96075
  0
LINE
  8
0
 10
21.4
 20
1.96075
 11
21.1515
 21
2.15146
  0
LINE
  8
0
 10
21.1515
 20
2.15146
 11
20.9608
 21
2.39999
  0
LINE
  8
0
 10
20.9608
 20
2.39999
 11
20.8409
 21
2.68941
  0
LINE
  8
0
 10
20.8409
 20
2.68941
 11
20.8
 21
3
  0
LINE
  8
0
 10
20.8
 20
3
 11
20.8409
 21
3.31058
  0
LINE
  8
0
 10
20.8409
 20
3.31058
 11
20.9608
 21
3.59999
  0
LINE
  8
0
 10
20.9608
 20
3.59999
 11
21.1515
 21
3.84853
  0
LINE
  8
0
 10
21.1515
 20
3.84853
 11
21.4
 21
4.03923
  0
LINE
  8
0
 10
21.4
 20
4.03923
 11
21.6894
 21
4.1591
  0
LINE
  8
0
 10
21.6894
 20
4.1591
 11
22
 21
4.2
  0
LINE
  8
0
 10
22
 20
4.2
 11
22.3106
 21
4.1591
  0
LINE
  8
0
 10
22.3106
 20
4.1591
 11
22.6
 21
4.03923
  0
LINE
  8
0
 10
22.6
 20
4.03923
 11
22.8485
 21
3.84853
  0
LINE
  8
0
 10
22.8485
 20
3.84853
 11
23.0392
 21
3.59999
  0
LINE
  8
0
 10
23.0392
 20
3.59999
 11
23.1591
 21
3.31058
  0
LINE
  8
0
 10
23.1591
 20
3.31058
 11
23.2
 21
3
  0
LINE
  8
0
 10
23.2
 20
3
 11
23.1591
 21
2.68941
  0
LINE
  8
0
 10
23.1591
 20
2.68941
 11
23.0392
 21
2.39999
  0
LINE
  8
0
 10
23.0392
 20
2.39999
 11
22.8485
 21
2.15146
  0
LINE
  8
0
 10
22.8485
 20
2.15146
 11
22.6
 21
1.96075
  0
LINE
  8
0
 10
22.6
 20
1.96075
 11
22.3106
 21
1.84088
  0
LINE
  8
0
 10
22.3106
 20
1.84088
 11
22
 21
1.79999
  0
LINE
  8
0
 10
22
 20
1.79999
 11
21.6894
 21
1.84088
  0
LINE
  8
0
 10
-0.310577
 20
-1.1591
 11
-0.599991
 21
-1.03923
  0
LINE
  8
0
 10
-0.599991
 20
-1.03923
 11
-0.848526
 21
-0.848526
  0
LINE
  8
0
 10
-0.848526
 20
-0.848526
 11
-1.03923
 21
-0.599991
  0
LINE
  8
0
 10
-1.03923
 20
-0.599991
 11
-1.1591
 21
-0.310577
  0
LINE
  8
0
 10
-1.1591
 20
-0.310577
 11
-1.2
 21
0
  0
LINE
  8
0
 10
-1.2
 20
0
 11
-1.1591
 21
0.310577
  0
LINE
  8
0
 10
-1.1591
 20
0.310577
 11
-1.03923
 21
0.599991
  0
LINE
  8
0
 10
-1.03923
 20
0.599991
 11
-0.848526
 21
0.848526
  0
LINE
  8
0
 10
-0.848526
 20
0.848526
 11
-0.599991
 21
1.03923
  0
LINE
  8
0
 10
-0.599991
 20
1.03923
 11
-0.310577
 21
1.1591
  0
LINE
  8
0
 10
-0.310577
 20
1.1591
 11
0
 21
1.2
  0
LINE
  8
0
 10
0
 20
1.2
 11
0.310577
 21
1.1591
  0
LINE
  8
0
 10
0.310577
 20
1.1591
 11
0.599991
 21
1.03923
  0
LINE
  8
0
 10
0.599991
 20
1.03923
 11
0.848526
 21
0.848526
  0
LINE
  8
0
 10
0.848526
 20
0.848526
 11
1.03923
 21
0.599991
  0
LINE
  8
0
 10
1.03923
 20
0.599991
 11
1.1591
 21
0.310577
  0
LINE
  8
0
 10
1.1591
 20
0.310577
 11
1.2
 21
0
  0
LINE
  8
0
 10
1.2
 20
0
 11
1.1591
 21
-0.310577
  0
LINE
  8
0
 10
1.1591
 20
-0.310577
 11
1.03923
 21
-0.599991
  0
LINE
  8
0
 10
1.03923
 20
-0.599991
 11
0.848526
 21
-0.848526
  0
LINE
  8
0
 10
0.848526
 20
-0.848526
 11
0.599991
 21
-1.03923
  0
LINE
  8
0
 10
0.599991
 20
-1.03923
 11
0.310577
 21
-1.1591
  0
LINE
  8
0
 10
0.310577
 20
-1.1591
 11
0
 21
-1.2
  0
LINE
  8
0
 10
0
 20
-1.2
 11
-0.310577
 21
-1.1591
  0
LINE
  8
0
 10
-22.3106
 20
-4.1591
 11
-22.6
 21
-4.03923
  0
LINE
  8
0
 10
-22.6
 20
-4.03923
 11
-22.8485
 21
-3.84853
  0
LINE
  8
0
 10
-22.8485
 20
-3.84853
 11
-23.0392
 21
-3.59999
  0
LINE
  8
0
 10
-23.0392
 20
-3.59999
 11
-23.1591
 21
-3.31058
  0
LINE
  8
0
 10
-23.1591
 20
-3.31058
 11
-23.2
 21
-3
  0
LINE
  8
0
 10
-23.2
 20
-3
 11
-23.1591
 21
-2.68941
  0
LINE
  8
0
 10
-23.1591
 20
-2.68941
 11
-23.0392
 21
-2.39999
  0
LINE
  8
0
 10
-23.0392
 20
-2.39999
 11
-22.8485
 21
-2.15146
  0
LINE
  8
0
 10
-22.8485
 20
-2.15146
 11
-22.6
 21
-1.96075
  0
LINE
  8
0
 10
-22.6
 20
-1.96075
 11
-22.3106
 21
-1.84088
  0
LINE
  8
0
 10
-22.3106
 20
-1.84088
 11
-22
 21
-1.79999
  0
LINE
  8
0
 10
-22
 20
-1.79999
 11
-21.6894
 21
-1.84088
  0
LINE
  8
0
 10
-21.6894
 20
-1.84088
 11
-21.4
 21
-1.96075
  0
LINE
  8
0
 10
-21.4
 20
-1.96075
 11
-21.1515
 21
-2.15146
  0
LINE
  8
0
 10
-21.1515
 20
-2.15146
 11
-20.9608
 21
-2.39999
  0
LINE
  8
0
 10
-20.9608
 20
-2.39999
 11
-20.8409
 21
-2.68941
  0
LINE
  8
0
 10
-20.8409
 20
-2.68941
 11
-20.8
 21
-3
  0
LINE
  8
0
 10
-20.8
 20
-3
 11
-20.8409
 21
-3.31058
  0
LINE
  8
0
 10
-20.8409
 20
-3.31058
 11
-20.9608
 21
-3.59999
  0
LINE
  8
0
 10
-20.9608
 20
-3.59999
 11
-21.1515
 21
-3.84853
  0
LINE
  8
0
 10
-21.1515
 20
-3.84853
 11
-21.4
 21
-4.03923
  0
LINE
  8
0
 10
-21.4
 20
-4.03923
 11
-21.6894
 21
-4.1591
  0
LINE
  8
0
 10
-21.6894
 20
-4.1591
 11
-22
 21
-4.2
  0
LINE
  8
0
 10
-22
 20
-4.2
 11
-22.3106
 21
-4.1591
  0
LINE
  8
0
 10
21.6894
 20
-4.1591
 11
21.4
 21
-4.03923
  0
LINE
  8
0
 10
21.4
 20
-4.03923
 11
21.1515
 21
-3.84853
  0
LINE
  8
0
 10
21.1515
 20
-3.84853
 11
20.9608
 21
-3.59999
  0
LINE
  8
0
 10
20.9608
 20
-3.59999
 11
20.8409
 21
-3.31058
  0
LINE
  8
0
 10
20.8409
 20
-3.31058
 11
20.8
 21
-3
  0
LINE
  8
0
 10
20.8
 20
-3
 11
20.8409
 21
-2.68941
  0
LINE
  8
0
 10
20.8409
 20
-2.68941
 11
20.9608
 21
-2.39999
  0
LINE
  8
0
 10
20.9608
 20
-2.39999
 11
21.1515
 21
-2.15146
  0
LINE
  8
0
 10
21.1515
 20
-2.15146
 11
21.4
 21
-1.96075
  0
LINE
  8
0
 10
21.4
 20
-1.96075
 11
21.6894
 21
-1.84088
  0
LINE
  8
0
 10
21.6894
 20
-1.84088
 11
22
 21
-1.79999
  0
LINE
  8
0
 10
22
 20
-1.79999
 11
22.3106
 21
-1.84088
  0
LINE
  8
0
 10
22.3106
 20
-1.84088
 11
22.6
 21
-1.96075
  0
LINE
  8
0
 10
22.6
 20
-1.96075
 11
22.8485
 21
-2.15146
  0
LINE
  8
0
 10
22.8485
 20
-2.15146
 11
23.0392
 21
-2.39999
  0
LINE
  8
0
 10
23.0392
 20
-2.39999
 11
23.1591
 21
-2.68941
  0
LINE
  8
0
 10
23.1591
 20
-2.68941
 11
23.2
 21
-3
  0
LINE
  8
0
 10
23.2
 20
-3
 11
23.1591
 21
-3.31058
  0
LINE
  8
0
 10
23.1591
 20
-3.31058
 11
23.0392
 21
-3.59999
  0
LINE
  8
0
 10
23.0392
 20
-3.59999
 11
22.8485
 21
-3.84853
  0
LINE
  8
0
 10
22.8485
 20
-3.84853
 11
22.6
 21
-4.03923
  0
LINE
  8
0
 10
22.6
 20
-4.03923
 11
22.3106
 21
-4.1591
  0
LINE
  8
0
 10
22.3106
 20
-4.1591
 11
22
 21
-4.2
  0
LINE
  8
0
 10
22
 20
-4.2
 11
21.6894
 21
-4.1591
  0
LINE
  8
0
 10
-10.2674
 20
-18.85
 11
-11.3232
 21
-18.674
  0
LINE
  8
0
 10
-11.3232
 20
-18.674
 11
-11.8796
 21
-18.4515
  0
LINE
  8
0
 10
-11.8796
 20
-18.4515
 11
-12.2455
 21
-18.0682
  0
LINE
  8
0
 10
-12.2455
 20
-18.0682
 11
-12.3324
 21
-17.5469
  0
LINE
  8
0
 10
-12.3324
 20
-17.5469
 11
-12.1567
 21
-16.9729
  0
LINE
  8
0
 10
-12.1567
 20
-16.9729
 11
-11.6474
 21
-16.1136
  0
LINE
  8
0
 10
-11.6474
 20
-16.1136
 11
-6.25697
 21
-9.74301
  0
LINE
  8
0
 10
-6.25697
 20
-9.74301
 11
-5.86523
 21
-9.2325
  0
LINE
  8
0
 10
-5.86523
 20
-9.2325
 11
-3.87482
 21
-5.79204
  0
LINE
  8
0
 10
-3.87482
 20
-5.79204
 11
-3.04004
 21
-4.66638
  0
LINE
  8
0
 10
-3.04004
 20
-4.66638
 11
-2.61311
 21
-4.23946
  0
LINE
  8
0
 10
-2.61311
 20
-4.23946
 11
-1.74208
 21
-3.61729
  0
LINE
  8
0
 10
-1.74208
 20
-3.61729
 11
-0.871033
 21
-3.24399
  0
LINE
  8
0
 10
-0.871033
 20
-3.24399
 11
0
 21
-3.11955
  0
LINE
  8
0
 10
0
 20
-3.11955
 11
0.871033
 21
-3.24399
  0
LINE
  8
0
 10
0.871033
 20
-3.24399
 11
1.74208
 21
-3.61729
  0
LINE
  8
0
 10
1.74208
 20
-3.61729
 11
2.61311
 21
-4.23946
  0
LINE
  8
0
 10
2.61311
 20
-4.23946
 11
3.04004
 21
-4.66638
  0
LINE
  8
0
 10
3.04004
 20
-4.66638
 11
3.87482
 21
-5.79204
  0
LINE
  8
0
 10
3.87482
 20
-5.79204
 11
5.86523
 21
-9.2325
  0
LINE
  8
0
 10
5.86523
 20
-9.2325
 11
6.25697
 21
-9.74301
  0
LINE
  8
0
 10
6.25697
 20
-9.74301
 11
11.6474
 21
-16.1136
  0
LINE
  8
0
 10
11.6474
 20
-16.1136
 11
12.1567
 21
-16.9729
  0
LINE
  8
0
 10
12.1567
 20
-16.9729
 11
12.3324
 21
-17.5469
  0
LINE
  8
0
 10
12.3324
 20
-17.5469
 11
12.2455
 21
-18.0682
  0
LINE
  8
0
 10
12.2455
 20
-18.0682
 11
11.8796
 21
-18.4515
  0
LINE
  8
0
 10
11.8796
 20
-18.4515
 11
11.3232
 21
-18.674
  0
LINE
  8
0
 10
11.3232
 20
-18.674
 11
10.2674
 21
-18.85
  0
LINE
  8
0
 10
10.2674
 20
-18.85
 11
-10.2674
 21
-18.85
  0
LINE
  8
0
 10
-8.31058
 20
-9.1591
 11
-8.59999
 21
-9.03923
  0
LINE
  8
0
 10
-8.59999
 20
-9.03923
 11
-8.84853
 21
-8.84853
  0
LINE
  8
0
 10
-8.84853
 20
-8.84853
 11
-9.03923
 21
-8.59999
  0
LINE
  8
0
 10
-9.03923
 20
-8.59999
 11
-9.1591
 21
-8.31058
  0
LINE
  8
0
 10
-9.1591
 20
-8.31058
 11
-9.2
 21
-8
  0
LINE
  8
0
 10
-9.2
 20
-8
 11
-9.1591
 21
-7.68941
  0
LINE
  8
0
 10
-9.1591
 20
-7.68941
 11
-9.03923
 21
-7.39999
  0
LINE
  8
0
 10
-9.03923
 20
-7.39999
 11
-8.84853
 21
-7.15146
  0
LINE
  8
0
 10
-8.84853
 20
-7.15146
 11
-8.59999
 21
-6.96075
  0
LINE
  8
0
 10
-8.59999
 20
-6.96075
 11
-8.31058
 21
-6.84088
  0
LINE
  8
0
 10
-8.31058
 20
-6.84088
 11
-8
 21
-6.79999
  0
LINE
  8
0
 10
-8
 20
-6.79999
 11
-7.68941
 21
-6.84088
  0
LINE
  8
0
 10
-7.68941
 20
-6.84088
 11
-7.39999
 21
-6.96075
  0
LINE
  8
0
 10
-7.39999
 20
-6.96075
 11
-7.15146
 21
-7.15146
  0
LINE
  8
0
 10
-7.15146
 20
-7.15146
 11
-6.96075
 21
-7.39999
  0
LINE
  8
0
 10
-6.96075
 20
-7.39999
 11
-6.84088
 21
-7.68941
  0
LINE
  8
0
 10
-6.84088
 20
-7.68941
 11
-6.79999
 21
-8
  0
LINE
  8
0
 10
-6.79999
 20
-8
 11
-6.84088
 21
-8.31058
  0
LINE
  8
0
 10
-6.84088
 20
-8.31058
 11
-6.96075
 21
-8.59999
  0
LINE
  8
0
 10
-6.96075
 20
-8.59999
 11
-7.15146
 21
-8.84853
  0
LINE
  8
0
 10
-7.15146
 20
-8.84853
 11
-7.39999
 21
-9.03923
  0
LINE
  8
0
 10
-7.39999
 20
-9.03923
 11
-7.68941
 21
-9.1591
  0
LINE
  8
0
 10
-7.68941
 20
-9.1591
 11
-8
 21
-9.2
  0
LINE
  8
0
 10
-8
 20
-9.2
 11
-8.31058
 21
-9.1591
  0
LINE
  8
0
 10
7.68941
 20
-9.1591
 11
7.39999
 21
-9.03923
  0
LINE
  8
0
 10
7.39999
 20
-9.03923
 11
7.15146
 21
-8.84853
  0
LINE
  8
0
 10
7.15146
 20
-8.84853
 11
6.96075
 21
-8.59999
  0
LINE
  8
0
 10
6.96075
 20
-8.59999
 11
6.84088
 21
-8.31058
  0
LINE
  8
0
 10
6.84088
 20
-8.31058
 11
6.79999
 21
-8
  0
LINE
  8
0
 10
6.79999
 20
-8
 11
6.84088
 21
-7.68941
  0
LINE
  8
0
 10
6.84088
 20
-7.68941
 11
6.96075
 21
-7.39999
  0
LINE
  8
0
 10
6.96075
 20
-7.39999
 11
7.15146
 21
-7.15146
  0
LINE
  8
0
 10
7.15146
 20
-7.15146
 11
7.39999
 21
-6.96075
  0
LINE
  8
0
 10
7.39999
 20
-6.96075
 11
7.68941
 21
-6.84088
  0
LINE
  8
0
 10
7.68941
 20
-6.84088
 11
8
 21
-6.79999
  0
LINE
  8
0
 10
8
 20
-6.79999
 11
8.31058
 21
-6.84088
  0
LINE
  8
0
 10
8.31058
 20
-6.84088
 11
8.59999
 21
-6.96075
  0
LINE
  8
0
 10
8.59999
 20
-6.96075
 11
8.84853
 21
-7.15146
  0
LINE
  8
0
 10
8.84853
 20
-7.15146
 11
9.03923
 21
-7.39999
  0
LINE
  8
0
 10
9.03923
 20
-7.39999
 11
9.1591
 21
-7.68941
  0
LINE
  8
0
 10
9.1591
 20
-7.68941
 11
9.2
 21
-8
  0
LINE
  8
0
 10
9.2
 20
-8
 11
9.1591
 21
-8.31058
  0
LINE
  8
0
 10
9.1591
 20
-8.31058
 11
9.03923
 21
-8.59999
  0
LINE
  8
0
 10
9.03923
 20
-8.59999
 11
8.84853
 21
-8.84853
  0
LINE
  8
0
 10
8.84853
 20
-8.84853
 11
8.59999
 21
-9.03923
  0
LINE
  8
0
 10
8.59999
 20
-9.03923
 11
8.31058
 21
-9.1591
  0
LINE
  8
0
 10
8.31058
 20
-9.1591
 11
8
 21
-9.2
  0
LINE
  8
0
 10
8
 20
-9.2
 11
7.68941
 21
-9.1591
  0
LINE
  8
0
 10
9.68941
 20
-11.1591
 11
9.39999
 21
-11.0392
  0
LINE
  8
0
 10
9.39999
 20
-11.0392
 11
9.15146
 21
-10.8485
  0
LINE
  8
0
 10
9.15146
 20
-10.8485
 11
8.96075
 21
-10.6
  0
LINE
  8
0
 10
8.96075
 20
-10.6
 11
8.84088
 21
-10.3106
  0
LINE
  8
0
 10
8.84088
 20
-10.3106
 11
8.79999
 21
-10
  0
LINE
  8
0
 10
8.79999
 20
-10
 11
8.84088
 21
-9.68941
  0
LINE
  8
0
 10
8.84088
 20
-9.68941
 11
8.96075
 21
-9.39999
  0
LINE
  8
0
 10
8.96075
 20
-9.39999
 11
9.15146
 21
-9.15146
  0
LINE
  8
0
 10
9.15146
 20
-9.15146
 11
9.39999
 21
-8.96075
  0
LINE
  8
0
 10
9.39999
 20
-8.96075
 11
9.68941
 21
-8.84088
  0
LINE
  8
0
 10
9.68941
 20
-8.84088
 11
10
 21
-8.79999
  0
LINE
  8
0
 10
10
 20
-8.79999
 11
10.3106
 21
-8.84088
  0
LINE
  8
0
 10
10.3106
 20
-8.84088
 11
10.6
 21
-8.96075
  0
LINE
  8
0
 10
10.6
 20
-8.96075
 11
10.8485
 21
-9.15146
  0
LINE
  8
0
 10
10.8485
 20
-9.15146
 11
11.0392
 21
-9.39999
  0
LINE
  8
0
 10
11.0392
 20
-9.39999
 11
11.1591
 21
-9.68941
  0
LINE
  8
0
 10
11.1591
 20
-9.68941
 11
11.2
 21
-10
  0
LINE
  8
0
 10
11.2
 20
-10
 11
11.1591
 21
-10.3106
  0
LINE
  8
0
 10
11.1591
 20
-10.3106
 11
11.0392
 21
-10.6
  0
LINE
  8
0
 10
11.0392
 20
-10.6
 11
10.8485
 21
-10.8485
  0
LINE
  8
0
 10
10.8485
 20
-10.8485
 11
10.6
 21
-11.0392
  0
LINE
  8
0
 10
10.6
 20
-11.0392
 11
10.3106
 21
-11.1591
  0
LINE
  8
0
 10
10.3106
 20
-11.1591
 11
10
 21
-11.2
  0
LINE
  8
0
 10
10
 20
-11.2
 11
9.68941
 21
-11.1591
  0
LINE
  8
0
 10
-10.3106
 20
-11.1591
 11
-10.6
 21
-11.0392
  0
LINE
  8
0
 10
-10.6
 20
-11.0392
 11
-10.8485
 21
-10.8485
  0
LINE
  8
0
 10
-10.8485
 20
-10.8485
 11
-11.0392
 21
-10.6
  0
LINE
  8
0
 10
-11.0392
 20
-10.6
 11
-11.1591
 21
-10.3106
  0
LINE
  8
0
 10
-11.1591
 20
-10.3106
 11
-11.2
 21
-10
  0
LINE
  8
0
 10
-11.2
 20
-10
 11
-11.1591
 21
-9.68941
  0
LINE
  8
0
 10
-11.1591
 20
-9.68941
 11
-11.0392
 21
-9.39999
  0
LINE
  8
0
 10
-11.0392
 20
-9.39999
 11
-10.8485
 21
-9.15146
  0
LINE
  8
0
 10
-10.8485
 20
-9.15146
 11
-10.6
 21
-8.96075
  0
LINE
  8
0
 10
-10.6
 20
-8.96075
 11
-10.3106
 21
-8.84088
  0
LINE
  8
0
 10
-10.3106
 20
-8.84088
 11
-10
 21
-8.79999
  0
LINE
  8
0
 10
-10
 20
-8.79999
 11
-9.68941
 21
-8.84088
  0
LINE
  8
0
 10
-9.68941
 20
-8.84088
 11
-9.39999
 21
-8.96075
  0
LINE
  8
0
 10
-9.39999
 20
-8.96075
 11
-9.15146
 21
-9.15146
  0
LINE
  8
0
 10
-9.15146
 20
-9.15146
 11
-8.96075
 21
-9.39999
  0
LINE
  8
0
 10
-8.96075
 20
-9.39999
 11
-8.84088
 21
-9.68941
  0
LINE
  8
0
 10
-8.84088
 20
-9.68941
 11
-8.79999
 21
-10
  0
LINE
  8
0
 10
-8.79999
 20
-10
 11
-8.84088
 21
-10.3106
  0
LINE
  8
0
 10
-8.84088
 20
-10.3106
 11
-8.96075
 21
-10.6
  0
LINE
  8
0
 10
-8.96075
 20
-10.6
 11
-9.15146
 21
-10.8485
  0
LINE
  8
0
 10
-9.15146
 20
-10.8485
 11
-9.39999
 21
-11.0392
  0
LINE
  8
0
 10
-9.39999
 20
-11.0392
 11
-9.68941
 21
-11.1591
  0
LINE
  8
0
 10
-9.68941
 20
-11.1591
 11
-10
 21
-11.2
  0
LINE
  8
0
 10
-10
 20
-11.2
 11
-10.3106
 21
-11.1591
  0
LINE
  8
0
 10
-13.3106
 20
-14.1591
 11
-13.6
 21
-14.0392
  0
LINE
  8
0
 10
-13.6
 20
-14.0392
 11
-13.8485
 21
-13.8485
  0
LINE
  8
0
 10
-13.8485
 20
-13.8485
 11
-14.0392
 21
-13.6
  0
LINE
  8
0
 10
-14.0392
 20
-13.6
 11
-14.1591
 21
-13.3106
  0
LINE
  8
0
 10
-14.1591
 20
-13.3106
 11
-14.2
 21
-13
  0
LINE
  8
0
 10
-14.2
 20
-13
 11
-14.1591
 21
-12.6894
  0
LINE
  8
0
 10
-14.1591
 20
-12.6894
 11
-14.0392
 21
-12.4
  0
LINE
  8
0
 10
-14.0392
 20
-12.4
 11
-13.8485
 21
-12.1515
  0
LINE
  8
0
 10
-13.8485
 20
-12.1515
 11
-13.6
 21
-11.9608
  0
LINE
  8
0
 10
-13.6
 20
-11.9608
 11
-13.3106
 21
-11.8409
  0
LINE
  8
0
 10
-13.3106
 20
-11.8409
 11
-13
 21
-11.8
  0
LINE
  8
0
 10
-13
 20
-11.8
 11
-12.6894
 21
-11.8409
  0
LINE
  8
0
 10
-12.6894
 20
-11.8409
 11
-12.4
 21
-11.9608
  0
LINE
  8
0
 10
-12.4
 20
-11.9608
 11
-12.1515
 21
-12.1515
  0
LINE
  8
0
 10
-12.1515
 20
-12.1515
 11
-11.9608
 21
-12.4
  0
LINE
  8
0
 10
-11.9608
 20
-12.4
 11
-11.8409
 21
-12.6894
  0
LINE
  8
0
 10
-11.8409
 20
-12.6894
 11
-11.8
 21
-13
  0
LINE
  8
0
 10
-11.8
 20
-13
 11
-11.8409
 21
-13.3106
  0
LINE
  8
0
 10
-11.8409
 20
-13.3106
 11
-11.9608
 21
-13.6
  0
LINE
  8
0
 10
-11.9608
 20
-13.6
 11
-12.1515
 21
-13.8485
  0
LINE
  8
0
 10
-12.1515
 20
-13.8485
 11
-12.4
 21
-14.0392
  0
LINE
  8
0
 10
-12.4
 20
-14.0392
 11
-12.6894
 21
-14.1591
  0
LINE
  8
0
 10
-12.6894
 20
-14.1591
 11
-13
 21
-14.2
  0
LINE
  8
0
 10
-13
 20
-14.2
 11
-13.3106
 21
-14.1591
  0
LINE
  8
0
 10
12.6894
 20
-14.1591
 11
12.4
 21
-14.0392
  0
LINE
  8
0
 10
12.4
 20
-14.0392
 11
12.1515
 21
-13.8485
  0
LINE
  8
0
 10
12.1515
 20
-13.8485
 11
11.9608
 21
-13.6
  0
LINE
  8
0
 10
11.9608
 20
-13.6
 11
11.8409
 21
-13.3106
  0
LINE
  8
0
 10
11.8409
 20
-13.3106
 11
11.8
 21
-13
  0
LINE
  8
0
 10
11.8
 20
-13
 11
11.8409
 21
-12.6894
  0
LINE
  8
0
 10
11.8409
 20
-12.6894
 11
11.9608
 21
-12.4
  0
LINE
  8
0
 10
11.9608
 20
-12.4
 11
12.1515
 21
-12.1515
  0
LINE
  8
0
 10
12.1515
 20
-12.1515
 11
12.4
 21
-11.9608
  0
LINE
  8
0
 10
12.4
 20
-11.9608
 11
12.6894
 21
-11.8409
  0
LINE
  8
0
 10
12.6894
 20
-11.8409
 11
13
 21
-11.8
  0
LINE
  8
0
 10
13
 20
-11.8
 11
13.3106
 21
-11.8409
  0
LINE
  8
0
 10
13.3106
 20
-11.8409
 11
13.6
 21
-11.9608
  0
LINE
  8
0
 10
13.6
 20
-11.9608
 11
13.8485
 21
-12.1515
  0
LINE
  8
0
 10
13.8485
 20
-12.1515
 11
14.0392
 21
-12.4
  0
LINE
  8
0
 10
14.0392
 20
-12.4
 11
14.1591
 21
-12.6894
  0
LINE
  8
0
 10
14.1591
 20
-12.6894
 11
14.2
 21
-13
  0
LINE
  8
0
 10
14.2
 20
-13
 11
14.1591
 21
-13.3106
  0
LINE
  8
0
 10
14.1591
 20
-13.3106
 11
14.0392
 21
-13.6
  0
LINE
  8
0
 10
14.0392
 20
-13.6
 11
13.8485
 21
-13.8485
  0
LINE
  8
0
 10
13.8485
 20
-13.8485
 11
13.6
 21
-14.0392
  0
LINE
  8
0
 10
13.6
 20
-14.0392
 11
13.3106
 21
-14.1591
  0
LINE
  8
0
 10
13.3106
 20
-14.1591
 11
13
 21
-14.2
  0
LINE
  8
0
 10
13
 20
-14.2
 11
12.6894
 21
-14.1591
  0
LINE
  8
0
 10
-15.677
 20
-16.8438
 11
-16.075
 21
-16.6789
  0
LINE
  8
0
 10
-16.075
 20
-16.6789
 11
-16.4167
 21
-16.4167
  0
LINE
  8
0
 10
-16.4167
 20
-16.4167
 11
-16.6789
 21
-16.075
  0
LINE
  8
0
 10
-16.6789
 20
-16.075
 11
-16.8438
 21
-15.677
  0
LINE
  8
0
 10
-16.8438
 20
-15.677
 11
-16.9
 21
-15.25
  0
LINE
  8
0
 10
-16.9
 20
-15.25
 11
-16.8438
 21
-14.8229
  0
LINE
  8
0
 10
-16.8438
 20
-14.8229
 11
-16.6789
 21
-14.425
  0
LINE
  8
0
 10
-16.6789
 20
-14.425
 11
-16.4167
 21
-14.0833
  0
LINE
  8
0
 10
-16.4167
 20
-14.0833
 11
-16.075
 21
-13.821
  0
LINE
  8
0
 10
-16.075
 20
-13.821
 11
-15.677
 21
-13.6562
  0
LINE
  8
0
 10
-15.677
 20
-13.6562
 11
-15.25
 21
-13.6
  0
LINE
  8
0
 10
-15.25
 20
-13.6
 11
-14.8229
 21
-13.6562
  0
LINE
  8
0
 10
-14.8229
 20
-13.6562
 11
-14.425
 21
-13.821
  0
LINE
  8
0
 10
-14.425
 20
-13.821
 11
-14.0833
 21
-14.0833
  0
LINE
  8
0
 10
-14.0833
 20
-14.0833
 11
-13.821
 21
-14.425
  0
LINE
  8
0
 10
-13.821
 20
-14.425
 11
-13.6562
 21
-14.8229
  0
LINE
  8
0
 10
-13.6562
 20
-14.8229
 11
-13.6
 21
-15.25
  0
LINE
  8
0
 10
-13.6
 20
-15.25
 11
-13.6562
 21
-15.677
  0
LINE
  8
0
 10
-13.6562
 20
-15.677
 11
-13.821
 21
-16.075
  0
LINE
  8
0
 10
-13.821
 20
-16.075
 11
-14.0833
 21
-16.4167
  0
LINE
  8
0
 10
-14.0833
 20
-16.4167
 11
-14.425
 21
-16.6789
  0
LINE
  8
0
 10
-14.425
 20
-16.6789
 11
-14.8229
 21
-16.8438
  0
LINE
  8
0
 10
-14.8229
 20
-16.8438
 11
-15.25
 21
-16.9
  0
LINE
  8
0
 10
-15.25
 20
-16.9
 11
-15.677
 21
-16.8438
  0
LINE
  8
0
 10
14.8229
 20
-16.8438
 11
14.425
 21
-16.6789
  0
LINE
  8
0
 10
14.425
 20
-16.6789
 11
14.0833
 21
-16.4167
  0
LINE
  8
0
 10
14.0833
 20
-16.4167
 11
13.821
 21
-16.075
  0
LINE
  8
0
 10
13.821
 20
-16.075
 11
13.6562
 21
-15.677
  0
LINE
  8
0
 10
13.6562
 20
-15.677
 11
13.6
 21
-15.25
  0
LINE
  8
0
 10
13.6
 20
-15.25
 11
13.6562
 21
-14.8229
  0
LINE
  8
0
 10
13.6562
 20
-14.8229
 11
13.821
 21
-14.425
  0
LINE
  8
0
 10
13.821
 20
-14.425
 11
14.0833
 21
-14.0833
  0
LINE
  8
0
 10
14.0833
 20
-14.0833
 11
14.425
 21
-13.821
  0
LINE
  8
0
 10
14.425
 20
-13.821
 11
14.8229
 21
-13.6562
  0
LINE
  8
0
 10
14.8229
 20
-13.6562
 11
15.25
 21
-13.6
  0
LINE
  8
0
 10
15.25
 20
-13.6
 11
15.677
 21
-13.6562
  0
LINE
  8
0
 10
15.677
 20
-13.6562
 11
16.075
 21
-13.821
  0
LINE
  8
0
 10
16.075
 20
-13.821
 11
16.4167
 21
-14.0833
  0
LINE
  8
0
 10
16.4167
 20
-14.0833
 11
16.6789
 21
-14.425
  0
LINE
  8
0
 10
16.6789
 20
-14.425
 11
16.8438
 21
-14.8229
  0
LINE
  8
0
 10
16.8438
 20
-14.8229
 11
16.9
 21
-15.25
  0
LINE
  8
0
 10
16.9
 20
-15.25
 11
16.8438
 21
-15.677
  0
LINE
  8
0
 10
16.8438
 20
-15.677
 11
16.6789
 21
-16.075
  0
LINE
  8
0
 10
16.6789
 20
-16.075
 11
16.4167
 21
-16.4167
  0
LINE
  8
0
 10
16.4167
 20
-16.4167
 11
16.075
 21
-16.6789
  0
LINE
  8
0
 10
16.075
 20
-16.6789
 11
15.677
 21
-16.8438
  0
LINE
  8
0
 10
15.677
 20
-16.8438
 11
15.25
 21
-16.9
  0
LINE
  8
0
 10
15.25
 20
-16.9
 11
14.8229
 21
-16.8438
  0
LINE
  8
0
 10
17.4394
 20
-18.9091
 11
17.15
 21
-18.7892
  0
LINE
  8
0
 10
17.15
 20
-18.7892
 11
16.9015
 21
-18.5985
  0
LINE
  8
0
 10
16.9015
 20
-18.5985
 11
16.7108
 21
-18.35
  0
LINE
  8
0
 10
16.7108
 20
-18.35
 11
16.5909
 21
-18.0606
  0
LINE
  8
0
 10
16.5909
 20
-18.0606
 11
16.55
 21
-17.75
  0
LINE
  8
0
 10
16.55
 20
-17.75
 11
16.5909
 21
-17.4394
  0
LINE
  8
0
 10
16.5909
 20
-17.4394
 11
16.7108
 21
-17.15
  0
LINE
  8
0
 10
16.7108
 20
-17.15
 11
16.9015
 21
-16.9015
  0
LINE
  8
0
 10
16.9015
 20
-16.9015
 11
17.15
 21
-16.7108
  0
LINE
  8
0
 10
17.15
 20
-16.7108
 11
17.4394
 21
-16.5909
  0
LINE
  8
0
 10
17.4394
 20
-16.5909
 11
17.75
 21
-16.55
  0
LINE
  8
0
 10
17.75
 20
-16.55
 11
18.0606
 21
-16.5909
  0
LINE
  8
0
 10
18.0606
 20
-16.5909
 11
18.35
 21
-16.7108
  0
LINE
  8
0
 10
18.35
 20
-16.7108
 11
18.5985
 21
-16.9015
  0
LINE
  8
0
 10
18.5985
 20
-16.9015
 11
18.7892
 21
-17.15
  0
LINE
  8
0
 10
18.7892
 20
-17.15
 11
18.9091
 21
-17.4394
  0
LINE
  8
0
 10
18.9091
 20
-17.4394
 11
18.95
 21
-17.75
  0
LINE
  8
0
 10
18.95
 20
-17.75
 11
18.9091
 21
-18.0606
  0
LINE
  8
0
 10
18.9091
 20
-18.0606
 11
18.7892
 21
-18.35
  0
LINE
  8
0
 10
18.7892
 20
-18.35
 11
18.5985
 21
-18.5985
  0
LINE
  8
0
 10
18.5985
 20
-18.5985
 11
18.35
 21
-18.7892
  0
LINE
  8
0
 10
18.35
 20
-18.7892
 11
18.0606
 21
-18.9091
  0
LINE
  8
0
 10
18.0606
 20
-18.9091
 11
17.75
 21
-18.95
  0
LINE
  8
0
 10
17.75
 20
-18.95
 11
17.4394
 21
-18.9091
  0
LINE
  8
0
 10
-18.0606
 20
-18.9091
 11
-18.35
 21
-18.7892
  0
LINE
  8
0
 10
-18.35
 20
-18.7892
 11
-18.5985
 21
-18.5985
  0
LINE
  8
0
 10
-18.5985
 20
-18.5985
 11
-18.7892
 21
-18.35
  0
LINE
  8
0
 10
-18.7892
 20
-18.35
 11
-18.9091
 21
-18.0606
  0
LINE
  8
0
 10
-18.9091
 20
-18.0606
 11
-18.95
 21
-17.75
  0
LINE
  8
0
 10
-18.95
 20
-17.75
 11
-18.9091
 21
-17.4394
  0
LINE
  8
0
 10
-18.9091
 20
-17.4394
 11
-18.7892
 21
-17.15
  0
LINE
  8
0
 10
-18.7892
 20
-17.15
 11
-18.5985
 21
-16.9015
  0
LINE
  8
0
 10
-18.5985
 20
-16.9015
 11
-18.35
 21
-16.7108
  0
LINE
  8
0
 10
-18.35
 20
-16.7108
 11
-18.0606
 21
-16.5909
  0
LINE
  8
0
 10
-18.0606
 20
-16.5909
 11
-17.75
 21
-16.55
  0
LINE
  8
0
 10
-17.75
 20
-16.55
 11
-17.4394
 21
-16.5909
  0
LINE
  8
0
 10
-17.4394
 20
-16.5909
 11
-17.15
 21
-16.7108
  0
LINE
  8
0
 10
-17.15
 20
-16.7108
 11
-16.9015
 21
-16.9015
  0
LINE
  8
0
 10
-16.9015
 20
-16.9015
 11
-16.7108
 21
-17.15
  0
LINE
  8
0
 10
-16.7108
 20
-17.15
 11
-16.5909
 21
-17.4394
  0
LINE
  8
0
 10
-16.5909
 20
-17.4394
 11
-16.55
 21
-17.75
  0
LINE
  8
0
 10
-16.55
 20
-17.75
 11
-16.5909
 21
-18.0606
  0
LINE
  8
0
 10
-16.5909
 20
-18.0606
 11
-16.7108
 21
-18.35
  0
LINE
  8
0
 10
-16.7108
 20
-18.35
 11
-16.9015
 21
-18.5985
  0
LINE
  8
0
 10
-16.9015
 20
-18.5985
 11
-17.15
 21
-18.7892
  0
LINE
  8
0
 10
-17.15
 20
-18.7892
 11
-17.4394
 21
-18.9091
  0
LINE
  8
0
 10
-17.4394
 20
-18.9091
 11
-17.75
 21
-18.95
  0
LINE
  8
0
 10
-17.75
 20
-18.95
 11
-18.0606
 21
-18.9091
  0
LINE
  8
0
 10
-20.3106
 20
-21.1591
 11
-20.6
 21
-21.0392
  0
LINE
  8
0
 10
-20.6
 20
-21.0392
 11
-20.8485
 21
-20.8485
  0
LINE
  8
0
 10
-20.8485
 20
-20.8485
 11
-21.0392
 21
-20.6
  0
LINE
  8
0
 10
-21.0392
 20
-20.6
 11
-21.1591
 21
-20.3106
  0
LINE
  8
0
 10
-21.1591
 20
-20.3106
 11
-21.2
 21
-20
  0
LINE
  8
0
 10
-21.2
 20
-20
 11
-21.1591
 21
-19.6894
  0
LINE
  8
0
 10
-21.1591
 20
-19.6894
 11
-21.0392
 21
-19.4
  0
LINE
  8
0
 10
-21.0392
 20
-19.4
 11
-20.8485
 21
-19.1515
  0
LINE
  8
0
 10
-20.8485
 20
-19.1515
 11
-20.6
 21
-18.9608
  0
LINE
  8
0
 10
-20.6
 20
-18.9608
 11
-20.3106
 21
-18.8409
  0
LINE
  8
0
 10
-20.3106
 20
-18.8409
 11
-20
 21
-18.8
  0
LINE
  8
0
 10
-20
 20
-18.8
 11
-19.6894
 21
-18.8409
  0
LINE
  8
0
 10
-19.6894
 20
-18.8409
 11
-19.4
 21
-18.9608
  0
LINE
  8
0
 10
-19.4
 20
-18.9608
 11
-19.1515
 21
-19.1515
  0
LINE
  8
0
 10
-19.1515
 20
-19.1515
 11
-18.9608
 21
-19.4
  0
LINE
  8
0
 10
-18.9608
 20
-19.4
 11
-18.8409
 21
-19.6894
  0
LINE
  8
0
 10
-18.8409
 20
-19.6894
 11
-18.8
 21
-20
  0
LINE
  8
0
 10
-18.8
 20
-20
 11
-18.8409
 21
-20.3106
  0
LINE
  8
0
 10
-18.8409
 20
-20.3106
 11
-18.9608
 21
-20.6
  0
LINE
  8
0
 10
-18.9608
 20
-20.6
 11
-19.1515
 21
-20.8485
  0
LINE
  8
0
 10
-19.1515
 20
-20.8485
 11
-19.4
 21
-21.0392
  0
LINE
  8
0
 10
-19.4
 20
-21.0392
 11
-19.6894
 21
-21.1591
  0
LINE
  8
0
 10
-19.6894
 20
-21.1591
 11
-20
 21
-21.2
  0
LINE
  8
0
 10
-20
 20
-21.2
 11
-20.3106
 21
-21.1591
  0
LINE
  8
0
 10
19.6894
 20
-21.1591
 11
19.4
 21
-21.0392
  0
LINE
  8
0
 10
19.4
 20
-21.0392
 11
19.1515
 21
-20.8485
  0
LINE
  8
0
 10
19.1515
 20
-20.8485
 11
18.9608
 21
-20.6
  0
LINE
  8
0
 10
18.9608
 20
-20.6
 11
18.8409
 21
-20.3106
  0
LINE
  8
0
 10
18.8409
 20
-20.3106
 11
18.8
 21
-20
  0
LINE
  8
0
 10
18.8
 20
-20
 11
18.8409
 21
-19.6894
  0
LINE
  8
0
 10
18.8409
 20
-19.6894
 11
18.9608
 21
-19.4
  0
LINE
  8
0
 10
18.9608
 20
-19.4
 11
19.1515
 21
-19.1515
  0
LINE
  8
0
 10
19.1515
 20
-19.1515
 11
19.4
 21
-18.9608
  0
LINE
  8
0
 10
19.4
 20
-18.9608
 11
19.6894
 21
-18.8409
  0
LINE
  8
0
 10
19.6894
 20
-18.8409
 11
20
 21
-18.8
  0
LINE
  8
0
 10
20
 20
-18.8
 11
20.3106
 21
-18.8409
  0
LINE
  8
0
 10
20.3106
 20
-18.8409
 11
20.6
 21
-18.9608
  0
LINE
  8
0
 10
20.6
 20
-18.9608
 11
20.8485
 21
-19.1515
  0
LINE
  8
0
 10
20.8485
 20
-19.1515
 11
21.0392
 21
-19.4
  0
LINE
  8
0
 10
21.0392
 20
-19.4
 11
21.1591
 21
-19.6894
  0
LINE
  8
0
 10
21.1591
 20
-19.6894
 11
21.2
 21
-20
  0
LINE
  8
0
 10
21.2
 20
-20
 11
21.1591
 21
-20.3106
  0
LINE
  8
0
 10
21.1591
 20
-20.3106
 11
21.0392
 21
-20.6
  0
LINE
  8
0
 10
21.0392
 20
-20.6
 11
20.8485
 21
-20.8485
  0
LINE
  8
0
 10
20.8485
 20
-20.8485
 11
20.6
 21
-21.0392
  0
LINE
  8
0
 10
20.6
 20
-21.0392
 11
20.3106
 21
-21.1591
  0
LINE
  8
0
 10
20.3106
 20
-21.1591
 11
20
 21
-21.2
  0
LINE
  8
0
 10
20
 20
-21.2
 11
19.6894
 21
-21.1591
  0
LINE
  8
0
 10
14.9394
 20
-21.1591
 11
14.65
 21
-21.0392
  0
LINE
  8
0
 10
14.65
 20
-21.0392
 11
14.4015
 21
-20.8485
  0
LINE
  8
0
 10
14.4015
 20
-20.8485
 11
14.2108
 21
-20.6
  0
LINE
  8
0
 10
14.2108
 20
-20.6
 11
14.0909
 21
-20.3106
  0
LINE
  8
0
 10
14.0909
 20
-20.3106
 11
14.05
 21
-20
  0
LINE
  8
0
 10
14.05
 20
-20
 11
14.0909
 21
-19.6894
  0
LINE
  8
0
 10
14.0909
 20
-19.6894
 11
14.2108
 21
-19.4
  0
LINE
  8
0
 10
14.2108
 20
-19.4
 11
14.4015
 21
-19.1515
  0
LINE
  8
0
 10
14.4015
 20
-19.1515
 11
14.65
 21
-18.9608
  0
LINE
  8
0
 10
14.65
 20
-18.9608
 11
14.9394
 21
-18.8409
  0
LINE
  8
0
 10
14.9394
 20
-18.8409
 11
15.25
 21
-18.8
  0
LINE
  8
0
 10
15.25
 20
-18.8
 11
15.5606
 21
-18.8409
  0
LINE
  8
0
 10
15.5606
 20
-18.8409
 11
15.85
 21
-18.9608
  0
LINE
  8
0
 10
15.85
 20
-18.9608
 11
16.0985
 21
-19.1515
  0
LINE
  8
0
 10
16.0985
 20
-19.1515
 11
16.2892
 21
-19.4
  0
LINE
  8
0
 10
16.2892
 20
-19.4
 11
16.4091
 21
-19.6894
  0
LINE
  8
0
 10
16.4091
 20
-19.6894
 11
16.45
 21
-20
  0
LINE
  8
0
 10
16.45
 20
-20
 11
16.4091
 21
-20.3106
  0
LINE
  8
0
 10
16.4091
 20
-20.3106
 11
16.2892
 21
-20.6
  0
LINE
  8
0
 10
16.2892
 20
-20.6
 11
16.0985
 21
-20.8485
  0
LINE
  8
0
 10
16.0985
 20
-20.8485
 11
15.85
 21
-21.0392
  0
LINE
  8
0
 10
15.85
 20
-21.0392
 11
15.5606
 21
-21.1591
  0
LINE
  8
0
 10
15.5606
 20
-21.1591
 11
15.25
 21
-21.2
  0
LINE
  8
0
 10
15.25
 20
-21.2
 11
14.9394
 21
-21.1591
  0
LINE
  8
0
 10
-15.5606
 20
-21.1591
 11
-15.85
 21
-21.0392
  0
LINE
  8
0
 10
-15.85
 20
-21.0392
 11
-16.0985
 21
-20.8485
  0
LINE
  8
0
 10
-16.0985
 20
-20.8485
 11
-16.2892
 21
-20.6
  0
LINE
  8
0
 10
-16.2892
 20
-20.6
 11
-16.4091
 21
-20.3106
  0
LINE
  8
0
 10
-16.4091
 20
-20.3106
 11
-16.45
 21
-20
  0
LINE
  8
0
 10
-16.45
 20
-20
 11
-16.4091
 21
-19.6894
  0
LINE
  8
0
 10
-16.4091
 20
-19.6894
 11
-16.2892
 21
-19.4
  0
LINE
  8
0
 10
-16.2892
 20
-19.4
 11
-16.0985
 21
-19.1515
  0
LINE
  8
0
 10
-16.0985
 20
-19.1515
 11
-15.85
 21
-18.9608
  0
LINE
  8
0
 10
-15.85
 20
-18.9608
 11
-15.5606
 21
-18.8409
  0
LINE
  8
0
 10
-15.5606
 20
-18.8409
 11
-15.25
 21
-18.8
  0
LINE
  8
0
 10
-15.25
 20
-18.8
 11
-14.9394
 21
-18.8409
  0
LINE
  8
0
 10
-14.9394
 20
-18.8409
 11
-14.65
 21
-18.9608
  0
LINE
  8
0
 10
-14.65
 20
-18.9608
 11
-14.4015
 21
-19.1515
  0
LINE
  8
0
 10
-14.4015
 20
-19.1515
 11
-14.2108
 21
-19.4
  0
LINE
  8
0
 10
-14.2108
 20
-19.4
 11
-14.0909
 21
-19.6894
  0
LINE
  8
0
 10
-14.0909
 20
-19.6894
 11
-14.05
 21
-20
  0
LINE
  8
0
 10
-14.05
 20
-20
 11
-14.0909
 21
-20.3106
  0
LINE
  8
0
 10
-14.0909
 20
-20.3106
 11
-14.2108
 21
-20.6
  0
LINE
  8
0
 10
-14.2108
 20
-20.6
 11
-14.4015
 21
-20.8485
  0
LINE
  8
0
 10
-14.4015
 20
-20.8485
 11
-14.65
 21
-21.0392
  0
LINE
  8
0
 10
-14.65
 20
-21.0392
 11
-14.9394
 21
-21.1591
  0
LINE
  8
0
 10
-14.9394
 20
-21.1591
 11
-15.25
 21
-21.2
  0
LINE
  8
0
 10
-15.25
 20
-21.2
 11
-15.5606
 21
-21.1591
  0
LINE
  8
0
 10
64.4844
 20
-67.1789
 11
63.9538
 21
-66.9591
  0
LINE
  8
0
 10
63.9538
 20
-66.9591
 11
63.4982
 21
-66.6095
  0
LINE
  8
0
 10
63.4982
 20
-66.6095
 11
63.1486
 21
-66.1538
  0
LINE
  8
0
 10
63.1486
 20
-66.1538
 11
62.9288
 21
-65.6232
  0
LINE
  8
0
 10
62.9288
 20
-65.6232
 11
62.8538
 21
-65.0538
  0
LINE
  8
0
 10
62.8538
 20
-65.0538
 11
62.9288
 21
-64.4844
  0
LINE
  8
0
 10
62.9288
 20
-64.4844
 11
63.1486
 21
-63.9538
  0
LINE
  8
0
 10
63.1486
 20
-63.9538
 11
63.4982
 21
-63.4982
  0
LINE
  8
0
 10
63.4982
 20
-63.4982
 11
63.9538
 21
-63.1486
  0
LINE
  8
0
 10
63.9538
 20
-63.1486
 11
64.4844
 21
-62.9288
  0
LINE
  8
0
 10
64.4844
 20
-62.9288
 11
65.0538
 21
-62.8538
  0
LINE
  8
0
 10
65.0538
 20
-62.8538
 11
65.6232
 21
-62.9288
  0
LINE
  8
0
 10
65.6232
 20
-62.9288
 11
66.1538
 21
-63.1486
  0
LINE
  8
0
 10
66.1538
 20
-63.1486
 11
66.6095
 21
-63.4982
  0
LINE
  8
0
 10
66.6095
 20
-63.4982
 11
66.9591
 21
-63.9538
  0
LINE
  8
0
 10
66.9591
 20
-63.9538
 11
67.1789
 21
-64.4844
  0
LINE
  8
0
 10
67.1789
 20
-64.4844
 11
67.2538
 21
-65.0538
  0
LINE
  8
0
 10
67.2538
 20
-65.0538
 11
67.1789
 21
-65.6232
  0
LINE
  8
0
 10
67.1789
 20
-65.6232
 11
66.9591
 21
-66.1538
  0
LINE
  8
0
 10
66.9591
 20
-66.1538
 11
66.6095
 21
-66.6095
  0
LINE
  8
0
 10
66.6095
 20
-66.6095
 11
66.1538
 21
-66.9591
  0
LINE
  8
0
 10
66.1538
 20
-66.9591
 11
65.6232
 21
-67.1789
  0
LINE
  8
0
 10
65.6232
 20
-67.1789
 11
65.0538
 21
-67.2538
  0
LINE
  8
0
 10
65.0538
 20
-67.2538
 11
64.4844
 21
-67.1789
  0
LINE
  8
0
 10
-65.6232
 20
-67.1789
 11
-66.1538
 21
-66.9591
  0
LINE
  8
0
 10
-66.1538
 20
-66.9591
 11
-66.6095
 21
-66.6095
  0
LINE
  8
0
 10
-66.6095
 20
-66.6095
 11
-66.9591
 21
-66.1538
  0
LINE
  8
0
 10
-66.9591
 20
-66.1538
 11
-67.1789
 21
-65.6232
  0
LINE
  8
0
 10
-67.1789
 20
-65.6232
 11
-67.2538
 21
-65.0538
  0
LINE
  8
0
 10
-67.2538
 20
-65.0538
 11
-67.1789
 21
-64.4844
  0
LINE
  8
0
 10
-67.1789
 20
-64.4844
 11
-66.9591
 21
-63.9538
  0
LINE
  8
0
 10
-66.9591
 20
-63.9538
 11
-66.6095
 21
-63.4982
  0
LINE
  8
0
 10
-66.6095
 20
-63.4982
 11
-66.1538
 21
-63.1486
  0
LINE
  8
0
 10
-66.1538
 20
-63.1486
 11
-65.6232
 21
-62.9288
  0
LINE
  8
0
 10
-65.6232
 20
-62.9288
 11
-65.0538
 21
-62.8538
  0
LINE
  8
0
 10
-65.0538
 20
-62.8538
 11
-64.4844
 21
-62.9288
  0
LINE
  8
0
 10
-64.4844
 20
-62.9288
 11
-63.9538
 21
-63.1486
  0
LINE
  8
0
 10
-63.9538
 20
-63.1486
 11
-63.4982
 21
-63.4982
  0
LINE
  8
0
 10
-63.4982
 20
-63.4982
 11
-63.1486
 21
-63.9538
  0
LINE
  8
0
 10
-63.1486
 20
-63.9538
 11
-62.9288
 21
-64.4844
  0
LINE
  8
0
 10
-62.9288
 20
-64.4844
 11
-62.8538
 21
-65.0538
  0
LINE
  8
0
 10
-62.8538
 20
-65.0538
 11
-62.9288
 21
-65.6232
  0
LINE
  8
0
 10
-62.9288
 20
-65.6232
 11
-63.1486
 21
-66.1538
  0
LINE
  8
0
 10
-63.1486
 20
-66.1538
 11
-63.4982
 21
-66.6095
  0
LINE
  8
0
 10
-63.4982
 20
-66.6095
 11
-63.9538
 21
-66.9591
  0
LINE
  8
0
 10
-63.9538
 20
-66.9591
 11
-64.4844
 21
-67.1789
  0
LINE
  8
0
 10
-64.4844
 20
-67.1789
 11
-65.0538
 21
-67.2538
  0
LINE
  8
0
 10
-65.0538
 20
-67.2538
 11
-65.6232
 21
-67.1789
  0
LINE
  8
0
 10
60.2432
 20
-66.2129
 11
59.9538
 21
-66.093
  0
LINE
  8
0
 10
59.9538
 20
-66.093
 11
59.7053
 21
-65.9023
  0
LINE
  8
0
 10
59.7053
 20
-65.9023
 11
59.5146
 21
-65.6538
  0
LINE
  8
0
 10
59.5146
 20
-65.6538
 11
59.3947
 21
-65.3644
  0
LINE
  8
0
 10
59.3947
 20
-65.3644
 11
59.3538
 21
-65.0538
  0
LINE
  8
0
 10
59.3538
 20
-65.0538
 11
59.3947
 21
-64.7432
  0
LINE
  8
0
 10
59.3947
 20
-64.7432
 11
59.5146
 21
-64.4538
  0
LINE
  8
0
 10
59.5146
 20
-64.4538
 11
59.7053
 21
-64.2053
  0
LINE
  8
0
 10
59.7053
 20
-64.2053
 11
59.9538
 21
-64.0146
  0
LINE
  8
0
 10
59.9538
 20
-64.0146
 11
60.2432
 21
-63.8947
  0
LINE
  8
0
 10
60.2432
 20
-63.8947
 11
60.5538
 21
-63.8538
  0
LINE
  8
0
 10
60.5538
 20
-63.8538
 11
60.8644
 21
-63.8947
  0
LINE
  8
0
 10
60.8644
 20
-63.8947
 11
61.1538
 21
-64.0146
  0
LINE
  8
0
 10
61.1538
 20
-64.0146
 11
61.4023
 21
-64.2053
  0
LINE
  8
0
 10
61.4023
 20
-64.2053
 11
61.593
 21
-64.4538
  0
LINE
  8
0
 10
61.593
 20
-64.4538
 11
61.7129
 21
-64.7432
  0
LINE
  8
0
 10
61.7129
 20
-64.7432
 11
61.7538
 21
-65.0538
  0
LINE
  8
0
 10
61.7538
 20
-65.0538
 11
61.7129
 21
-65.3644
  0
LINE
  8
0
 10
61.7129
 20
-65.3644
 11
61.593
 21
-65.6538
  0
LINE
  8
0
 10
61.593
 20
-65.6538
 11
61.4023
 21
-65.9023
  0
LINE
  8
0
 10
61.4023
 20
-65.9023
 11
61.1538
 21
-66.093
  0
LINE
  8
0
 10
61.1538
 20
-66.093
 11
60.8644
 21
-66.2129
  0
LINE
  8
0
 10
60.8644
 20
-66.2129
 11
60.5538
 21
-66.2538
  0
LINE
  8
0
 10
60.5538
 20
-66.2538
 11
60.2432
 21
-66.2129
  0
LINE
  8
0
 10
-60.8644
 20
-66.2129
 11
-61.1538
 21
-66.093
  0
LINE
  8
0
 10
-61.1538
 20
-66.093
 11
-61.4023
 21
-65.9023
  0
LINE
  8
0
 10
-61.4023
 20
-65.9023
 11
-61.593
 21
-65.6538
  0
LINE
  8
0
 10
-61.593
 20
-65.6538
 11
-61.7129
 21
-65.3644
  0
LINE
  8
0
 10
-61.7129
 20
-65.3644
 11
-61.7538
 21
-65.0538
  0
LINE
  8
0
 10
-61.7538
 20
-65.0538
 11
-61.7129
 21
-64.7432
  0
LINE
  8
0
 10
-61.7129
 20
-64.7432
 11
-61.593
 21
-64.4538
  0
LINE
  8
0
 10
-61.593
 20
-64.4538
 11
-61.4023
 21
-64.2053
  0
LINE
  8
0
 10
-61.4023
 20
-64.2053
 11
-61.1538
 21
-64.0146
  0
LINE
  8
0
 10
-61.1538
 20
-64.0146
 11
-60.8644
 21
-63.8947
  0
LINE
  8
0
 10
-60.8644
 20
-63.8947
 11
-60.5538
 21
-63.8538
  0
LINE
  8
0
 10
-60.5538
 20
-63.8538
 11
-60.2432
 21
-63.8947
  0
LINE
  8
0
 10
-60.2432
 20
-63.8947
 11
-59.9538
 21
-64.0146
  0
LINE
  8
0
 10
-59.9538
 20
-64.0146
 11
-59.7053
 21
-64.2053
  0
LINE
  8
0
 10
-59.7053
 20
-64.2053
 11
-59.5146
 21
-64.4538
  0
LINE
  8
0
 10
-59.5146
 20
-64.4538
 11
-59.3947
 21
-64.7432
  0
LINE
  8
0
 10
-59.3947
 20
-64.7432
 11
-59.3538
 21
-65.0538
  0
LINE
  8
0
 10
-59.3538
 20
-65.0538
 11
-59.3947
 21
-65.3644
  0
LINE
  8
0
 10
-59.3947
 20
-65.3644
 11
-59.5146
 21
-65.6538
  0
LINE
  8
0
 10
-59.5146
 20
-65.6538
 11
-59.7053
 21
-65.9023
  0
LINE
  8
0
 10
-59.7053
 20
-65.9023
 11
-59.9538
 21
-66.093
  0
LINE
  8
0
 10
-59.9538
 20
-66.093
 11
-60.2432
 21
-66.2129
  0
LINE
  8
0
 10
-60.2432
 20
-66.2129
 11
-60.5538
 21
-66.2538
  0
LINE
  8
0
 10
-60.5538
 20
-66.2538
 11
-60.8644
 21
-66.2129
  0
LINE
  8
0
 10
69.2432
 20
-66.2129
 11
68.9538
 21
-66.093
  0
LINE
  8
0
 10
68.9538
 20
-66.093
 11
68.7053
 21
-65.9023
  0
LINE
  8
0
 10
68.7053
 20
-65.9023
 11
68.5146
 21
-65.6538
  0
LINE
  8
0
 10
68.5146
 20
-65.6538
 11
68.3947
 21
-65.3644
  0
LINE
  8
0
 10
68.3947
 20
-65.3644
 11
68.3538
 21
-65.0538
  0
LINE
  8
0
 10
68.3538
 20
-65.0538
 11
68.3947
 21
-64.7432
  0
LINE
  8
0
 10
68.3947
 20
-64.7432
 11
68.5146
 21
-64.4538
  0
LINE
  8
0
 10
68.5146
 20
-64.4538
 11
68.7053
 21
-64.2053
  0
LINE
  8
0
 10
68.7053
 20
-64.2053
 11
68.9538
 21
-64.0146
  0
LINE
  8
0
 10
68.9538
 20
-64.0146
 11
69.2432
 21
-63.8947
  0
LINE
  8
0
 10
69.2432
 20
-63.8947
 11
69.5538
 21
-63.8538
  0
LINE
  8
0
 10
69.5538
 20
-63.8538
 11
69.8644
 21
-63.8947
  0
LINE
  8
0
 10
69.8644
 20
-63.8947
 11
70.1538
 21
-64.0146
  0
LINE
  8
0
 10
70.1538
 20
-64.0146
 11
70.4023
 21
-64.2053
  0
LINE
  8
0
 10
70.4023
 20
-64.2053
 11
70.593
 21
-64.4538
  0
LINE
  8
0
 10
70.593
 20
-64.4538
 11
70.7129
 21
-64.7432
  0
LINE
  8
0
 10
70.7129
 20
-64.7432
 11
70.7538
 21
-65.0538
  0
LINE
  8
0
 10
70.7538
 20
-65.0538
 11
70.7129
 21
-65.3644
  0
LINE
  8
0
 10
70.7129
 20
-65.3644
 11
70.593
 21
-65.6538
  0
LINE
  8
0
 10
70.593
 20
-65.6538
 11
70.4023
 21
-65.9023
  0
LINE
  8
0
 10
70.4023
 20
-65.9023
 11
70.1538
 21
-66.093
  0
LINE
  8
0
 10
70.1538
 20
-66.093
 11
69.8644
 21
-66.2129
  0
LINE
  8
0
 10
69.8644
 20
-66.2129
 11
69.5538
 21
-66.2538
  0
LINE
  8
0
 10
69.5538
 20
-66.2538
 11
69.2432
 21
-66.2129
  0
LINE
  8
0
 10
-69.8644
 20
-66.2129
 11
-70.1538
 21
-66.093
  0
LINE
  8
0
 10
-70.1538
 20
-66.093
 11
-70.4023
 21
-65.9023
  0
LINE
  8
0
 10
-70.4023
 20
-65.9023
 11
-70.593
 21
-65.6538
  0
LINE
  8
0
 10
-70.593
 20
-65.6538
 11
-70.7129
 21
-65.3644
  0
LINE
  8
0
 10
-70.7129
 20
-65.3644
 11
-70.7538
 21
-65.0538
  0
LINE
  8
0
 10
-70.7538
 20
-65.0538
 11
-70.7129
 21
-64.7432
  0
LINE
  8
0
 10
-70.7129
 20
-64.7432
 11
-70.593
 21
-64.4538
  0
LINE
  8
0
 10
-70.593
 20
-64.4538
 11
-70.4023
 21
-64.2053
  0
LINE
  8
0
 10
-70.4023
 20
-64.2053
 11
-70.1538
 21
-64.0146
  0
LINE
  8
0
 10
-70.1538
 20
-64.0146
 11
-69.8644
 21
-63.8947
  0
LINE
  8
0
 10
-69.8644
 20
-63.8947
 11
-69.5538
 21
-63.8538
  0
LINE
  8
0
 10
-69.5538
 20
-63.8538
 11
-69.2432
 21
-63.8947
  0
LINE
  8
0
 10
-69.2432
 20
-63.8947
 11
-68.9538
 21
-64.0146
  0
LINE
  8
0
 10
-68.9538
 20
-64.0146
 11
-68.7053
 21
-64.2053
  0
LINE
  8
0
 10
-68.7053
 20
-64.2053
 11
-68.5146
 21
-64.4538
  0
LINE
  8
0
 10
-68.5146
 20
-64.4538
 11
-68.3947
 21
-64.7432
  0
LINE
  8
0
 10
-68.3947
 20
-64.7432
 11
-68.3538
 21
-65.0538
  0
LINE
  8
0
 10
-68.3538
 20
-65.0538
 11
-68.3947
 21
-65.3644
  0
LINE
  8
0
 10
-68.3947
 20
-65.3644
 11
-68.5146
 21
-65.6538
  0
LINE
  8
0
 10
-68.5146
 20
-65.6538
 11
-68.7053
 21
-65.9023
  0
LINE
  8
0
 10
-68.7053
 20
-65.9023
 11
-68.9538
 21
-66.093
  0
LINE
  8
0
 10
-68.9538
 20
-66.093
 11
-69.2432
 21
-66.2129
  0
LINE
  8
0
 10
-69.2432
 20
-66.2129
 11
-69.5538
 21
-66.2538
  0
LINE
  8
0
 10
-69.5538
 20
-66.2538
 11
-69.8644
 21
-66.2129
  0
ENDSEC
  0
SECTION
  2
OBJECTS
  0
DICTIONARY
  0
ENDSEC
  0
EOF
