0
SECTION
2
HEADER
9
$INSUNITS
70
4
9
$ACADVER
1
AC1014
9
$HANDSEED
5
FFFF
0
ENDSEC
0
SECTION
2
TABLES
0
TABLE
2
VPORT
5
8
100
AcDbSymbolTable
0
ENDTAB
0
TABLE
2
LTYPE
5
5
100
AcDbSymbolTable
0
LTYPE
5
14
100
AcDbSymbolTableRecord
100
AcDbLinetypeTableRecord
2
BYBLOCK
70
0
0
LTYPE
5
15
100
AcDbSymbolTableRecord
100
AcDbLinetypeTableRecord
2
BYLAYER
70
0
0
ENDTAB
0
TABLE
2
LAYER
5
2
100
AcDbSymbolTable
70
2
0
LAYER
5
50
100
AcDbSymbolTableRecord
100
AcDbLayerTableRecord
2
0
70
0
6
CONTINUOUS
0
ENDTAB
0
TABLE
2
STYLE
5
3
100
AcDbSymbolTable
70
1
0
STYLE
5
11
100
AcDbSymbolTableRecord
100
AcDbTextStyleTableRecord
2
STANDARD
70
0
0
ENDTAB
0
TABLE
2
VIEW
5
6
100
AcDbSymbolTable
70
0
0
ENDTAB
0
TABLE
2
UCS
5
7
100
AcDbSymbolTable
70
0
0
ENDTAB
0
TABLE
2
APPID
5
9
100
AcDbSymbolTable
70
2
0
APPID
5
12
100
AcDbSymbolTableRecord
100
AcDbRegAppTableRecord
2
ACAD
70
0
0
ENDTAB
0
TABLE
2
DIMSTYLE
5
A
100
AcDbSymbolTable
70
1
0
ENDTAB
0
TABLE
2
BLOCK_RECORD
5
1
100
AcDbSymbolTable
70
1
0
BLOCK_RECORD
5
1F
100
AcDbSymbolTableRecord
100
AcDbBlockTableRecord
2
*MODEL_SPACE
0
BLOCK_RECORD
5
1B
100
AcDbSymbolTableRecord
100
AcDbBlockTableRecord
2
*PAPER_SPACE
0
ENDTAB
0
ENDSEC
0
SECTION
2
BLOCKS
0
BLOCK
5
20
100
AcDbEntity
100
AcDbBlockBegin
2
*MODEL_SPACE
0
ENDBLK
5
21
100
AcDbEntity
100
AcDbBlockEnd
0
BLOCK
5
1C
100
AcDbEntity
100
AcDbBlockBegin
2
*PAPER_SPACE
0
ENDBLK
5
1D
100
AcDbEntity
100
AcDbBlockEnd
0
ENDSEC
0
SECTION
2
ENTITIES
0
LWPOLYLINE
5
100
100
AcDbEntity
8
0
100
AcDbPolyline
90
24
70
1
43
0.0
10
14.216856545035307
20
-14.189015144537541
10
13.978478611138481
20
-14.499675316317386
10
13.828627977381533
20
-14.861446748663594
10
13.77751671681513
20
-15.249675316317393
10
13.828627977381533
20
-15.637903883971141
10
13.978478611138481
20
-15.999675316317353
10
14.216856545035307
20
-16.310335488097188
10
14.527516716815121
20
-16.548713421994027
10
14.88928814916135
20
-16.698564055750992
10
15.277516716815134
20
-16.749675316317362
10
15.66574528446891
20
-16.698564055750992
10
16.027516716815118
20
-16.548713421994027
10
16.338176888594948
20
-16.310335488097188
10
16.576554822491779
20
-15.999675316317353
10
16.726405456248731
20
-15.637903883971141
10
16.777516716815121
20
-15.249675316317393
10
16.726405456248731
20
-14.861446748663594
10
16.576554822491779
20
-14.499675316317386
10
16.338176888594948
20
-14.189015144537541
10
16.027516716815139
20
-13.950637210640712
10
15.66574528446891
20
-13.800786576883787
10
15.277516716815134
20
-13.749675316317374
10
14.88928814916135
20
-13.800786576883787
10
14.527516716815141
20
-13.950637210640712
0
LWPOLYLINE
5
101
100
AcDbEntity
8
0
100
AcDbPolyline
90
24
70
1
43
0.0
10
11.527248924257119
20
9.999933588421877
10
11.476141327159109
20
10.388162638362813
10
11.326294107215787
20
10.74993548473808
10
11.087919104832061
20
11.060597905925052
10
10.777261182487042
20
11.29897877131379
10
10.415491164202082
20
11.448832818870985
10
10.027263078870055
20
11.49994774290124
10
9.6390340289290872
20
11.44884014580323
10
9.2772611825538398
20
11.29899292585992
10
8.9665987613668516
20
11.060617923476171
10
8.7282178959781636
20
10.749960001131161
10
8.5783638484209277
20
10.388189982846184
10
8.527248924390685
20
9.9999618975141722
10
8.578356521488697
20
9.6117328475731849
10
8.7282037414320115
20
9.2499600011979659
10
8.9665787438157345
20
8.9392975800109529
10
9.2772366661607357
20
8.7009167146222559
10
9.6390066844457181
20
8.5510626670650218
10
10.027234769777749
20
8.4999477430348023
10
10.415463819718713
20
8.551055340132816
10
10.777236666093961
20
8.7009025600761305
10
11.087899087280933
20
8.9392775624598357
10
11.326279952669651
20
9.2499354848048831
10
11.476134000226883
20
9.6117055030898211
0
LWPOLYLINE
5
102
100
AcDbEntity
8
0
100
AcDbPolyline
90
24
70
1
43
0.0
10
-13.923980760967494
20
-14.499863528418084
10
-14.162358694864334
20
-14.189203356638245
10
-14.473018866644152
20
-13.950825422741424
10
-14.83479029899037
20
-13.800974788984439
10
-15.223018866644153
20
-13.749863528418071
10
-15.611247434297928
20
-13.800974788984439
10
-15.973018866644153
20
-13.950825422741424
10
-16.283679038423969
20
-14.189203356638245
10
-16.522056972320801
20
-14.499863528418084
10
-16.671907606077749
20
-14.86163496076429
10
-16.72301886664415
20
-15.249863528418039
10
-16.671907606077749
20
-15.638092096071848
10
-16.522056972320801
20
-15.999863528418066
10
-16.283679038423969
20
-16.310523700197891
10
-15.973018866644153
20
-16.548901634094719
10
-15.611247434297928
20
-16.698752267851653
10
-15.223018866644153
20
-16.749863528418061
10
-14.83479029899037
20
-16.698752267851653
10
-14.473018866644152
20
-16.548901634094719
10
-14.162358694864334
20
-16.310523700197891
10
-13.923980760967504
20
-15.999863528418066
10
-13.774130127210553
20
-15.638092096071848
10
-13.723018866644152
20
-15.249863528418039
10
-13.774130127210553
20
-14.86163496076429
0
LWPOLYLINE
5
103
100
AcDbEntity
8
0
100
AcDbPolyline
90
24
70
1
43
0.0
10
10.777269797916482
20
-11.298568217778289
10
11.087926139262819
20
-11.06018529204637
10
11.326299081263061
20
-10.749521289913282
10
11.476143901849758
20
-10.387747449727859
10
11.527248924130241
20
-9.999518060839133
10
11.47613142529114
20
-9.6112903145205113
10
11.326274978402653
20
-9.2495212901069568
10
11.087892052670753
20
-8.938864948760596
10
10.777228050537662
20
-8.7004920067604061
10
10.415454210352221
20
-8.550647186173661
10
10.027224821463491
20
-8.4995421638931923
10
9.6389970751448963
20
-8.5506596627322971
10
9.277228050731317
20
-8.700516109620791
10
8.966571709384981
20
-8.9388990353526641
10
8.7281987673847503
20
-9.2495630374857569
10
8.5783539467980496
20
-9.6113368776712189
10
8.5272489245175613
20
-9.9995662665599436
10
8.5783664233566643
20
-10.387794012878519
10
8.7282228702451583
20
-10.749563037292118
10
8.9666057959770455
20
-11.06021937863844
10
9.2772697981101366
20
-11.298592320638672
10
9.6390436382955826
20
-11.448437141225368
10
10.027273027184307
20
-11.499542163505881
10
10.415500773502904
20
-11.448424664666781
0
LWPOLYLINE
5
104
100
AcDbEntity
8
0
100
AcDbPolyline
90
24
70
1
43
0.0
10
-8.5237385046164409
20
10.387811296629064
10
-8.6735973505888992
20
10.74957932725502
10
-8.9119823364468136
20
11.060234087747618
10
-9.2226479193537756
20
11.298604969560561
10
-9.5844227532338238
20
11.44844739102478
10
-9.9726524810192103
20
11.499549838743787
10
-10.360879888341341
20
11.448429765356323
10
-10.722647918967301
20
11.298570919383881
10
-11.033302679459913
20
11.060185933525943
10
-11.271673561272831
20
10.74952035061899
10
-11.421515982737038
20
10.387745516738931
10
-11.472618430456052
20
9.9995157889535768
10
-11.4214983570686
20
9.611288381631427
10
-11.271639511096144
20
9.2495203510054598
10
-11.033254525238235
20
8.9388655905128687
10
-10.722588942331274
20
8.7004947086999671
10
-10.360814108451212
20
8.5506522872357156
10
-9.9725843806658307
20
8.4995498395167388
10
-9.5843569733437093
20
8.5506699129041621
10
-9.2225889427177403
20
8.7005287588766116
10
-8.911934182225135
20
8.938913744734549
10
-8.6735633004122104
20
9.2495793276414968
10
-8.5237208789479979
20
9.6113541615215592
10
-8.4726184312289927
20
9.9995838893069564
0
LWPOLYLINE
5
105
100
AcDbEntity
8
0
100
AcDbPolyline
90
24
70
1
43
0.0
10
28.96658875254408
20
-11.06020233547936
10
29.27724892432391
20
-11.298580269376199
10
29.63902035667013
20
-11.44843090313314
10
30.027248924323917
20
-11.499542163699539
10
30.4154774919777
20
-11.44843090313314
10
30.77724892432391
20
-11.298580269376199
10
31.087909096103733
20
-11.06020233547936
10
31.326287030000557
20
-10.749542163699539
10
31.47613766375752
20
-10.387770731353321
10
31.527248924323921
20
-9.9995421636995392
10
31.47613766375752
20
-9.6113135960457576
10
31.326287030000557
20
-9.249542163699541
10
31.087909096103733
20
-8.9388819919197218
10
30.77724892432391
20
-8.700504058022883
10
30.4154774919777
20
-8.5506534242659384
10
30.027248924323917
20
-8.4995421636995427
10
29.63902035667013
20
-8.5506534242659384
10
29.27724892432391
20
-8.700504058022883
10
28.96658875254408
20
-8.9388819919197218
10
28.728210818647266
20
-9.249542163699541
10
28.578360184890311
20
-9.6113135960457576
10
28.527248924323917
20
-9.9995421636995392
10
28.578360184890311
20
-10.387770731353321
10
28.728210818647266
20
-10.749542163699539
0
LINE
5
106
100
AcDbEntity
8
0
100
AcDbLine
10
31.615566466275865
20
16.26806170624554
30
0
11
31.396906033341896
21
15.94911909102537
31
0
0
LWPOLYLINE
5
107
100
AcDbEntity
8
0
100
AcDbPolyline
90
188
70
1
43
0.0
10
-24.995193035545611
20
-2.037233155436811
10
-24.507363794335308
20
-1.392851361963251
10
-24.071325091718947
20
-0.71235484164833596
10
-23.689738086353675
20
0.00010331268523136594
10
-24.071701514012709
20
0.71262778248946246
10
-24.507740216629081
20
1.393124302804378
10
-24.99556945783937
20
2.0375060962779834
10
-25.53221199961245
20
2.6418404794627648
10
-26.114392694725641
20
3.2024391795839557
10
-26.738558475096831
20
3.7158808441902731
10
-27.400900036276621
20
4.1790319217815046
10
-28.097375085759939
20
4.5890657859772688
10
-28.97920198619471
20
5.004821460984922
10
-31.137025593400487
20
5.6531488862398245
10
-36.973227505851327
20
7.8353277470189164
10
-37.490990709759679
20
8.2326291893334567
10
-37.888282380399225
20
8.7503998913117051
10
-38.138027746971431
20
9.3533546352704668
10
-38.223207075468089
20
10.000403051838759
10
-38.138015535417708
20
10.64744986072543
10
-37.888258789488994
20
11.250399891200411
10
-37.490957347174465
20
11.768163095108779
10
-36.973186645196172
20
12.165454765748329
10
-32.22233989043913
20
13.89692942157061
10
-31.957018351629767
20
13.98447012878661
10
-31.63963299406339
20
14.222825879445161
10
-31.394753288084196
20
14.535205230025632
10
-31.239067380971779
20
14.900320044017242
10
-31.183185010012764
20
15.293288350227227
10
-31.230914466437987
20
15.68733000799817
10
-31.379003066668769
20
16.05559172953766
10
-31.560649154784414
20
16.267873601227848
10
-35.22559136493765
20
20.458004239604929
42
-0.50290483701714095
10
-28.695046429894532
20
29.25013646925909
10
-28.347008058691721
20
29.204316348433981
10
-28.022687927325784
20
29.069978551471557
10
-17.473395288937922
20
19.147250786289042
10
-16.388080991899269
20
19.59680268755988
10
-15.22339528893793
20
19.75013646925909
10
-14.058709585976581
20
19.59680268755988
10
-12.973395288937919
20
19.147250786289042
10
-12.041414773598449
20
18.432116984598519
10
-11.326280971907954
20
17.500136469259051
10
-10.876729070637117
20
16.414822172220429
10
-10.723395288937921
20
15.250136469259072
10
-9.1185420508414161
20
14.205479985064368
10
-7.413113917931903
20
13.334632139984867
10
-5.6258656141416621
20
12.647169714540581
10
-3.7764516460952868
20
12.150652785731602
10
-1.8852101609934491
20
11.850541588291971
10
0.027060713551250726
20
11.7501364680693
10
1.9393315881181707
20
11.850541587868662
10
3.8305730732864252
20
12.150652784889724
10
5.6799870414427112
20
12.647169713289284
10
7.4672353453851166
20
13.33463213833797
10
9.1726634784874044
20
14.205479983039989
10
10.777516716815141
20
15.250136466879473
10
10.930850498514321
20
16.414822169840832
10
11.380402399785162
20
17.50013646687945
10
12.09553620147566
20
18.432116982218922
10
13.02751671681512
20
19.147250783909442
10
14.112831013853793
20
19.596802685180279
10
15.277516716815134
20
19.750136466879489
10
16.442202419776489
20
19.596802685180279
10
17.527516716815139
20
19.147250783909442
10
27.867560381799162
20
28.724940053860031
10
28.238930328582697
20
29.009902236551355
10
28.67139979130301
20
29.189036953322322
10
29.135496690765287
20
29.25013646925909
42
-0.50785864568230488
10
35.47384401421499
20
20.574559065224523
10
31.396906033341896
20
15.94911909102537
10
31.268244697097231
20
15.584450697426393
10
31.238350514984017
20
15.198908073829321
10
31.309260726110768
20
14.818765312892985
10
31.47614291677386
20
14.469928515559589
10
31.727624341465521
20
14.176170333087343
10
31.917207338023221
20
14.046196168062073
10
32.717541090449792
20
13.55921399833389
10
33.209229439663375
20
13.181928258307501
10
33.92436324135388
20
12.249947742968033
10
34.373915142624718
20
11.164633445929361
10
34.527248924323892
20
9.9999477429680006
10
34.373915142624718
20
8.8352620400066879
10
33.92436324135388
20
7.7499477429680175
10
33.705257672932412
20
7.4436837062541494
10
33.650563799252161
20
7.393125362951265
10
33.451644509521863
20
7.1387479603193569
10
33.20922943966336
20
6.8179672276286665
10
32.277248924323899
20
6.1028334259381536
10
31.191934627285253
20
5.6532815246673183
10
29.034111020079454
20
5.0049540994124166
10
28.878642047115637
20
4.9436126249387158
10
28.152284119644687
20
4.5891984244047288
10
27.587534145626034
20
3.953283384848409
10
27.111419487366891
20
3.2485527250366331
10
26.73222839620227
20
2.487274466402277
10
26.456561868369267
20
1.6827010166039
10
26.28921873420779
20
0.84883847029486426
10
26.233112119644694
20
0.00020278963428724261
10
26.2892187342078
20
-0.84843289102629005
10
26.45656186836927
20
-1.6822954373353205
10
26.732228396202284
20
-2.4868688871336966
10
27.111419487366906
20
-3.2481471457680526
10
27.587534145626051
20
-3.9528778055798286
10
28.152284119644694
20
-4.5887928451361422
10
28.878642047115655
20
-4.94320704567013
10
29.034111020079472
20
-5.0045485201438291
10
31.191934627285271
20
-5.6528759453987334
10
32.277248924323914
20
-6.1024278466695669
10
33.209229439663375
20
-6.8175616483600798
10
33.92436324135388
20
-7.749542163699533
10
34.373915142624718
20
-8.834856460738159
10
34.527248924323892
20
-9.9995421636995161
10
34.373915142624718
20
-11.16422786666087
10
33.92436324135388
20
-12.249542163699553
10
33.209229439663375
20
-13.181522679039013
10
32.277248924323914
20
-13.89665648072949
10
31.916752069343861
20
-14.045979167255087
10
31.727591009427172
20
-14.17566767758354
10
31.47610857809493
20
-14.469434769074693
10
31.309227720915452
20
-14.818280432397319
10
31.238321092521826
20
-15.198431412090693
10
31.268220862460371
20
-15.583981047117884
10
31.396889410821505
20
-15.948654767002681
10
31.615558188669191
20
-16.267600660386734
10
35.47384401421499
20
-20.562529355722457
42
-0.48886540491332781
10
28.730867192266754
20
-29.223728536426883
10
28.287170555599612
20
-29.058773797888769
10
27.901285943118772
20
-28.784602615948653
10
17.527516716815139
20
-19.14678963334736
10
16.442202419776461
20
-19.59634153461819
10
15.277516716815134
20
-19.749675316317401
10
14.112831013853793
20
-19.59634153461819
10
13.02751671681512
20
-19.14678963334736
10
12.09553620147566
20
-18.43165583165684
10
11.380402399785162
20
-17.499675316317369
10
10.930850498514321
20
-16.414361019278758
10
10.777516716815141
20
-15.249675316317393
10
9.1726903379536608
20
-14.205031274796742
10
7.467288723634141
20
-13.334195920869014
10
5.680066919772103
20
-12.646746211017925
10
3.830679784619913
20
-12.150242329756473
10
1.9394658357115868
20
-11.85014454697772
10
0.027223578308349372
20
-11.749753168983712
10
-1.8850172248417385
20
-11.850172243576401
10
-3.7762268269837018
20
-12.150297418362232
10
-5.6256067706595783
20
-12.64682808579731
10
-7.4128186174231514
20
-13.334303681409313
10
-9.1182076185246324
20
-14.205163736008348
10
-10.72301886676156
20
-15.249831021466481
10
-10.876344235038571
20
-16.414517832044929
10
-11.32588829624005
20
-17.49983537651347
10
-12.04101536550179
20
-18.4318210577886
10
-12.972990714856962
20
-19.146961591870536
10
-14.058301764409098
20
-19.596521333187283
10
-15.222986359692541
20
-19.749863528300661
10
-16.387673170271015
20
-19.596538160023655
10
-17.472990714739552
20
-19.146994098822148
10
-28.022671351406629
20
-29.069974109967465
42
-0.54659293924169416
10
-35.232179814564851
20
-20.435403839495937
10
-31.560272732490652
20
-16.267600660386734
10
-31.462744684204456
20
-16.145439328995312
10
-31.276998343711981
20
-15.820835550047088
10
-31.181594796395661
20
-15.459217686172426
10
-31.183035636343291
20
-15.08522939719259
10
-31.281222672693531
20
-14.724357366956689
10
-31.469464621180894
20
-14.40119442795611
10
-31.734933104100453
20
-14.137763600431716
10
-31.86146661316533
20
-14.045979167255087
10
-32.059536883048672
20
-13.95201725993922
10
-32.221963468145383
20
-13.89665648072949
10
-36.973172286147133
20
-12.16536090316753
10
-37.490945623035614
20
-11.768072666500473
10
-37.888250499255449
20
-11.250312097589903
10
-38.138011244069602
20
-10.647363723567294
10
-38.22320707546811
20
-10.000317479702915
10
-38.138032038333968
20
-9.3532684982217411
10
-37.888290670689457
20
-8.7503120979126656
10
-37.491002434022406
20
-8.2325387610241449
10
-36.973241865111831
20
-7.8352338848043424
10
-31.136649171106733
20
-5.6528759453987085
10
-28.978825563900948
20
-5.0045485201437954
10
-28.823356590937124
20
-4.9432070456701087
10
-28.096998663466177
20
-4.5887928451360969
10
-27.400523613982859
20
-4.1787589809404233
10
-26.738182052803051
20
-3.7156079033491474
10
-26.114016272431879
20
-3.2021662387428278
10
-25.531835577318681
20
-2.6415675386216382
0
LWPOLYLINE
5
108
100
AcDbEntity
8
0
100
AcDbPolyline
90
24
70
1
43
0.0
10
-24.774130127210551
20
-14.86163496076429
10
-24.923980760967488
20
-14.499863528418073
10
-25.162358694864331
20
-14.189203356638254
10
-25.473018866644157
20
-13.95082542274141
10
-25.83479029899037
20
-13.800974788984472
10
-26.22301886664415
20
-13.749863528418071
10
-26.611247434297933
20
-13.800974788984472
10
-26.973018866644161
20
-13.95082542274141
10
-27.283679038423987
20
-14.189203356638254
10
-27.522056972320811
20
-14.499863528418073
10
-27.671907606077752
20
-14.86163496076429
10
-27.723018866644157
20
-15.249863528418073
10
-27.671907606077752
20
-15.638092096071848
10
-27.522056972320811
20
-15.999863528418071
10
-27.283679038423987
20
-16.310523700197891
10
-26.973018866644161
20
-16.548901634094719
10
-26.611247434297933
20
-16.69875226785167
10
-26.22301886664415
20
-16.749863528418071
10
-25.83479029899037
20
-16.69875226785167
10
-25.473018866644157
20
-16.548901634094726
10
-25.162358694864331
20
-16.310523700197891
10
-24.923980760967488
20
-15.999863528418071
10
-24.774130127210551
20
-15.638092096071848
10
-24.72301886664415
20
-15.249863528418073
0
LWPOLYLINE
5
109
100
AcDbEntity
8
0
100
AcDbPolyline
90
24
70
1
43
0.0
10
-29.338509356098371
20
25.173280852118438
10
-29.920852207579042
20
25.249947742968054
10
-30.503195059059717
20
25.173280852118438
10
-31.045852207579049
20
24.948504901483037
10
-31.511842465248773
20
24.59093800063777
10
-31.869409366094036
20
24.12494774296804
10
-32.094185316729444
20
23.582290594448732
10
-32.170852207579038
20
22.999947742968025
10
-32.094185316729444
20
22.417604891487365
10
-31.869409366094036
20
21.87494774296805
10
-31.51184246524878
20
21.40895748529832
10
-31.045852207579049
20
21.051390584453067
10
-30.503195059059717
20
20.82661463381762
10
-29.920852207579042
20
20.749947742968047
10
-29.338509356098371
20
20.82661463381762
10
-28.795852207579049
20
21.051390584453067
10
-28.329861949909301
20
21.408957485298306
10
-27.972295049064051
20
21.874947742968036
10
-27.747519098428644
20
22.417604891487365
10
-27.670852207579042
20
22.999947742968025
10
-27.747519098428644
20
23.5822905944487
10
-27.972295049064051
20
24.12494774296804
10
-28.329861949909301
20
24.59093800063777
10
-28.795852207579049
20
24.948504901483037
0
LWPOLYLINE
5
110
100
AcDbEntity
8
0
100
AcDbPolyline
90
24
70
1
43
0.0
10
-13.924357183261261
20
16.000136469259086
10
-14.1627351171581
20
16.31079664103892
10
-14.47339528893793
20
16.549174574935741
10
-14.835166721284153
20
16.699025208692674
10
-15.22339528893793
20
16.75013646925909
10
-15.611623856591715
20
16.699025208692674
10
-15.973395288937919
20
16.549174574935741
10
-16.284055460717749
20
16.31079664103892
10
-16.52243339461458
20
16.000136469259086
10
-16.672284028371529
20
15.638365036912869
10
-16.723395288937919
20
15.250136469259072
10
-16.672284028371529
20
14.861907901605313
10
-16.52243339461458
20
14.500136469259115
10
-16.284055460717749
20
14.189476297479269
10
-15.973395288937919
20
13.951098363582439
10
-15.611623856591715
20
13.801247729825475
10
-15.22339528893793
20
13.750136469259102
10
-14.835166721284153
20
13.801247729825475
10
-14.47339528893793
20
13.951098363582439
10
-14.1627351171581
20
14.189476297479269
10
-13.924357183261282
20
14.500136469259115
10
-13.774506549504324
20
14.861907901605313
10
-13.72339528893793
20
15.250136469259072
10
-13.774506549504324
20
15.638365036912869
0
LWPOLYLINE
5
111
100
AcDbEntity
8
0
100
AcDbPolyline
90
24
70
1
43
0.0
10
31.971320065412851
20
-21.866807685375015
10
31.611904191610325
20
-21.402242040409792
10
31.144496680108894
20
-21.0465297591835
10
30.600950580389895
20
-20.823912045819391
10
30.018307660896827
20
-20.749559929590021
10
29.4362740737302
20
-20.828540384343786
10
28.894514445999402
20
-21.055471022610575
10
28.429948801034193
20
-21.414886896413101
10
28.074236519807894
20
-21.882294407914529
10
27.851618806443771
20
-22.42584050763352
10
27.777266690214425
20
-23.008483427126571
10
27.856247144968176
20
-23.590517014293226
10
28.083177783234959
20
-24.132276642024024
10
28.44259365703747
20
-24.59684228698924
10
28.910001168538933
20
-24.952554568215536
10
29.453547268257907
20
-25.175172281579641
10
30.036190187750961
20
-25.249524397809004
10
30.61822377491762
20
-25.17054394305525
10
31.159983402648415
20
-24.94361330478846
10
31.62454904761363
20
-24.584197430985931
10
31.980261328839923
20
-24.116789919484507
10
32.202879042204032
20
-23.573243819765501
10
32.277231158433402
20
-22.990600900272469
10
32.198250703679612
20
-22.408567313105806
0
LWPOLYLINE
5
112
100
AcDbEntity
8
0
100
AcDbPolyline
90
24
70
1
43
0.0
10
-8.6735803251658705
20
-10.749542163699529
10
-8.5237296914089171
20
-10.387770731353321
10
-8.4726184308425232
20
-9.9995421636995161
10
-8.5237296914089171
20
-9.6113135960457594
10
-8.6735803251658581
20
-9.2495421636995516
10
-8.9119582590626969
20
-8.9388819919197147
10
-9.2226184308425196
20
-8.7005040580228883
10
-9.5843898631887434
20
-8.5506534242659136
10
-9.9726184308425196
20
-8.4995421636995427
10
-10.360846998496305
20
-8.5506534242659136
10
-10.722618430842521
20
-8.7005040580228883
10
-11.033278602622339
20
-8.9388819919197147
10
-11.271656536519172
20
-9.2495421636995516
10
-11.421507170276122
20
-9.6113135960457594
10
-11.47261843084252
20
-9.9995421636995161
10
-11.421507170276122
20
-10.387770731353321
10
-11.271656536519172
20
-10.749542163699529
10
-11.033278602622339
20
-11.06020233547936
10
-10.722618430842521
20
-11.29858026937619
10
-10.360846998496305
20
-11.44843090313312
10
-9.9726184308425196
20
-11.499542163699539
10
-9.5843898631887434
20
-11.44843090313312
10
-9.2226184308425196
20
-11.29858026937619
10
-8.9119582590626969
20
-11.06020233547936
0
LWPOLYLINE
5
113
100
AcDbEntity
8
0
100
AcDbPolyline
90
4
70
1
43
0.0
10
-28.22339528893793
20
-11.499863528418084
10
-24.223395288937933
20
-11.499863528418084
10
-24.223395288937933
20
-9.4998635284180661
10
-28.22339528893793
20
-9.4998635284180661
0
LWPOLYLINE
5
114
100
AcDbEntity
8
0
100
AcDbPolyline
90
24
70
1
43
0.0
10
-27.972295049064051
20
-21.874542163699541
10
-28.329861949909301
20
-21.408551906029807
10
-28.795852207579049
20
-21.05098500518455
10
-29.338509356098371
20
-20.826209054549146
10
-29.920852207579042
20
-20.74954216369953
10
-30.503195059059717
20
-20.826209054549146
10
-31.045852207579049
20
-21.05098500518455
10
-31.511842465248773
20
-21.408551906029807
10
-31.869409366094036
20
-21.874542163699541
10
-32.094185316729444
20
-22.417199312218866
10
-32.170852207579038
20
-22.999542163699541
10
-32.094185316729444
20
-23.58188501518022
10
-31.869409366094036
20
-24.124542163699534
10
-31.511842465248773
20
-24.590532421369268
10
-31.045852207579049
20
-24.948099322214521
10
-30.503195059059717
20
-25.17287527284995
10
-29.920852207579042
20
-25.249542163699541
10
-29.338509356098371
20
-25.17287527284995
10
-28.795852207579049
20
-24.948099322214521
10
-28.329861949909318
20
-24.590532421369268
10
-27.972295049064051
20
-24.124542163699534
10
-27.747519098428644
20
-23.58188501518022
10
-27.670852207579042
20
-22.999542163699541
10
-27.747519098428644
20
-22.417199312218866
0
LWPOLYLINE
5
115
100
AcDbEntity
8
0
100
AcDbPolyline
90
24
70
1
43
0.0
10
29.444906072843231
20
20.82661463381762
10
30.027248924323917
20
20.749947742968047
10
30.609591775804557
20
20.82661463381762
10
31.152248924323892
20
21.051390584453067
10
31.61823918199363
20
21.408957485298306
10
31.975806082838893
20
21.874947742968036
10
32.200582033474305
20
22.417604891487365
10
32.277248924323914
20
22.999947742968025
10
32.200582033474305
20
23.5822905944487
10
31.975806082838893
20
24.12494774296804
10
31.61823918199363
20
24.59093800063777
10
31.152248924323892
20
24.948504901483037
10
30.609591775804557
20
25.173280852118438
10
30.027248924323917
20
25.249947742968054
10
29.444906072843231
20
25.173280852118438
10
28.902248924323892
20
24.948504901483037
10
28.436258666654162
20
24.59093800063777
10
28.078691765808927
20
24.12494774296804
10
27.853915815173504
20
23.582290594448732
10
27.777248924323892
20
22.999947742968025
10
27.853915815173504
20
22.417604891487365
10
28.078691765808927
20
21.87494774296805
10
28.436258666654162
20
21.40895748529832
10
28.902248924323892
20
21.051390584453067
0
LWPOLYLINE
5
116
100
AcDbEntity
8
0
100
AcDbPolyline
90
24
70
1
43
0.0
10
15.66574528446891
20
13.801247727445869
10
16.027516716815118
20
13.95109836120284
10
16.338176888594948
20
14.189476295099617
10
16.576554822491779
20
14.500136466879461
10
16.726405456248731
20
14.861907899225713
10
16.777516716815121
20
15.250136466879473
10
16.726405456248731
20
15.638365034533233
10
16.576554822491779
20
16.000136466879479
10
16.338176888594948
20
16.310796638659319
10
16.027516716815139
20
16.549174572556101
10
15.66574528446891
20
16.69902520631307
10
15.277516716815134
20
16.750136466879439
10
14.88928814916135
20
16.69902520631307
10
14.527516716815141
20
16.549174572556101
10
14.216856545035307
20
16.310796638659319
10
13.978478611138481
20
16.000136466879479
10
13.828627977381533
20
15.638365034533233
10
13.77751671681513
20
15.250136466879473
10
13.828627977381533
20
14.861907899225713
10
13.978478611138481
20
14.500136466879461
10
14.216856545035307
20
14.189476295099617
10
14.527516716815121
20
13.95109836120284
10
14.88928814916135
20
13.801247727445869
10
15.277516716815134
20
13.750136466879489
0
LWPOLYLINE
5
117
100
AcDbEntity
8
0
100
AcDbPolyline
90
24
70
1
43
0.0
10
30.77724892432391
20
8.7009096372913906
10
31.087909096103733
20
8.9392875711882276
10
31.326287030000557
20
9.2499477429680486
10
31.47613766375752
20
9.6117191753142599
10
31.527248924323921
20
9.9999477429680503
10
31.47613766375752
20
10.388176310621821
10
31.326287030000557
20
10.749947742968054
10
31.087909096103733
20
11.060607914747862
10
30.77724892432391
20
11.298985848644701
10
30.4154774919777
20
11.448836482401648
10
30.027248924323917
20
11.49994774296804
10
29.63902035667013
20
11.448836482401648
10
29.27724892432391
20
11.298985848644701
10
28.96658875254408
20
11.060607914747862
10
28.728210818647266
20
10.749947742968054
10
28.578360184890311
20
10.388176310621821
10
28.527248924323917
20
9.9999477429680503
10
28.578360184890311
20
9.611719175314267
10
28.728210818647266
20
9.2499477429680486
10
28.96658875254408
20
8.9392875711882276
10
29.27724892432391
20
8.7009096372913906
10
29.63902035667013
20
8.5510590035344514
10
30.027248924323917
20
8.4999477429680486
10
30.4154774919777
20
8.5510590035344443
0
LWPOLYLINE
5
118
100
AcDbEntity
8
0
100
AcDbPolyline
90
24
70
1
43
0.0
10
-27.522433394614595
20
14.500136469259123
10
-27.284055460717749
20
14.189476297479306
10
-26.97339528893793
20
13.951098363582464
10
-26.611623856591716
20
13.80124772982551
10
-26.22339528893793
20
13.75013646925912
10
-25.835166721284146
20
13.80124772982551
10
-25.473395288937933
20
13.951098363582464
10
-25.16273511715811
20
14.189476297479287
10
-24.924357183261279
20
14.500136469259123
10
-24.774506549504327
20
14.861907901605331
10
-24.72339528893793
20
15.250136469259115
10
-24.774506549504327
20
15.638365036912889
10
-24.924357183261279
20
16.000136469259118
10
-25.16273511715811
20
16.310796641038941
10
-25.473395288937933
20
16.549174574935769
10
-25.835166721284146
20
16.699025208692721
10
-26.22339528893793
20
16.750136469259115
10
-26.611623856591716
20
16.699025208692721
10
-26.97339528893793
20
16.549174574935769
10
-27.284055460717749
20
16.310796641038941
10
-27.522433394614595
20
16.000136469259118
10
-27.672284028371532
20
15.638365036912901
10
-27.723395288937933
20
15.250136469259115
10
-27.672284028371532
20
14.86190790160534
0
LWPOLYLINE
5
119
100
AcDbEntity
8
0
100
AcDbPolyline
90
4
70
1
43
0.0
10
-28.22339528893793
20
9.5001364692591181
10
-24.223395288937933
20
9.5001364692591181
10
-24.223395288937933
20
11.500136469259115
10
-28.22339528893793
20
11.500136469259115
0
LWPOLYLINE
5
120
100
AcDbEntity
8
0
100
AcDbPolyline
90
8
70
1
43
0.0
10
-15.468
20
7.3810000000000011
10
-21.184444166850977
20
4.9880000000000004
42
-0.71600969247885915
10
-22.164234681036096
20
6.0951033126852305
10
-21.473684488967649
20
7.8180000000000005
42
0.11717276898026616
10
-21.226502272837639
20
10.635223167065979
10
-21.579981431695543
20
13.042996151451888
42
-0.5061942467865076
10
-20.529305072081272
20
14.066000000000001
10
-15.238000000000003
20
9.1499999999999986
42
-0.51518386694198737
0
LWPOLYLINE
5
121
100
AcDbEntity
8
0
100
AcDbPolyline
90
8
70
1
43
0.0
10
-15.238
20
-9.1497485868698938
10
-20.529305072081272
20
-14.066167560428337
42
-0.51776820219700737
10
-21.600020861746628
20
-13.043188168051618
10
-21.271921833764104
20
-10.832320391214585
42
0.10749249696150806
10
-21.473684488967649
20
-7.8180042209576968
10
-22.164234681036096
20
-6.0948570866229925
42
-0.71593416964999468
10
-21.184444166850977
20
-4.9879502600385539
10
-15.468
20
-7.3808712025330241
42
-0.5759233603524101
0
LWPOLYLINE
5
122
100
AcDbEntity
8
0
100
AcDbPolyline
90
8
70
1
43
0.0
10
23.949077257422182
20
4.2716506135617731
10
16.486227875701434
20
7.3808103412078907
42
-0.52176727324139272
10
16.237545016442848
20
9.1497623942154309
10
24.578393321644512
20
16.898971773947551
42
-0.59344936796393732
10
25.407968090879113
20
16.061949879085901
10
23.423593301929806
20
9.4182022200460622
42
0.15270476291226009
10
23.456925467062494
20
6.8183585241777491
10
24.286963879152324
20
4.6718190541130431
42
-0.36571494407461197
0
LWPOLYLINE
5
123
100
AcDbEntity
8
0
100
AcDbPolyline
90
8
70
1
43
0.0
10
24.578393321644512
20
-16.89886410391367
10
16.237545016442848
20
-9.1497485868698938
42
-0.57017995272984767
10
16.486227875701434
20
-7.3808712025330241
10
23.949077257422182
20
-4.2720164814994606
42
-0.59283545939481153
10
24.286963879152324
20
-4.6721456657785518
10
23.456925467062494
20
-6.8184745616721525
42
0.18000174032422905
10
23.423593301929806
20
-9.4181851612096423
10
25.407968090879109
20
-16.061852347521818
42
-0.5934557080964129
0
LWPOLYLINE
5
124
100
AcDbEntity
8
0
100
AcDbPolyline
90
6
70
1
43
0.0
10
4.2867445473930772
20
-6.0562652761034386
10
0.948703509930376
20
-2.8773613410997645
42
0.39998574806718706
10
-0.89417018989587371
20
-2.8773689696083347
10
-4.2321478810673971
20
-6.0562652761034386
42
0.65400528241124745
10
-3.7250672599094159
20
-7.2152611901654158
10
3.7797602240199977
20
-7.2152611901654158
42
0.6540550682842573
0
LWPOLYLINE
5
125
100
AcDbEntity
8
0
100
AcDbPolyline
90
6
70
1
43
0.0
10
-0.89417019003630971
20
2.8776580513853034
10
-4.2237031972786259
20
6.0484685479329814
42
-0.66107947401086453
10
-3.7250672599094159
20
7.2195280453422903
10
3.7797602240199977
20
7.2195280453422903
42
-0.69320104045378306
10
4.2782997232647331
20
6.0484685479329805
10
0.94870350993037533
20
2.8776504229193445
42
-0.39998176685410419
0
LWPOLYLINE
5
126
100
AcDbEntity
8
0
100
AcDbPolyline
90
8
70
1
43
0.0
10
3.1795273388470853
20
-1.0971769356241805
42
-0.42854176224613444
10
3.1793543150496295
20
1.097490871410876
10
6.7825615026210295
20
4.5294499004548063
42
-0.26482933687238203
10
10.423801464218096
20
4.7978617091121132
10
18.817540433457129
20
0.80319069246460917
42
-0.57735026918962273
10
18.939724799235428
20
-0.73227301244727094
10
10.423801464218096
20
-4.7942401201951261
42
-0.26491590659203329
10
6.7825615026210322
20
-4.5284407675031959
0
LWPOLYLINE
5
127
100
AcDbEntity
8
0
100
AcDbPolyline
90
8
70
1
43
0.0
10
-17.350908792538291
20
0.68747132883538176
10
-9.3492674455705433
20
4.7953701745526889
42
-0.34235859256250201
10
-6.7279482476216916
20
4.5288973473200151
10
-3.1249540388711203
20
1.097490871589037
42
-0.42857818913785978
10
-3.1249738127732907
20
-1.0971769356241805
10
-6.7279482476216916
20
-4.528440767503195
42
-0.29606201974756868
10
-9.3492674455705433
20
-4.7942401201951252
10
-17.416859757631364
20
-0.64911240909522172
42
-0.57735026918962185
0
ENDSEC
0
SECTION
2
OBJECTS
0
DICTIONARY
5
C
100
AcDbDictionary
3
ACAD_GROUP
350
D
3
ACAD_MLINESTYLE
350
17
0
DICTIONARY
5
D
100
AcDbDictionary
0
DICTIONARY
5
1A
330
C
100
AcDbDictionary
0
DICTIONARY
5
17
100
AcDbDictionary
0
ENDSEC
0
EOF
