0
SECTION
2
HEADER
9
$INSUNITS
70
4
9
$ACADVER
1
AC1014
9
$HANDSEED
5
FFFF
0
ENDSEC
0
SECTION
2
TABLES
0
TABLE
2
VPORT
5
8
100
AcDbSymbolTable
0
ENDTAB
0
TABLE
2
LTYPE
5
5
100
AcDbSymbolTable
0
LTYPE
5
14
100
AcDbSymbolTableRecord
100
AcDbLinetypeTableRecord
2
BYBLOCK
70
0
0
LTYPE
5
15
100
AcDbSymbolTableRecord
100
AcDbLinetypeTableRecord
2
BYLAYER
70
0
0
ENDTAB
0
TABLE
2
LAYER
5
2
100
AcDbSymbolTable
70
2
0
LAYER
5
50
100
AcDbSymbolTableRecord
100
AcDbLayerTableRecord
2
0
70
0
6
CONTINUOUS
0
ENDTAB
0
TABLE
2
STYLE
5
3
100
AcDbSymbolTable
70
1
0
STYLE
5
11
100
AcDbSymbolTableRecord
100
AcDbTextStyleTableRecord
2
STANDARD
70
0
0
ENDTAB
0
TABLE
2
VIEW
5
6
100
AcDbSymbolTable
70
0
0
ENDTAB
0
TABLE
2
UCS
5
7
100
AcDbSymbolTable
70
0
0
ENDTAB
0
TABLE
2
APPID
5
9
100
AcDbSymbolTable
70
2
0
APPID
5
12
100
AcDbSymbolTableRecord
100
AcDbRegAppTableRecord
2
ACAD
70
0
0
ENDTAB
0
TABLE
2
DIMSTYLE
5
A
100
AcDbSymbolTable
70
1
0
ENDTAB
0
TABLE
2
BLOCK_RECORD
5
1
100
AcDbSymbolTable
70
1
0
BLOCK_RECORD
5
1F
100
AcDbSymbolTableRecord
100
AcDbBlockTableRecord
2
*MODEL_SPACE
0
BLOCK_RECORD
5
1B
100
AcDbSymbolTableRecord
100
AcDbBlockTableRecord
2
*PAPER_SPACE
0
ENDTAB
0
ENDSEC
0
SECTION
2
BLOCKS
0
BLOCK
5
20
100
AcDbEntity
100
AcDbBlockBegin
2
*MODEL_SPACE
0
ENDBLK
5
21
100
AcDbEntity
100
AcDbBlockEnd
0
BLOCK
5
1C
100
AcDbEntity
100
AcDbBlockBegin
2
*PAPER_SPACE
0
ENDBLK
5
1D
100
AcDbEntity
100
AcDbBlockEnd
0
ENDSEC
0
SECTION
2
ENTITIES
0
LINE
5
100
100
AcDbEntity
8
0
100
AcDbLine
10
-16.387673170271011
20
-19.59653816002357
30
0
11
-15.222986359692531
21
-19.749863528300622
31
0
0
LINE
5
101
100
AcDbEntity
8
0
100
AcDbLine
10
-28.02267135140664
20
-29.069974109967372
30
0
11
-17.472990714739552
21
-19.146994098822109
31
0
0
LINE
5
102
100
AcDbEntity
8
0
100
AcDbLine
10
-15.222986359692531
20
-19.749863528300622
30
0
11
-14.05830176440908
21
-19.596521333187241
31
0
0
LINE
5
103
100
AcDbEntity
8
0
100
AcDbLine
10
33.705257672932412
20
7.4436837062542001
30
0
11
33.924363241353888
21
7.7499477429680228
31
0
0
LWPOLYLINE
5
104
100
AcDbEntity
8
0
100
AcDbPolyline
90
24
70
1
43
0.0
10
-30.981512379358875
20
21.939287571188181
10
-31.219890313255704
20
22.249947742967969
10
-31.369740947012641
20
22.611719175314178
10
-31.420852207579042
20
22.999947742967986
10
-31.369740947012641
20
23.38817631062178
10
-31.219890313255693
20
23.749947742967986
10
-30.981512379358875
20
24.060607914747784
10
-30.670852207579049
20
24.298985848644662
10
-30.309080775232829
20
24.448836482401592
10
-29.920852207579053
20
24.499947742968004
10
-29.532623639925273
20
24.448836482401592
10
-29.170852207579049
20
24.298985848644662
10
-28.860192035799233
20
24.060607914747784
10
-28.621814101902391
20
23.749947742967986
10
-28.471963468145454
20
23.38817631062178
10
-28.420852207579053
20
22.999947742967986
10
-28.471963468145454
20
22.611719175314178
10
-28.621814101902402
20
22.249947742967969
10
-28.860192035799233
20
21.939287571188181
10
-29.170852207579049
20
21.700909637291307
10
-29.532623639925273
20
21.551059003534384
10
-29.920852207579053
20
21.499947742967965
10
-30.309080775232829
20
21.551059003534384
10
-30.670852207579049
20
21.700909637291307
0
LWPOLYLINE
5
105
100
AcDbEntity
8
0
100
AcDbPolyline
90
24
70
1
43
0.0
10
-27.283679038423987
20
-14.189203356638203
10
-26.973018866644153
20
-13.950825422741422
10
-26.611247434297933
20
-13.800974788984401
10
-26.22301886664415
20
-13.74986352841808
10
-25.83479029899037
20
-13.800974788984401
10
-25.473018866644153
20
-13.950825422741422
10
-25.162358694864324
20
-14.189203356638203
10
-24.923980760967481
20
-14.499863528418091
10
-24.774130127210551
20
-14.861634960764301
10
-24.72301886664415
20
-15.249863528418011
10
-24.774130127210551
20
-15.638092096071812
10
-24.923980760967488
20
-15.999863528418011
10
-25.162358694864324
20
-16.310523700197898
10
-25.473018866644153
20
-16.548901634094683
10
-25.83479029899037
20
-16.69875226785161
10
-26.22301886664415
20
-16.749863528418029
10
-26.611247434297933
20
-16.69875226785161
10
-26.973018866644153
20
-16.548901634094683
10
-27.283679038423987
20
-16.310523700197898
10
-27.522056972320801
20
-15.999863528418011
10
-27.671907606077752
20
-15.638092096071812
10
-27.723018866644157
20
-15.249863528418011
10
-27.671907606077752
20
-14.861634960764301
10
-27.522056972320801
20
-14.499863528418091
0
LWPOLYLINE
5
106
100
AcDbEntity
8
0
100
AcDbPolyline
90
24
70
1
43
0.0
10
13.15619637325546
20
-13.128354972757702
10
13.777516716815111
20
-12.651599104964051
10
14.501059581507551
20
-12.351897837450192
10
15.277516716815109
20
-12.249675316317351
10
16.053973852122688
20
-12.351897837450192
10
16.777516716815132
20
-12.651599104964051
10
17.398837060374781
20
-13.128354972757702
10
17.87559292816843
20
-13.749675316317372
10
18.175294195682319
20
-14.473218181009788
10
18.277516716815111
20
-15.249675316317301
10
18.175294195682319
20
-16.026132451624903
10
17.87559292816843
20
-16.749675316317322
10
17.398837060374781
20
-17.370995659877
10
16.777516716815111
20
-17.847751527670649
10
16.05397385212267
20
-18.147452795184513
10
15.277516716815089
20
-18.249675316317344
10
14.501059581507551
20
-18.147452795184513
10
13.777516716815111
20
-17.847751527670649
10
13.15619637325544
20
-17.370995659877
10
12.67944050546177
20
-16.749675316317322
10
12.379739237947883
20
-16.026132451624811
10
12.277516716815091
20
-15.249675316317301
10
12.379739237947883
20
-14.473218181009788
10
12.679440505461788
20
-13.749675316317372
0
LINE
5
107
100
AcDbEntity
8
0
100
AcDbLine
10
27.587534145626069
20
-3.9528778055797953
30
0
11
27.111419487366923
21
-3.2481471457680189
31
0
0
LINE
5
108
100
AcDbEntity
8
0
100
AcDbLine
10
26.2892187342078
20
0.84883847029490367
30
0
11
26.45656186836927
21
1.6827010166039511
31
0
0
LINE
5
109
100
AcDbEntity
8
0
100
AcDbLine
10
-28.096998663466177
20
-4.5887928451361475
30
0
11
-27.400523613982859
21
-4.1787589809402936
31
0
0
LWPOLYLINE
5
110
100
AcDbEntity
8
0
100
AcDbPolyline
90
24
70
1
43
0.0
10
16.777516716815111
20
17.848212678232819
10
17.398837060374781
20
17.371456810439085
10
17.87559292816843
20
16.750136466879503
10
18.175294195682319
20
16.026593602187084
10
18.277516716815111
20
15.250136466879471
10
18.175294195682319
20
14.47367933157196
10
17.87559292816843
20
13.750136466879553
10
17.398837060374781
20
13.128816123319869
10
16.777516716815111
20
12.652060255526223
10
16.05397385212267
20
12.352358988012268
10
15.277516716815089
20
12.250136466879532
10
14.501059581507551
20
12.352358988012268
10
13.777516716815111
20
12.652060255526223
10
13.15619637325544
20
13.128816123319869
10
12.679440505461788
20
13.750136466879553
10
12.379739237947883
20
14.47367933157196
10
12.277516716815091
20
15.250136466879471
10
12.379739237947883
20
16.026593602187084
10
12.679440505461788
20
16.750136466879503
10
13.15619637325544
20
17.371456810439085
10
13.777516716815111
20
17.848212678232819
10
14.501059581507551
20
18.14791394574668
10
15.277516716815089
20
18.250136466879429
10
16.053973852122688
20
18.14791394574668
0
LWPOLYLINE
5
111
100
AcDbEntity
8
0
100
AcDbPolyline
90
24
70
1
43
0.0
10
-13.723018866644152
20
-17.847939739771352
10
-14.446561731336603
20
-18.147641007285213
10
-15.223018866644162
20
-18.24986352841805
10
-15.999476001951711
20
-18.147641007285213
10
-16.723018866644171
20
-17.847939739771352
10
-17.344339210203799
20
-17.371183871977699
10
-17.82109507799747
20
-16.749863528418029
10
-18.120796345511351
20
-16.026320663725521
10
-18.223018866644153
20
-15.249863528418011
10
-18.120796345511351
20
-14.473406393110491
10
-17.821095077997459
20
-13.74986352841808
10
-17.344339210203778
20
-13.128543184858401
10
-16.723018866644143
20
-12.651787317064752
10
-15.999476001951701
20
-12.352086049550801
10
-15.223018866644132
20
-12.249863528418064
10
-14.44656173133656
20
-12.352086049550801
10
-13.723018866644122
20
-12.651787317064752
10
-13.101698523084481
20
-13.128543184858401
10
-12.624942655290813
20
-13.74986352841808
10
-12.325241387776931
20
-14.473406393110491
10
-12.223018866644143
20
-15.249863528418011
10
-12.325241387776931
20
-16.02632066372561
10
-12.62494265529082
20
-16.749863528418029
10
-13.101698523084499
20
-17.371183871977699
0
LINE
5
112
100
AcDbEntity
8
0
100
AcDbLine
10
-25.531835577318702
20
2.6417741639920953
30
0
11
-26.114016272431893
21
3.2023728641133307
31
0
0
LINE
5
113
100
AcDbEntity
8
0
100
AcDbLine
10
10.930850498514301
20
-16.414361019278701
30
0
11
10.89215015902627
21
-16.204541742012651
31
0
0
LINE
5
114
100
AcDbEntity
8
0
100
AcDbLine
10
26.73222839620227
20
2.4872744664023267
30
0
11
27.111419487366891
21
3.2485527250366841
31
0
0
LINE
5
115
100
AcDbEntity
8
0
100
AcDbLine
10
-10.876729070637099
20
16.414822172220479
30
0
11
-11.326280971907941
21
17.500136469259104
31
0
0
LINE
5
116
100
AcDbEntity
8
0
100
AcDbLine
10
-24.071325091718943
20
0.71256146701883794
30
0
11
-24.507363794335326
21
1.3930579873336633
31
0
0
LINE
5
117
100
AcDbEntity
8
0
100
AcDbLine
10
-12.041015365501771
20
-18.431821057788557
30
0
11
-11.325888296240031
21
-17.49983537651342
31
0
0
LINE
5
118
100
AcDbEntity
8
0
100
AcDbLine
10
28.87864204711564
20
4.9436126249387335
30
0
11
29.034111020079454
21
5.0049540994124655
31
0
0
LINE
5
119
100
AcDbEntity
8
0
100
AcDbLine
10
-10.709326593255771
20
15.894285020246491
30
0
11
-10.50459219234213
21
15.627469954221231
31
0
0
LINE
5
120
100
AcDbEntity
8
0
100
AcDbLine
10
-28.022687927325791
20
29.069978551471518
30
0
11
-28.347008058691735
21
29.204316348433892
31
0
0
LINE
5
121
100
AcDbEntity
8
0
100
AcDbLine
10
11.38040239978514
20
-17.49967531631733
30
0
11
12.095536201475642
21
-18.431655831656801
31
0
0
LINE
5
122
100
AcDbEntity
8
0
100
AcDbLine
10
-10.708875988345259
20
-15.893962145208441
30
0
11
-10.837571701526832
21
-16.204667445623386
31
0
0
LINE
5
123
100
AcDbEntity
8
0
100
AcDbLine
10
14.112831013853778
20
19.596802685180279
30
0
11
13.027516716815082
21
19.147250783909399
31
0
0
LINE
5
124
100
AcDbEntity
8
0
100
AcDbLine
10
32.095838502977678
20
-6.0272851897920781
30
0
11
31.191934627285271
21
-5.6528759453987156
31
0
0
LINE
5
125
100
AcDbEntity
8
0
100
AcDbLine
10
27.111419487366891
20
3.2485527250366841
30
0
11
27.587534145626051
21
3.9532833848484605
31
0
0
LINE
5
126
100
AcDbEntity
8
0
100
AcDbLine
10
12.095536201475642
20
18.432116982218879
30
0
11
11.38040239978514
21
17.5001364668795
31
0
0
LINE
5
127
100
AcDbEntity
8
0
100
AcDbLine
10
9.6476973468977967
20
15.250136467004554
30
0
11
9.9811280781178411
21
15.29403345554207
31
0
0
LINE
5
128
100
AcDbEntity
8
0
100
AcDbLine
10
33.924363241353888
20
-7.7495421636994921
30
0
11
33.451559016263836
21
-7.138804963454688
31
0
0
LINE
5
129
100
AcDbEntity
8
0
100
AcDbLine
10
31.916752069343858
20
-14.045979167255052
30
0
11
31.727591009427183
21
-14.17566767758354
31
0
0
LINE
5
130
100
AcDbEntity
8
0
100
AcDbLine
10
26.233112119644694
20
0.00020278963430980001
30
0
11
26.2892187342078
21
0.84883847029490367
31
0
0
LINE
5
131
100
AcDbEntity
8
0
100
AcDbLine
10
-11.325888296240031
20
-17.49983537651342
30
0
11
-10.876344235038559
21
-16.41451783204489
31
0
0
LINE
5
132
100
AcDbEntity
8
0
100
AcDbLine
10
13.027516716815082
20
19.147250783909399
30
0
11
12.095536201475642
21
18.432116982218879
31
0
0
LINE
5
133
100
AcDbEntity
8
0
100
AcDbLine
10
10.291901173393342
20
-15.422282033913602
30
0
11
9.9811894348228449
21
-15.293581017809142
31
0
0
LINE
5
134
100
AcDbEntity
8
0
100
AcDbLine
10
-10.504149026088832
20
-15.62715277276725
30
0
11
-10.708875988345259
21
-15.893962145208441
31
0
0
LINE
5
135
100
AcDbEntity
8
0
100
AcDbLine
10
-24.071325091718943
20
-0.71235484164838669
30
0
11
-23.689738086353664
21
0.00010331268527077886
31
0
0
LINE
5
136
100
AcDbEntity
8
0
100
AcDbLine
10
26.233112119644694
20
0.00020278963430980001
30
0
11
26.2892187342078
21
-0.84843289102623942
31
0
0
LINE
5
137
100
AcDbEntity
8
0
100
AcDbLine
10
34.373915142624718
20
-11.164227866660841
30
0
11
34.527248924323914
21
-9.9995421636994308
31
0
0
LINE
5
138
100
AcDbEntity
8
0
100
AcDbLine
10
11.38040239978514
20
17.5001364668795
30
0
11
10.930850498514301
21
16.414822169840882
31
0
0
LINE
5
139
100
AcDbEntity
8
0
100
AcDbLine
10
-12.972990714856941
20
-19.1469615918705
30
0
11
-12.041015365501771
21
-18.431821057788557
31
0
0
LINE
5
140
100
AcDbEntity
8
0
100
AcDbLine
10
34.373915142624718
20
8.8352620400067394
30
0
11
34.527248924323914
21
9.9999477429680521
31
0
0
LINE
5
141
100
AcDbEntity
8
0
100
AcDbLine
10
-27.400523613982859
20
-4.1787589809402936
30
0
11
-26.73818205280304
21
-3.7156079033491518
31
0
0
LINE
5
142
100
AcDbEntity
8
0
100
AcDbLine
10
27.111419487366923
20
-3.2481471457680189
30
0
11
26.732228396202288
21
-2.4868688871336619
31
0
0
LINE
5
143
100
AcDbEntity
8
0
100
AcDbLine
10
-12.04141477359844
20
18.432116984598569
30
0
11
-12.973395288937901
21
19.147250786289
31
0
0
LINE
5
144
100
AcDbEntity
8
0
100
AcDbLine
10
14.112831013853778
20
-19.596341534618109
30
0
11
15.277516716815089
21
-19.749675316317319
31
0
0
LINE
5
145
100
AcDbEntity
8
0
100
AcDbLine
10
31.268220862460382
20
-15.58398104711779
30
0
11
31.396889410821505
21
-15.948654767002601
31
0
0
LINE
5
146
100
AcDbEntity
8
0
100
AcDbLine
10
15.277516716815089
20
-19.749675316317319
30
0
11
16.44220241977645
21
-19.596341534618148
31
0
0
LINE
5
147
100
AcDbEntity
8
0
100
AcDbLine
10
-31.136649171106718
20
-5.6528759453987156
30
0
11
-32.221963468145383
21
-6.1024278466695048
31
0
0
LINE
5
148
100
AcDbEntity
8
0
100
AcDbLine
10
-10.837571701526832
20
-16.204667445623386
30
0
11
-10.876344235038559
21
-16.41451783204489
31
0
0
LINE
5
149
100
AcDbEntity
8
0
100
AcDbLine
10
31.238350514984017
20
15.198908073829369
30
0
11
31.309260726110768
21
14.81876531289303
31
0
0
LINE
5
150
100
AcDbEntity
8
0
100
AcDbLine
10
13.027516716815082
20
-19.146789633347325
30
0
11
14.112831013853778
21
-19.596341534618109
31
0
0
LINE
5
151
100
AcDbEntity
8
0
100
AcDbLine
10
9.6477546679144961
20
-15.249683497963211
30
0
11
-9.5932126426931816
21
-15.249822839500631
31
0
0
LINE
5
152
100
AcDbEntity
8
0
100
AcDbLine
10
-10.237342618908
20
-15.42242194610828
30
0
11
-10.504149026088832
21
-15.62715277276725
31
0
0
LINE
5
153
100
AcDbEntity
8
0
100
AcDbLine
10
9.9811894348228449
20
-15.293581017809142
30
0
11
9.6477546679144961
21
-15.249683497963211
31
0
0
LINE
5
154
100
AcDbEntity
8
0
100
AcDbLine
10
31.916752069343858
20
-14.045979167255052
30
0
11
32.277248924323921
21
-13.896656480729451
31
0
0
LINE
5
155
100
AcDbEntity
8
0
100
AcDbLine
10
27.867560381799173
20
28.724940053859996
30
0
11
17.527516716815139
21
19.147250783909399
31
0
0
LINE
5
156
100
AcDbEntity
8
0
100
AcDbLine
10
31.476142916773874
20
14.469928515559642
30
0
11
31.727624341465521
21
14.17617033308739
31
0
0
LINE
5
157
100
AcDbEntity
8
0
100
AcDbLine
10
31.727591009427183
20
-14.17566767758354
30
0
11
31.47610857809493
21
-14.469434769074649
31
0
0
LINE
5
158
100
AcDbEntity
8
0
100
AcDbLine
10
31.309227720915452
20
-14.818280432397282
30
0
11
31.238321092521822
21
-15.198431412090649
31
0
0
LINE
5
159
100
AcDbEntity
8
0
100
AcDbLine
10
10.892077776615803
20
16.204983154040029
30
0
11
10.930850498514301
21
16.414822169840882
31
0
0
LINE
5
160
100
AcDbEntity
8
0
100
AcDbLine
10
-9.9266391825337195
20
-15.293721732734662
30
0
11
-10.237342618908
21
-15.42242194610828
31
0
0
LINE
5
161
100
AcDbEntity
8
0
100
AcDbLine
10
31.47610857809493
20
-14.469434769074649
30
0
11
31.309227720915452
21
-14.818280432397282
31
0
0
LINE
5
162
100
AcDbEntity
8
0
100
AcDbLine
10
31.238321092521822
20
-15.198431412090649
30
0
11
31.268220862460382
21
-15.58398104711779
31
0
0
LINE
5
163
100
AcDbEntity
8
0
100
AcDbLine
10
26.732228396202288
20
-2.4868688871336619
30
0
11
26.45656186836927
21
-1.6822954373352861
31
0
0
LINE
5
164
100
AcDbEntity
8
0
100
AcDbLine
10
-24.507363794335326
20
1.3930579873336633
30
0
11
-24.995193035545604
21
2.0374397808073135
31
0
0
LINE
5
165
100
AcDbEntity
8
0
100
AcDbLine
10
16.44220241977645
20
-19.596341534618148
30
0
11
17.527516716815139
21
-19.146789633347325
31
0
0
LINE
5
166
100
AcDbEntity
8
0
100
AcDbLine
10
-32.221963468145383
20
-6.1024278466695048
30
0
11
-33.153943983484844
21
-6.8175616483600274
31
0
0
LINE
5
167
100
AcDbEntity
8
0
100
AcDbLine
10
29.034111020079454
20
5.0049540994124655
30
0
11
31.191934627285253
21
5.6532815246673342
31
0
0
LINE
5
168
100
AcDbEntity
8
0
100
AcDbLine
10
10.930850498514301
20
-16.414361019278701
30
0
11
11.38040239978514
21
-17.49967531631733
31
0
0
LINE
5
169
100
AcDbEntity
8
0
100
AcDbLine
10
31.191934627285253
20
5.6532815246673342
30
0
11
32.096633170579317
21
6.0280199311589513
31
0
0
LINE
5
170
100
AcDbEntity
8
0
100
AcDbLine
10
26.45656186836927
20
1.6827010166039511
30
0
11
26.73222839620227
21
2.4872744664023267
31
0
0
LINE
5
171
100
AcDbEntity
8
0
100
AcDbLine
10
33.924363241353888
20
7.7499477429680228
30
0
11
34.373915142624718
21
8.8352620400067394
31
0
0
LINE
5
172
100
AcDbEntity
8
0
100
AcDbLine
10
27.587534145626051
20
3.9532833848484605
30
0
11
28.152284119644683
21
4.589198424404767
31
0
0
LINE
5
173
100
AcDbEntity
8
0
100
AcDbLine
10
-26.73818205280304
20
-3.7156079033491518
30
0
11
-26.114016272431879
21
-3.2021662387427883
31
0
0
LINE
5
174
100
AcDbEntity
8
0
100
AcDbLine
10
-14.05830176440908
20
-19.596521333187241
30
0
11
-12.972990714856941
21
-19.1469615918705
31
0
0
LINE
5
175
100
AcDbEntity
8
0
100
AcDbLine
10
-26.114016272431879
20
-3.2021662387427883
30
0
11
-25.531835577318681
21
-2.6415675386216444
31
0
0
LINE
5
176
100
AcDbEntity
8
0
100
AcDbLine
10
-11.326280971907941
20
17.500136469259104
30
0
11
-12.04141477359844
21
18.432116984598569
31
0
0
LINE
5
177
100
AcDbEntity
8
0
100
AcDbLine
10
-10.50459219234213
20
15.627469954221231
30
0
11
-10.2377771263622
21
15.422735553248522
31
0
0
LINE
5
178
100
AcDbEntity
8
0
100
AcDbLine
10
-15.223395288937919
20
19.750136469259036
30
0
11
-16.388080991899269
21
19.59680268755988
31
0
0
LWPOLYLINE
5
179
100
AcDbEntity
8
0
100
AcDbPolyline
90
24
70
1
43
0.0
10
28.527248924323921
20
9.9999477429680521
10
28.578360184890311
20
9.6117191753142528
10
28.728210818647263
20
9.2499477429680397
10
28.966588752544091
20
8.9392875711882489
10
29.277248924323935
20
8.7009096372913781
10
29.639020356670144
20
8.5510590035344514
10
30.027248924323914
20
8.4999477429680326
10
30.415477491977697
20
8.5510590035344514
10
30.777248924323896
20
8.7009096372913781
10
31.08790909610374
20
8.9392875711882489
10
31.326287030000557
20
9.2499477429680397
10
31.47613766375752
20
9.6117191753142528
10
31.527248924323914
20
9.9999477429680521
10
31.47613766375752
20
10.388176310621851
10
31.326287030000557
20
10.749947742968063
10
31.08790909610374
20
11.060607914747848
10
30.777248924323924
20
11.298985848644721
10
30.415477491977697
20
11.448836482401649
10
30.027248924323914
20
11.499947742968072
10
29.639020356670144
20
11.448836482401649
10
29.277248924323949
20
11.298985848644721
10
28.966588752544091
20
11.060607914747848
10
28.728210818647263
20
10.749947742968063
10
28.578360184890311
20
10.388176310621851
0
LINE
5
180
100
AcDbEntity
8
0
100
AcDbLine
10
28.287170555599612
20
-29.058773797888684
30
0
11
28.730867192266754
21
-29.223728536426783
31
0
0
LINE
5
181
100
AcDbEntity
8
0
100
AcDbLine
10
31.396889410821505
20
-15.948654767002601
30
0
11
31.615558188669183
21
-16.267600660386741
31
0
0
LINE
5
182
100
AcDbEntity
8
0
100
AcDbLine
10
-9.5932126426931816
20
-15.249822839500631
30
0
11
-9.9266391825337195
21
-15.293721732734662
31
0
0
LINE
5
183
100
AcDbEntity
8
0
100
AcDbLine
10
28.152284119644683
20
4.589198424404767
30
0
11
28.87864204711564
21
4.9436126249387335
31
0
0
LINE
5
184
100
AcDbEntity
8
0
100
AcDbLine
10
33.209229439663389
20
13.181928258307551
30
0
11
32.717541090449792
21
13.559213998333901
31
0
0
LINE
5
185
100
AcDbEntity
8
0
100
AcDbLine
10
33.209229439663389
20
-13.181522679039022
30
0
11
32.277248924323921
21
-13.896656480729451
31
0
0
LINE
5
186
100
AcDbEntity
8
0
100
AcDbLine
10
34.373915142624718
20
11.164633445929361
30
0
11
33.924363241353888
21
12.249947742968082
31
0
0
LINE
5
187
100
AcDbEntity
8
0
100
AcDbLine
10
29.034111020079479
20
-5.0045485201438016
30
0
11
28.152284119644698
21
-4.5887928451361031
31
0
0
LINE
5
188
100
AcDbEntity
8
0
100
AcDbLine
10
33.924363241353888
20
-12.249542163699552
30
0
11
34.373915142624718
21
-11.164227866660841
31
0
0
LINE
5
189
100
AcDbEntity
8
0
100
AcDbLine
10
10.763449142921829
20
-15.893830003442053
30
0
11
10.55871539211795
21
-15.627015784717464
31
0
0
LINE
5
190
100
AcDbEntity
8
0
100
AcDbLine
10
31.268244697097231
20
15.584450697426391
30
0
11
31.238350514984017
21
15.198908073829369
31
0
0
LINE
5
191
100
AcDbEntity
8
0
100
AcDbLine
10
34.373915142624718
20
-8.8348564607381181
30
0
11
33.924363241353888
21
-7.7495421636994921
31
0
0
LINE
5
192
100
AcDbEntity
8
0
100
AcDbLine
10
-23.689738086353664
20
0.00010331268527077886
30
0
11
-24.071325091718943
21
0.71256146701883794
31
0
0
LINE
5
193
100
AcDbEntity
8
0
100
AcDbLine
10
27.901285943118765
20
-28.784602615948561
30
0
11
28.287170555599612
21
-29.058773797888684
31
0
0
LINE
5
194
100
AcDbEntity
8
0
100
AcDbLine
10
12.095536201475642
20
-18.431655831656801
30
0
11
13.027516716815082
21
-19.146789633347325
31
0
0
LINE
5
195
100
AcDbEntity
8
0
100
AcDbLine
10
28.152284119644698
20
-4.5887928451361031
30
0
11
27.587534145626069
21
-3.9528778055797953
31
0
0
LINE
5
196
100
AcDbEntity
8
0
100
AcDbLine
10
10.55871539211795
20
-15.627015784717464
30
0
11
10.291901173393342
21
-15.422282033913602
31
0
0
LINE
5
197
100
AcDbEntity
8
0
100
AcDbLine
10
33.209229439663389
20
-13.181522679039022
30
0
11
33.924363241353888
21
-12.249542163699552
31
0
0
LINE
5
198
100
AcDbEntity
8
0
100
AcDbLine
10
-25.531835577318681
20
-2.6415675386216444
30
0
11
-24.995193035545604
21
-2.0372331554368617
31
0
0
LINE
5
199
100
AcDbEntity
8
0
100
AcDbLine
10
34.527248924323914
20
-9.9995421636994308
30
0
11
34.373915142624718
21
-8.8348564607381181
31
0
0
LINE
5
200
100
AcDbEntity
8
0
100
AcDbLine
10
15.277516716815089
20
19.750136466879443
30
0
11
14.112831013853778
21
19.596802685180279
31
0
0
LINE
5
201
100
AcDbEntity
8
0
100
AcDbLine
10
-26.114016272431893
20
3.2023728641133307
30
0
11
-26.738182052803051
21
3.7158145287196036
31
0
0
LINE
5
202
100
AcDbEntity
8
0
100
AcDbLine
10
-24.995193035545604
20
2.0374397808073135
30
0
11
-25.531835577318702
21
2.6417741639920953
31
0
0
LINE
5
203
100
AcDbEntity
8
0
100
AcDbLine
10
10.89215015902627
20
-16.204541742012651
30
0
11
10.763449142921829
21
-15.893830003442053
31
0
0
LINE
5
204
100
AcDbEntity
8
0
100
AcDbLine
10
-28.347008058691735
20
29.204316348433892
30
0
11
-28.695046429894543
21
29.250136469259051
31
0
0
LINE
5
205
100
AcDbEntity
8
0
100
AcDbLine
10
10.7633783182289
20
15.894275176132343
30
0
11
10.892077776615803
21
16.204983154040029
31
0
0
LINE
5
206
100
AcDbEntity
8
0
100
AcDbLine
10
-17.473395288937922
20
19.147250786289
30
0
11
-28.022687927325791
21
29.069978551471518
31
0
0
LINE
5
207
100
AcDbEntity
8
0
100
AcDbLine
10
28.238930328582697
20
29.009902236551266
30
0
11
28.67139979130301
21
29.18903695332223
31
0
0
LINE
5
208
100
AcDbEntity
8
0
100
AcDbLine
10
33.924363241353888
20
12.249947742968082
30
0
11
33.209229439663389
21
13.181928258307551
31
0
0
LINE
5
209
100
AcDbEntity
8
0
100
AcDbLine
10
-9.5936285753923727
20
15.250136469134091
30
0
11
9.6476973468977967
21
15.250136467004554
31
0
0
LINE
5
210
100
AcDbEntity
8
0
100
AcDbLine
10
28.238930328582697
20
29.009902236551266
30
0
11
27.867560381799173
21
28.724940053859996
31
0
0
LINE
5
211
100
AcDbEntity
8
0
100
AcDbLine
10
-16.388080991899269
20
19.59680268755988
30
0
11
-17.473395288937922
21
19.147250786289
31
0
0
LINE
5
212
100
AcDbEntity
8
0
100
AcDbLine
10
-14.058709585976562
20
19.59680268755988
30
0
11
-15.223395288937919
21
19.750136469259036
31
0
0
LINE
5
213
100
AcDbEntity
8
0
100
AcDbLine
10
31.396906033341899
20
15.949119091025381
30
0
11
31.268244697097231
21
15.584450697426391
31
0
0
LINE
5
214
100
AcDbEntity
8
0
100
AcDbLine
10
-9.9270644011297691
20
15.294034128415039
30
0
11
-9.5936285753923727
21
15.250136469134091
31
0
0
LINE
5
215
100
AcDbEntity
8
0
100
AcDbLine
10
31.727624341465521
20
14.17617033308739
30
0
11
31.917207338023232
21
14.046196168062133
31
0
0
LINE
5
216
100
AcDbEntity
8
0
100
AcDbLine
10
-28.823356590937124
20
-4.9432070456701132
30
0
11
-28.096998663466177
21
-4.5887928451361475
31
0
0
LINE
5
217
100
AcDbEntity
8
0
100
AcDbLine
10
34.527248924323914
20
9.9999477429680521
30
0
11
34.373915142624718
21
11.164633445929361
31
0
0
LINE
5
218
100
AcDbEntity
8
0
100
AcDbLine
10
32.717541090449792
20
13.559213998333901
30
0
11
31.917207338023232
21
14.046196168062133
31
0
0
LINE
5
219
100
AcDbEntity
8
0
100
AcDbLine
10
29.13549669076529
20
29.250136469259051
30
0
11
28.67139979130301
21
29.18903695332223
31
0
0
LINE
5
220
100
AcDbEntity
8
0
100
AcDbLine
10
33.45164450952187
20
7.1387479603194066
30
0
11
33.650563799252168
21
7.3931253629513138
31
0
0
LINE
5
221
100
AcDbEntity
8
0
100
AcDbLine
10
27.901285943118765
20
-28.784602615948561
30
0
11
17.527516716815139
21
-19.146789633347325
31
0
0
LINE
5
222
100
AcDbEntity
8
0
100
AcDbLine
10
-12.973395288937901
20
19.147250786289
30
0
11
-14.058709585976562
21
19.59680268755988
31
0
0
LINE
5
223
100
AcDbEntity
8
0
100
AcDbLine
10
-24.507363794335326
20
-1.3928513619632119
30
0
11
-24.071325091718943
21
-0.71235484164838669
31
0
0
LINE
5
224
100
AcDbEntity
8
0
100
AcDbLine
10
31.309260726110768
20
14.81876531289303
30
0
11
31.476142916773874
21
14.469928515559642
31
0
0
LINE
5
225
100
AcDbEntity
8
0
100
AcDbLine
10
-24.995193035545604
20
-2.0372331554368617
30
0
11
-24.507363794335326
21
-1.3928513619632119
31
0
0
LINE
5
226
100
AcDbEntity
8
0
100
AcDbLine
10
33.650563799252168
20
7.3931253629513138
30
0
11
33.705257672932412
21
7.4436837062542001
31
0
0
LINE
5
227
100
AcDbEntity
8
0
100
AcDbLine
10
16.442202419776471
20
19.596802685180279
30
0
11
15.277516716815089
21
19.750136466879443
31
0
0
LINE
5
228
100
AcDbEntity
8
0
100
AcDbLine
10
9.9811280781178411
20
15.29403345554207
30
0
11
10.291836056025552
21
15.422732913928909
31
0
0
LINE
5
229
100
AcDbEntity
8
0
100
AcDbLine
10
17.527516716815139
20
19.147250783909399
30
0
11
16.442202419776471
21
19.596802685180279
31
0
0
LINE
5
230
100
AcDbEntity
8
0
100
AcDbLine
10
10.558647045395791
20
15.627464186762072
30
0
11
10.7633783182289
21
15.894275176132343
31
0
0
LINE
5
231
100
AcDbEntity
8
0
100
AcDbLine
10
-10.838028018020463
20
16.204997745507391
30
0
11
-10.709326593255771
21
15.894285020246491
31
0
0
LINE
5
232
100
AcDbEntity
8
0
100
AcDbLine
10
-10.2377771263622
20
15.422735553248522
30
0
11
-9.9270644011297691
21
15.294034128415039
31
0
0
LINE
5
233
100
AcDbEntity
8
0
100
AcDbLine
10
10.291836056025552
20
15.422732913928909
30
0
11
10.558647045395791
21
15.627464186762072
31
0
0
LINE
5
234
100
AcDbEntity
8
0
100
AcDbLine
10
-10.876729070637099
20
16.414822172220479
30
0
11
-10.838028018020463
21
16.204997745507391
31
0
0
LINE
5
235
100
AcDbEntity
8
0
100
AcDbLine
10
26.45656186836927
20
-1.6822954373352861
30
0
11
26.2892187342078
21
-0.84843289102623942
31
0
0
LWPOLYLINE
5
236
100
AcDbEntity
8
0
100
AcDbPolyline
90
24
70
1
43
0.0
10
-12.32561781007071
20
16.026593604566678
10
-12.223395288937919
20
15.250136469259081
10
-12.32561781007071
20
14.473679333951564
10
-12.625319077584603
20
13.75013646925915
10
-13.102074945378261
20
13.128816125699473
10
-13.723395288937912
20
12.652060257905822
10
-14.44693815363035
20
12.35235899039187
10
-15.223395288937919
20
12.250136469259132
10
-15.999852424245491
20
12.35235899039187
10
-16.72339528893793
20
12.652060257905822
10
-17.344715632497572
20
13.128816125699473
10
-17.821471500291249
20
13.75013646925915
10
-18.121172767805128
20
14.473679333951564
10
-18.22339528893793
20
15.250136469259081
10
-18.121172767805128
20
16.026593604566678
10
-17.821471500291231
20
16.7501364692591
10
-17.344715632497572
20
17.371456812818678
10
-16.72339528893793
20
17.84821268061242
10
-15.999852424245491
20
18.147913948126281
10
-15.223395288937919
20
18.250136469259029
10
-14.44693815363035
20
18.147913948126281
10
-13.723395288937901
20
17.84821268061242
10
-13.102074945378261
20
17.371456812818678
10
-12.625319077584603
20
16.7501364692591
0
LWPOLYLINE
5
237
100
AcDbEntity
8
0
100
AcDbPolyline
90
24
70
1
43
0.0
10
-27.723395288937944
20
15.250136469259081
10
-27.672284028371532
20
15.63836503691288
10
-27.522433394614595
20
16.00013646925909
10
-27.284055460717749
20
16.310796641038969
10
-26.97339528893793
20
16.549174574935751
10
-26.611623856591713
20
16.699025208692678
10
-26.22339528893793
20
16.7501364692591
10
-25.835166721284146
20
16.699025208692678
10
-25.473395288937933
20
16.549174574935751
10
-25.162735117158107
20
16.310796641038969
10
-24.924357183261261
20
16.00013646925909
10
-24.774506549504324
20
15.63836503691288
10
-24.723395288937926
20
15.250136469259081
10
-24.774506549504324
20
14.86190790160537
10
-24.924357183261275
20
14.500136469259159
10
-25.162735117158107
20
14.189476297479269
10
-25.473395288937933
20
13.95109836358249
10
-25.835166721284146
20
13.801247729825473
10
-26.22339528893793
20
13.75013646925915
10
-26.611623856591713
20
13.801247729825473
10
-26.97339528893793
20
13.95109836358249
10
-27.284055460717749
20
14.189476297479269
10
-27.522433394614595
20
14.500136469259159
10
-27.672284028371532
20
14.86190790160537
0
LINE
5
238
100
AcDbEntity
8
0
100
AcDbLine
10
-17.472990714739552
20
-19.146994098822109
30
0
11
-16.387673170271011
21
-19.59653816002357
31
0
0
LINE
5
239
100
AcDbEntity
8
0
100
AcDbLine
10
-33.153943983484844
20
-6.8175616483600274
30
0
11
-33.86907778517535
21
-7.7495421636994921
31
0
0
LINE
5
240
100
AcDbEntity
8
0
100
AcDbLine
10
-34.318629686446172
20
-8.8348564607381181
30
0
11
-34.471963468145368
21
-9.9995421636994308
31
0
0
LINE
5
241
100
AcDbEntity
8
0
100
AcDbLine
10
-33.86907778517535
20
-12.249542163699552
30
0
11
-33.153943983484844
21
-13.181522679039022
31
0
0
LINE
5
242
100
AcDbEntity
8
0
100
AcDbLine
10
-33.86907778517535
20
-7.7495421636994921
30
0
11
-34.318629686446172
21
-8.8348564607381181
31
0
0
LINE
5
243
100
AcDbEntity
8
0
100
AcDbLine
10
-34.318629686446172
20
-11.164227866660841
30
0
11
-33.86907778517535
21
-12.249542163699552
31
0
0
LINE
5
244
100
AcDbEntity
8
0
100
AcDbLine
10
-33.153943983484844
20
-13.181522679039022
30
0
11
-32.221963468145354
21
-13.896656480729451
31
0
0
LINE
5
245
100
AcDbEntity
8
0
100
AcDbLine
10
-34.471963468145368
20
-9.9995421636994308
30
0
11
-34.318629686446172
21
-11.164227866660841
31
0
0
LWPOLYLINE
5
246
100
AcDbEntity
8
0
100
AcDbPolyline
90
24
70
1
43
0.0
10
29.639020356670144
20
-24.448430903133051
10
29.277248924323935
20
-24.298580269376131
10
28.966588752544091
20
-24.060202335479307
10
28.728210818647263
20
-23.749542163699463
10
28.578360184890311
20
-23.387770731353253
10
28.527248924323921
20
-22.999542163699452
10
28.578360184890311
20
-22.611313596045704
10
28.728210818647263
20
-22.249542163699452
10
28.966588752544091
20
-21.938881991919651
10
29.277248924323949
20
-21.70050405802283
10
29.639020356670144
20
-21.550653424265853
10
30.027248924323914
20
-21.499542163699484
10
30.415477491977697
20
-21.550653424265903
10
30.777248924323924
20
-21.70050405802283
10
31.08790909610374
20
-21.938881991919651
10
31.326287030000557
20
-22.249542163699452
10
31.47613766375752
20
-22.611313596045704
10
31.527248924323914
20
-22.999542163699452
10
31.47613766375752
20
-23.387770731353253
10
31.326287030000557
20
-23.749542163699463
10
31.08790909610374
20
-24.060202335479307
10
30.777248924323896
20
-24.298580269376131
10
30.415477491977697
20
-24.448430903133051
10
30.027248924323914
20
-24.499542163699431
0
LWPOLYLINE
5
247
100
AcDbEntity
8
0
100
AcDbPolyline
90
24
70
1
43
0.0
10
-31.420852207579042
20
-22.999542163699452
10
-31.369740947012641
20
-22.611313596045704
10
-31.219890313255693
20
-22.249542163699452
10
-30.981512379358875
20
-21.938881991919651
10
-30.670852207579049
20
-21.70050405802283
10
-30.309080775232829
20
-21.550653424265853
10
-29.920852207579053
20
-21.499542163699484
10
-29.532623639925273
20
-21.550653424265903
10
-29.170852207579049
20
-21.70050405802283
10
-28.860192035799233
20
-21.938881991919651
10
-28.621814101902391
20
-22.249542163699452
10
-28.471963468145454
20
-22.611313596045704
10
-28.420852207579053
20
-22.999542163699452
10
-28.471963468145454
20
-23.387770731353253
10
-28.621814101902402
20
-23.749542163699463
10
-28.860192035799233
20
-24.060202335479307
10
-29.170852207579049
20
-24.298580269376131
10
-29.532623639925273
20
-24.448430903133051
10
-29.920852207579053
20
-24.499542163699431
10
-30.309080775232829
20
-24.448430903133051
10
-30.670852207579049
20
-24.298580269376131
10
-30.981512379358875
20
-24.060202335479307
10
-31.219890313255704
20
-23.749542163699463
10
-31.369740947012641
20
-23.387770731353253
0
LINE
5
248
100
AcDbEntity
8
0
100
AcDbLine
10
29.034111020079479
20
-5.0045485201438016
30
0
11
31.191934627285271
21
-5.6528759453987156
31
0
0
LWPOLYLINE
5
249
100
AcDbEntity
8
0
100
AcDbPolyline
90
24
70
1
43
0.0
10
28.728210818647263
20
22.249947742967969
10
28.578360184890311
20
22.611719175314178
10
28.527248924323921
20
22.999947742967986
10
28.578360184890311
20
23.38817631062178
10
28.728210818647263
20
23.749947742967986
10
28.966588752544091
20
24.060607914747784
10
29.277248924323949
20
24.298985848644662
10
29.639020356670144
20
24.448836482401592
10
30.027248924323914
20
24.499947742968004
10
30.415477491977697
20
24.448836482401592
10
30.777248924323924
20
24.298985848644662
10
31.08790909610374
20
24.060607914747784
10
31.326287030000557
20
23.749947742967986
10
31.47613766375752
20
23.38817631062178
10
31.527248924323914
20
22.999947742967986
10
31.47613766375752
20
22.611719175314178
10
31.326287030000557
20
22.249947742967969
10
31.08790909610374
20
21.939287571188181
10
30.777248924323896
20
21.700909637291307
10
30.415477491977697
20
21.551059003534384
10
30.027248924323914
20
21.499947742967965
10
29.639020356670144
20
21.551059003534384
10
29.277248924323935
20
21.700909637291307
10
28.966588752544091
20
21.939287571188181
0
LWPOLYLINE
5
250
100
AcDbEntity
8
0
100
AcDbPolyline
90
24
70
1
43
0.0
10
28.728210818647263
20
-10.74954216369944
10
28.578360184890311
20
-10.38777073135323
10
28.527248924323921
20
-9.9995421636994308
10
28.578360184890311
20
-9.6113135960457203
10
28.728210818647263
20
-9.2495421636994219
10
28.966588752544091
20
-8.9388819919196312
10
29.277248924323949
20
-8.7005040580228492
10
29.639020356670144
20
-8.5506534242658301
10
30.027248924323914
20
-8.4995421636995037
10
30.415477491977697
20
-8.5506534242658301
10
30.777248924323924
20
-8.7005040580228492
10
31.08790909610374
20
-8.9388819919196312
10
31.326287030000557
20
-9.2495421636994219
10
31.47613766375752
20
-9.6113135960457203
10
31.527248924323914
20
-9.9995421636994308
10
31.47613766375752
20
-10.38777073135323
10
31.326287030000557
20
-10.74954216369944
10
31.08790909610374
20
-11.06020233547923
10
30.777248924323896
20
-11.298580269376099
10
30.415477491977697
20
-11.44843090313304
10
30.027248924323914
20
-11.49954216369945
10
29.639020356670144
20
-11.44843090313304
10
29.277248924323935
20
-11.298580269376099
10
28.966588752544091
20
-11.06020233547923
0
CIRCLE
5
251
100
AcDbEntity
8
0
100
AcDbCircle
10
10.027248924323883
20
-9.9995421636994806
30
0
40
3.0000000000000004
210
0
220
0
230
1
0
CIRCLE
5
252
100
AcDbEntity
8
0
100
AcDbCircle
10
-9.9726184308425037
20
-9.999542163699477
30
0
40
3.0000000000000004
210
0
220
0
230
1
0
CIRCLE
5
253
100
AcDbEntity
8
0
100
AcDbCircle
10
-9.9726184308425037
20
9.9995498391302711
30
0
40
3.0000000000000004
210
0
220
0
230
1
0
CIRCLE
5
254
100
AcDbEntity
8
0
100
AcDbCircle
10
10.027248924323885
20
9.9999477429680521
30
0
40
3.0000000000000004
210
0
220
0
230
1
0
LWPOLYLINE
5
255
100
AcDbEntity
8
0
100
AcDbPolyline
90
8
70
1
43
0.0
10
-6.7279482476216925
20
-4.528440767503195
10
-3.1249738127732907
20
-1.0971769356241807
42
0.42857818913785978
10
-3.1249540388711203
20
1.097490871589037
10
-6.7279482476216934
20
4.5288973473200151
42
0.34235859256250251
10
-9.3492674455705433
20
4.7953701745526889
10
-17.350908792538291
20
0.68747132883538309
42
0.5773502691896214
10
-17.416859757631368
20
-0.64911240909522161
10
-9.3492674455705433
20
-4.7942401201951261
42
0.29606201974756907
0
LWPOLYLINE
5
256
100
AcDbEntity
8
0
100
AcDbPolyline
90
8
70
1
43
0.0
10
18.939724799235425
20
-0.73227301244727028
42
0.57735026918962262
10
18.817540433457129
20
0.80319069246460928
10
10.423801464218096
20
4.797861709112115
42
0.2648293368723818
10
6.7825615026210295
20
4.5294499004548072
10
3.1793543150496295
20
1.0974908714108764
42
0.42854176224613405
10
3.1795273388470857
20
-1.0971769356241805
10
6.7825615026210331
20
-4.5284407675031959
42
0.26491590659203329
10
10.423801464218096
20
-4.7942401201951261
0
LWPOLYLINE
5
257
100
AcDbEntity
8
0
100
AcDbPolyline
90
6
70
1
43
0.0
10
4.2782997232647331
20
6.0484685479329814
42
0.69320104045378361
10
3.7797602240199977
20
7.2195280453422894
10
-3.7250672599094159
20
7.2195280453422894
42
0.6610794740108652
10
-4.2237031972786259
20
6.0484685479329814
10
-0.89417019003630993
20
2.8776580513853034
42
0.39998176685410419
10
0.94870350993037533
20
2.8776504229193445
0
LINE
5
258
100
AcDbEntity
8
0
100
AcDbLine
10
28.578360184890311
20
9.6117191753142528
30
0
11
28.728210818647263
21
9.2499477429680397
31
0
0
LINE
5
259
100
AcDbEntity
8
0
100
AcDbLine
10
29.639020356670144
20
11.448836482401649
30
0
11
29.277248924323949
21
11.298985848644721
31
0
0
LINE
5
260
100
AcDbEntity
8
0
100
AcDbLine
10
28.578360184890311
20
10.388176310621851
30
0
11
28.527248924323921
21
9.9999477429680521
31
0
0
LINE
5
261
100
AcDbEntity
8
0
100
AcDbLine
10
29.277248924323949
20
11.298985848644721
30
0
11
28.966588752544091
21
11.060607914747848
31
0
0
LINE
5
262
100
AcDbEntity
8
0
100
AcDbLine
10
30.415477491977697
20
11.448836482401649
30
0
11
30.027248924323914
21
11.499947742968072
31
0
0
LINE
5
263
100
AcDbEntity
8
0
100
AcDbLine
10
30.027248924323914
20
11.499947742968072
30
0
11
29.639020356670144
21
11.448836482401649
31
0
0
LINE
5
264
100
AcDbEntity
8
0
100
AcDbLine
10
30.777248924323924
20
11.298985848644721
30
0
11
30.415477491977697
21
11.448836482401649
31
0
0
LINE
5
265
100
AcDbEntity
8
0
100
AcDbLine
10
31.08790909610374
20
11.060607914747848
30
0
11
30.777248924323924
21
11.298985848644721
31
0
0
LINE
5
266
100
AcDbEntity
8
0
100
AcDbLine
10
28.728210818647263
20
10.749947742968063
30
0
11
28.578360184890311
21
10.388176310621851
31
0
0
LINE
5
267
100
AcDbEntity
8
0
100
AcDbLine
10
28.966588752544091
20
11.060607914747848
30
0
11
28.728210818647263
21
10.749947742968063
31
0
0
LINE
5
268
100
AcDbEntity
8
0
100
AcDbLine
10
28.527248924323921
20
9.9999477429680521
30
0
11
28.578360184890311
21
9.6117191753142528
31
0
0
LINE
5
269
100
AcDbEntity
8
0
100
AcDbLine
10
-27.400523613982859
20
-4.1787589809402936
30
0
11
-26.73818205280304
21
-3.7156079033491518
31
0
0
LINE
5
270
100
AcDbEntity
8
0
100
AcDbLine
10
-28.823356590937124
20
-4.9432070456701132
30
0
11
-28.096998663466177
21
-4.5887928451361475
31
0
0
LINE
5
271
100
AcDbEntity
8
0
100
AcDbLine
10
-26.22301886664415
20
-13.74986352841808
30
0
11
-26.611247434297933
21
-13.800974788984401
31
0
0
LINE
5
272
100
AcDbEntity
8
0
100
AcDbLine
10
-26.973018866644153
20
-13.950825422741422
30
0
11
-27.283679038423987
21
-14.189203356638203
31
0
0
LINE
5
273
100
AcDbEntity
8
0
100
AcDbLine
10
-27.522056972320801
20
-14.499863528418091
30
0
11
-27.671907606077752
21
-14.861634960764301
31
0
0
LINE
5
274
100
AcDbEntity
8
0
100
AcDbLine
10
-24.923980760967481
20
-14.499863528418091
30
0
11
-25.162358694864324
21
-14.189203356638203
31
0
0
LINE
5
275
100
AcDbEntity
8
0
100
AcDbLine
10
-25.531835577318681
20
-2.6415675386216444
30
0
11
-24.995193035545604
21
-2.0372331554368617
31
0
0
LINE
5
276
100
AcDbEntity
8
0
100
AcDbLine
10
-31.136649171106718
20
-5.6528759453987156
30
0
11
-28.978825563900948
21
-5.0045485201437954
31
0
0
LINE
5
277
100
AcDbEntity
8
0
100
AcDbLine
10
-26.611247434297933
20
-13.800974788984401
30
0
11
-26.973018866644153
21
-13.950825422741422
31
0
0
LINE
5
278
100
AcDbEntity
8
0
100
AcDbLine
10
-26.73818205280304
20
-3.7156079033491518
30
0
11
-26.114016272431879
21
-3.2021662387427883
31
0
0
LINE
5
279
100
AcDbEntity
8
0
100
AcDbLine
10
-25.83479029899037
20
-13.800974788984401
30
0
11
-26.22301886664415
21
-13.74986352841808
31
0
0
LINE
5
280
100
AcDbEntity
8
0
100
AcDbLine
10
-26.114016272431879
20
-3.2021662387427883
30
0
11
-25.531835577318681
21
-2.6415675386216444
31
0
0
LINE
5
281
100
AcDbEntity
8
0
100
AcDbLine
10
-25.162358694864324
20
-14.189203356638203
30
0
11
-25.473018866644153
21
-13.950825422741422
31
0
0
LINE
5
282
100
AcDbEntity
8
0
100
AcDbLine
10
-25.473018866644153
20
-13.950825422741422
30
0
11
-25.83479029899037
21
-13.800974788984401
31
0
0
LINE
5
283
100
AcDbEntity
8
0
100
AcDbLine
10
-24.774130127210551
20
-14.861634960764301
30
0
11
-24.923980760967481
21
-14.499863528418091
31
0
0
LINE
5
284
100
AcDbEntity
8
0
100
AcDbLine
10
-27.283679038423987
20
-14.189203356638203
30
0
11
-27.522056972320801
21
-14.499863528418091
31
0
0
LINE
5
285
100
AcDbEntity
8
0
100
AcDbLine
10
-28.096998663466177
20
-4.5887928451361475
30
0
11
-27.400523613982859
21
-4.1787589809402936
31
0
0
LINE
5
286
100
AcDbEntity
8
0
100
AcDbLine
10
-28.978825563900948
20
-5.0045485201437954
30
0
11
-28.823356590937124
21
-4.9432070456701132
31
0
0
LINE
5
287
100
AcDbEntity
8
0
100
AcDbLine
10
33.924363241353888
20
12.249947742968082
30
0
11
34.373915142624718
21
11.164633445929361
31
0
0
LINE
5
288
100
AcDbEntity
8
0
100
AcDbLine
10
27.587534145626051
20
3.9532833848484605
30
0
11
27.111419487366891
21
3.2485527250366841
31
0
0
ARC
5
289
100
AcDbEntity
8
0
100
AcDbCircle
10
-29.13549669076529
20
22.596960276491114
30
0
40
6.6531761927679778
210
0
220
0
230
-1
100
AcDbArc
50
90
51
197.69652596509738
0
LINE
5
290
100
AcDbEntity
8
0
100
AcDbLine
10
33.705257672932412
20
7.4436837062542001
30
0
11
33.650563799252168
21
7.3931253629513138
31
0
0
LINE
5
291
100
AcDbEntity
8
0
100
AcDbLine
10
31.309260726110768
20
14.81876531289303
30
0
11
31.476142916773874
21
14.469928515559642
31
0
0
LINE
5
292
100
AcDbEntity
8
0
100
AcDbLine
10
27.111419487366891
20
3.2485527250366841
30
0
11
26.73222839620227
21
2.4872744664023267
31
0
0
LINE
5
293
100
AcDbEntity
8
0
100
AcDbLine
10
12.095536201475642
20
18.432116982218879
30
0
11
13.027516716815082
21
19.147250783909399
31
0
0
LINE
5
294
100
AcDbEntity
8
0
100
AcDbLine
10
29.034111020079454
20
5.0049540994124655
30
0
11
28.87864204711564
21
4.9436126249387335
31
0
0
LINE
5
295
100
AcDbEntity
8
0
100
AcDbLine
10
33.650563799252168
20
7.3931253629513138
30
0
11
33.45164450952187
21
7.1387479603194066
31
0
0
LINE
5
296
100
AcDbEntity
8
0
100
AcDbLine
10
28.87864204711564
20
4.9436126249387335
30
0
11
28.152284119644683
21
4.589198424404767
31
0
0
LINE
5
297
100
AcDbEntity
8
0
100
AcDbLine
10
28.238930328582697
20
29.009902236551266
30
0
11
28.67139979130301
21
29.18903695332223
31
0
0
LINE
5
298
100
AcDbEntity
8
0
100
AcDbLine
10
31.396906033341899
20
15.949119091025381
30
0
11
31.268244697097231
21
15.584450697426391
31
0
0
LINE
5
299
100
AcDbEntity
8
0
100
AcDbLine
10
33.209229439663389
20
13.181928258307551
30
0
11
33.924363241353888
21
12.249947742968082
31
0
0
LINE
5
300
100
AcDbEntity
8
0
100
AcDbLine
10
27.867560381799173
20
28.724940053859996
30
0
11
28.238930328582697
21
29.009902236551266
31
0
0
LINE
5
301
100
AcDbEntity
8
0
100
AcDbLine
10
31.238350514984017
20
15.198908073829369
30
0
11
31.309260726110768
21
14.81876531289303
31
0
0
LINE
5
302
100
AcDbEntity
8
0
100
AcDbLine
10
31.191934627285253
20
5.6532815246673342
30
0
11
29.034111020079454
21
5.0049540994124655
31
0
0
LINE
5
303
100
AcDbEntity
8
0
100
AcDbLine
10
32.277248924323899
20
6.1028334259381545
30
0
11
31.191934627285253
21
5.6532815246673342
31
0
0
LINE
5
304
100
AcDbEntity
8
0
100
AcDbLine
10
28.67139979130301
20
29.18903695332223
30
0
11
29.13549669076529
21
29.250136469259051
31
0
0
LINE
5
305
100
AcDbEntity
8
0
100
AcDbLine
10
31.727624341465521
20
14.17617033308739
30
0
11
31.917207338023232
21
14.046196168062133
31
0
0
LINE
5
306
100
AcDbEntity
8
0
100
AcDbLine
10
34.373915142624718
20
11.164633445929361
30
0
11
34.527248924323914
21
9.9999477429680521
31
0
0
LINE
5
307
100
AcDbEntity
8
0
100
AcDbLine
10
11.38040239978514
20
17.5001364668795
30
0
11
12.095536201475642
21
18.432116982218879
31
0
0
LINE
5
308
100
AcDbEntity
8
0
100
AcDbLine
10
15.277516716815089
20
19.750136466879443
30
0
11
16.442202419776471
21
19.596802685180279
31
0
0
LINE
5
309
100
AcDbEntity
8
0
100
AcDbLine
10
34.527248924323914
20
9.9999477429680521
30
0
11
34.373915142624718
21
8.8352620400067394
31
0
0
LINE
5
310
100
AcDbEntity
8
0
100
AcDbLine
10
31.268244697097231
20
15.584450697426391
30
0
11
31.238350514984017
21
15.198908073829369
31
0
0
LINE
5
311
100
AcDbEntity
8
0
100
AcDbLine
10
16.442202419776471
20
19.596802685180279
30
0
11
17.527516716815139
21
19.147250783909399
31
0
0
LINE
5
312
100
AcDbEntity
8
0
100
AcDbLine
10
33.924363241353888
20
7.7499477429680228
30
0
11
33.705257672932412
21
7.4436837062542001
31
0
0
LINE
5
313
100
AcDbEntity
8
0
100
AcDbLine
10
13.027516716815082
20
19.147250783909399
30
0
11
14.112831013853778
21
19.596802685180279
31
0
0
LINE
5
314
100
AcDbEntity
8
0
100
AcDbLine
10
10.930850498514301
20
16.414822169840882
30
0
11
11.38040239978514
21
17.5001364668795
31
0
0
LINE
5
315
100
AcDbEntity
8
0
100
AcDbLine
10
31.917207338023232
20
14.046196168062133
30
0
11
32.717541090449792
21
13.559213998333901
31
0
0
LINE
5
316
100
AcDbEntity
8
0
100
AcDbLine
10
17.527516716815139
20
19.147250783909399
30
0
11
27.867560381799173
21
28.724940053859996
31
0
0
LINE
5
317
100
AcDbEntity
8
0
100
AcDbLine
10
31.476142916773874
20
14.469928515559642
30
0
11
31.727624341465521
21
14.17617033308739
31
0
0
LINE
5
318
100
AcDbEntity
8
0
100
AcDbLine
10
32.717541090449792
20
13.559213998333901
30
0
11
33.209229439663389
21
13.181928258307551
31
0
0
LINE
5
319
100
AcDbEntity
8
0
100
AcDbLine
10
33.20922943966336
20
6.8179672276286674
30
0
11
32.277248924323899
21
6.1028334259381545
31
0
0
LINE
5
320
100
AcDbEntity
8
0
100
AcDbLine
10
35.473844014214997
20
20.574559065224523
30
0
11
31.396906033341899
21
15.949119091025381
31
0
0
LINE
5
321
100
AcDbEntity
8
0
100
AcDbLine
10
33.45164450952187
20
7.1387479603194066
30
0
11
33.20922943966336
21
6.8179672276286674
31
0
0
LINE
5
322
100
AcDbEntity
8
0
100
AcDbLine
10
34.373915142624718
20
8.8352620400067394
30
0
11
33.924363241353888
21
7.7499477429680228
31
0
0
LINE
5
323
100
AcDbEntity
8
0
100
AcDbLine
10
28.152284119644683
20
4.589198424404767
30
0
11
27.587534145626051
21
3.9532833848484605
31
0
0
LINE
5
324
100
AcDbEntity
8
0
100
AcDbLine
10
14.112831013853778
20
19.596802685180279
30
0
11
15.277516716815089
21
19.750136466879443
31
0
0
LINE
5
325
100
AcDbEntity
8
0
100
AcDbLine
10
-31.181594796395661
20
-15.459217686172426
30
0
11
-31.183035636343291
21
-15.08522939719259
31
0
0
LINE
5
326
100
AcDbEntity
8
0
100
AcDbLine
10
-14.05830176440908
20
-19.596521333187241
30
0
11
-15.222986359692531
21
-19.749863528300622
31
0
0
LINE
5
327
100
AcDbEntity
8
0
100
AcDbLine
10
-31.462744684204456
20
-16.145439328995312
30
0
11
-31.276998343711981
21
-15.820835550047088
31
0
0
LINE
5
328
100
AcDbEntity
8
0
100
AcDbLine
10
-35.232179814564851
20
-20.435403839495937
30
0
11
-31.560272732490652
21
-16.267600660386734
31
0
0
LINE
5
329
100
AcDbEntity
8
0
100
AcDbLine
10
-31.560272732490652
20
-16.267600660386734
30
0
11
-31.462744684204456
21
-16.145439328995312
31
0
0
LINE
5
330
100
AcDbEntity
8
0
100
AcDbLine
10
-31.86146661316533
20
-14.045979167255087
30
0
11
-32.059536883048672
21
-13.95201725993922
31
0
0
ARC
5
331
100
AcDbEntity
8
0
100
AcDbCircle
10
28.858055337595758
20
-22.440379549208043
30
0
40
6.6820199374464719
210
0
220
-0
230
-1
100
AcDbArc
50
-97.181892207256965
51
17.460926511616943
0
LINE
5
332
100
AcDbEntity
8
0
100
AcDbLine
10
-16.387673170271011
20
-19.59653816002357
30
0
11
-17.472990714739552
21
-19.146994098822109
31
0
0
LINE
5
333
100
AcDbEntity
8
0
100
AcDbLine
10
11.38040239978514
20
-17.49967531631733
30
0
11
10.930850498514301
21
-16.414361019278701
31
0
0
LINE
5
334
100
AcDbEntity
8
0
100
AcDbLine
10
-11.325888296240031
20
-17.49983537651342
30
0
11
-12.041015365501771
21
-18.431821057788557
31
0
0
LINE
5
335
100
AcDbEntity
8
0
100
AcDbLine
10
-17.472990714739552
20
-19.146994098822109
30
0
11
-28.02267135140664
21
-29.069974109967372
31
0
0
LINE
5
336
100
AcDbEntity
8
0
100
AcDbLine
10
-31.183035636343291
20
-15.08522939719259
30
0
11
-31.281222672693531
21
-14.724357366956689
31
0
0
LINE
5
337
100
AcDbEntity
8
0
100
AcDbLine
10
-31.734933104100453
20
-14.137763600431716
30
0
11
-31.86146661316533
21
-14.045979167255087
31
0
0
LINE
5
338
100
AcDbEntity
8
0
100
AcDbLine
10
-31.276998343711981
20
-15.820835550047088
30
0
11
-31.181594796395661
21
-15.459217686172426
31
0
0
LINE
5
339
100
AcDbEntity
8
0
100
AcDbLine
10
-12.041015365501771
20
-18.431821057788557
30
0
11
-12.972990714856941
21
-19.1469615918705
31
0
0
LINE
5
340
100
AcDbEntity
8
0
100
AcDbLine
10
-15.222986359692531
20
-19.749863528300622
30
0
11
-16.387673170271011
21
-19.59653816002357
31
0
0
LINE
5
341
100
AcDbEntity
8
0
100
AcDbLine
10
-31.281222672693531
20
-14.724357366956689
30
0
11
-31.469464621180894
21
-14.40119442795611
31
0
0
LINE
5
342
100
AcDbEntity
8
0
100
AcDbLine
10
-31.469464621180894
20
-14.40119442795611
30
0
11
-31.734933104100453
21
-14.137763600431716
31
0
0
LINE
5
343
100
AcDbEntity
8
0
100
AcDbLine
10
-10.876344235038559
20
-16.41451783204489
30
0
11
-11.325888296240031
21
-17.49983537651342
31
0
0
LINE
5
344
100
AcDbEntity
8
0
100
AcDbLine
10
-12.972990714856941
20
-19.1469615918705
30
0
11
-14.05830176440908
21
-19.596521333187241
31
0
0
LINE
5
345
100
AcDbEntity
8
0
100
AcDbLine
10
-32.059536883048672
20
-13.95201725993922
30
0
11
-32.221963468145354
21
-13.896656480729451
31
0
0
LWPOLYLINE
5
346
100
AcDbEntity
8
0
100
AcDbPolyline
90
8
70
1
43
0.0
10
23.423593301929806
20
-9.4181851612096441
42
-0.18000174032422764
10
23.45692546706249
20
-6.8184745616721534
10
24.286963879152324
20
-4.6721456657785518
42
0.59283545939479176
10
23.949077257422186
20
-4.2720164814994614
10
16.486227875701438
20
-7.3808712025330259
42
0.57017995272984734
10
16.237545016442848
20
-9.149748586869892
10
24.578393321644512
20
-16.89886410391367
42
0.59345570809641357
10
25.407968090879116
20
-16.061852347521818
0
LWPOLYLINE
5
347
100
AcDbEntity
8
0
100
AcDbPolyline
90
8
70
1
43
0.0
10
24.578393321644512
20
16.898971773947554
10
16.237545016442848
20
9.1497623942154345
42
0.52176727324139194
10
16.486227875701434
20
7.3808103412078907
10
23.949077257422186
20
4.2716506135617731
42
0.3657149440746123
10
24.286963879152328
20
4.6718190541130431
10
23.45692546706249
20
6.8183585241777491
42
-0.15270476291225873
10
23.423593301929806
20
9.4182022200460622
10
25.407968090879116
20
16.061949879085901
42
0.59344936796393533
0
LWPOLYLINE
5
348
100
AcDbEntity
8
0
100
AcDbPolyline
90
8
70
1
43
0.0
10
-22.660659484847869
20
-4.1473443947461019
10
-21.970109292779426
20
-5.8704915290808017
42
-0.10749249696150831
10
-21.768346637575885
20
-8.8848076993376779
10
-22.096445665558413
20
-11.095675476174705
42
0.51776820219700437
10
-21.025729875893056
20
-12.11865486855142
10
-15.734424803811798
20
-7.2022358949929908
42
0.57592336035240921
10
-15.9644248038118
20
-5.43335851065613
10
-21.680868970662758
20
-3.0404375681616629
42
0.71593416964999157
0
LWPOLYLINE
5
349
100
AcDbEntity
8
0
100
AcDbPolyline
90
8
70
1
43
0.0
10
-20.880436306793509
20
12.180979687334688
42
0.50619424678650093
10
-21.931112666407774
20
11.157975838786584
10
-21.577633507549869
20
8.7502028544006816
42
-0.1171727689802667
10
-21.824815723679869
20
5.9329796873347096
10
-22.515365915748315
20
4.2100830000199423
42
0.7160096924788607
10
-21.5355754015632
20
3.1029796873347171
10
-15.819131234712236
20
5.4959796873347155
42
0.51518386694198814
10
-15.589131234712244
20
7.2649796873347094
0
LWPOLYLINE
5
350
100
AcDbEntity
8
0
100
AcDbPolyline
90
6
70
1
43
0.0
10
4.2867445473930772
20
-6.0562652761034403
42
-0.65405506828425708
10
3.7797602240199977
20
-7.215261190165414
10
-3.7250672599094155
20
-7.2152611901654131
42
-0.65400528241124745
10
-4.2321478810673971
20
-6.0562652761034395
10
-0.89417018989587405
20
-2.8773689696083347
42
-0.39998574806718762
10
0.94870350993037589
20
-2.8773613410997645
0
LINE
5
351
100
AcDbEntity
8
0
100
AcDbLine
10
-17.473395288937922
20
19.147250786289
30
0
11
-16.388080991899269
21
19.59680268755988
31
0
0
LINE
5
352
100
AcDbEntity
8
0
100
AcDbLine
10
-28.347008058691735
20
29.204316348433892
30
0
11
-28.022687927325791
21
29.069978551471518
31
0
0
LINE
5
353
100
AcDbEntity
8
0
100
AcDbLine
10
-31.560649154784414
20
16.267873601227848
30
0
11
-35.22559136493765
21
20.458004239604929
31
0
0
LINE
5
354
100
AcDbEntity
8
0
100
AcDbLine
10
-28.695046429894543
20
29.250136469259051
30
0
11
-28.347008058691735
21
29.204316348433892
31
0
0
LINE
5
355
100
AcDbEntity
8
0
100
AcDbLine
10
-12.04141477359844
20
18.432116984598569
30
0
11
-11.326280971907941
21
17.500136469259104
31
0
0
LINE
5
356
100
AcDbEntity
8
0
100
AcDbLine
10
-15.223395288937919
20
19.750136469259036
30
0
11
-14.058709585976562
21
19.59680268755988
31
0
0
LINE
5
357
100
AcDbEntity
8
0
100
AcDbLine
10
-24.99556945783937
20
2.0375060962779834
30
0
11
-25.53221199961245
21
2.6418404794627648
31
0
0
LINE
5
358
100
AcDbEntity
8
0
100
AcDbLine
10
-24.507363794335326
20
-1.3928513619632119
30
0
11
-24.071325091718943
21
-0.71235484164838669
31
0
0
LINE
5
359
100
AcDbEntity
8
0
100
AcDbLine
10
-14.058709585976562
20
19.59680268755988
30
0
11
-12.973395288937901
21
19.147250786289
31
0
0
LINE
5
360
100
AcDbEntity
8
0
100
AcDbLine
10
-16.388080991899269
20
19.59680268755988
30
0
11
-15.223395288937919
21
19.750136469259036
31
0
0
LINE
5
361
100
AcDbEntity
8
0
100
AcDbLine
10
-26.114392694725641
20
3.2024391795839562
30
0
11
-26.738558475096831
21
3.7158808441902731
31
0
0
LINE
5
362
100
AcDbEntity
8
0
100
AcDbLine
10
-24.507740216629081
20
1.393124302804378
30
0
11
-24.99556945783937
21
2.0375060962779834
31
0
0
LINE
5
363
100
AcDbEntity
8
0
100
AcDbLine
10
-24.071701514012709
20
0.71262778248946246
30
0
11
-24.507740216629081
21
1.393124302804378
31
0
0
LINE
5
364
100
AcDbEntity
8
0
100
AcDbLine
10
-11.326280971907941
20
17.500136469259104
30
0
11
-10.876729070637099
21
16.414822172220479
31
0
0
ARC
5
365
100
AcDbEntity
8
0
100
AcDbCircle
10
28.695046429894543
20
22.428719140719956
30
0
40
6.8214173285391357
210
-0
220
0
230
-1
100
AcDbArc
50
-16.792177318334296
51
90
0
LINE
5
366
100
AcDbEntity
8
0
100
AcDbLine
10
-24.071325091718943
20
-0.71235484164838669
30
0
11
-23.689738086353664
21
0.00010331268527077886
31
0
0
LINE
5
367
100
AcDbEntity
8
0
100
AcDbLine
10
-28.022687927325791
20
29.069978551471518
30
0
11
-17.473395288937922
21
19.147250786289
31
0
0
LINE
5
368
100
AcDbEntity
8
0
100
AcDbLine
10
-12.973395288937901
20
19.147250786289
30
0
11
-12.04141477359844
21
18.432116984598569
31
0
0
LINE
5
369
100
AcDbEntity
8
0
100
AcDbLine
10
28.728210818647263
20
-10.74954216369944
30
0
11
28.966588752544091
21
-11.06020233547923
31
0
0
LINE
5
370
100
AcDbEntity
8
0
100
AcDbLine
10
-25.53221199961245
20
2.6418404794627648
30
0
11
-26.114392694725641
21
3.2024391795839562
31
0
0
LINE
5
371
100
AcDbEntity
8
0
100
AcDbLine
10
-24.995193035545604
20
-2.0372331554368617
30
0
11
-24.507363794335326
21
-1.3928513619632119
31
0
0
LINE
5
372
100
AcDbEntity
8
0
100
AcDbLine
10
-23.689738086353664
20
0.00010331268527077886
30
0
11
-24.071701514012709
21
0.71262778248946246
31
0
0
LINE
5
373
100
AcDbEntity
8
0
100
AcDbLine
10
-27.522433394614595
20
16.00013646925909
30
0
11
-27.672284028371532
21
15.63836503691288
31
0
0
LINE
5
374
100
AcDbEntity
8
0
100
AcDbLine
10
-27.672284028371532
20
14.86190790160537
30
0
11
-27.522433394614595
21
14.500136469259159
31
0
0
LINE
5
375
100
AcDbEntity
8
0
100
AcDbLine
10
-25.473395288937933
20
13.95109836358249
30
0
11
-25.162735117158107
21
14.189476297479269
31
0
0
LINE
5
376
100
AcDbEntity
8
0
100
AcDbLine
10
-25.835166721284146
20
16.699025208692678
30
0
11
-26.22339528893793
21
16.7501364692591
31
0
0
LINE
5
377
100
AcDbEntity
8
0
100
AcDbLine
10
-25.473395288937933
20
16.549174574935751
30
0
11
-25.835166721284146
21
16.699025208692678
31
0
0
LINE
5
378
100
AcDbEntity
8
0
100
AcDbLine
10
30.415477491977697
20
8.5510590035344514
30
0
11
30.777248924323896
21
8.7009096372913781
31
0
0
LINE
5
379
100
AcDbEntity
8
0
100
AcDbLine
10
30.027248924323914
20
8.4999477429680326
30
0
11
30.415477491977697
21
8.5510590035344514
31
0
0
LINE
5
380
100
AcDbEntity
8
0
100
AcDbLine
10
-24.774506549504324
20
15.63836503691288
30
0
11
-24.924357183261261
21
16.00013646925909
31
0
0
LINE
5
381
100
AcDbEntity
8
0
100
AcDbLine
10
-24.924357183261275
20
14.500136469259159
30
0
11
-24.774506549504324
21
14.86190790160537
31
0
0
LINE
5
382
100
AcDbEntity
8
0
100
AcDbLine
10
29.277248924323935
20
8.7009096372913781
30
0
11
29.639020356670144
21
8.5510590035344514
31
0
0
LINE
5
383
100
AcDbEntity
8
0
100
AcDbLine
10
-25.835166721284146
20
13.801247729825473
30
0
11
-25.473395288937933
21
13.95109836358249
31
0
0
LINE
5
384
100
AcDbEntity
8
0
100
AcDbLine
10
-27.522433394614595
20
14.500136469259159
30
0
11
-27.284055460717749
21
14.189476297479269
31
0
0
LINE
5
385
100
AcDbEntity
8
0
100
AcDbLine
10
-24.774506549504324
20
14.86190790160537
30
0
11
-24.723395288937926
21
15.250136469259081
31
0
0
LINE
5
386
100
AcDbEntity
8
0
100
AcDbLine
10
28.728210818647263
20
9.2499477429680397
30
0
11
28.966588752544091
21
8.9392875711882489
31
0
0
LINE
5
387
100
AcDbEntity
8
0
100
AcDbLine
10
-27.284055460717749
20
16.310796641038969
30
0
11
-27.522433394614595
21
16.00013646925909
31
0
0
LINE
5
388
100
AcDbEntity
8
0
100
AcDbLine
10
-26.97339528893793
20
16.549174574935751
30
0
11
-27.284055460717749
21
16.310796641038969
31
0
0
LINE
5
389
100
AcDbEntity
8
0
100
AcDbLine
10
-27.284055460717749
20
14.189476297479269
30
0
11
-26.97339528893793
21
13.95109836358249
31
0
0
LINE
5
390
100
AcDbEntity
8
0
100
AcDbLine
10
-26.97339528893793
20
13.95109836358249
30
0
11
-26.611623856591713
21
13.801247729825473
31
0
0
LINE
5
391
100
AcDbEntity
8
0
100
AcDbLine
10
-25.162735117158107
20
16.310796641038969
30
0
11
-25.473395288937933
21
16.549174574935751
31
0
0
LINE
5
392
100
AcDbEntity
8
0
100
AcDbLine
10
-24.723395288937926
20
15.250136469259081
30
0
11
-24.774506549504324
21
15.63836503691288
31
0
0
LINE
5
393
100
AcDbEntity
8
0
100
AcDbLine
10
-26.611623856591713
20
16.699025208692678
30
0
11
-26.97339528893793
21
16.549174574935751
31
0
0
LINE
5
394
100
AcDbEntity
8
0
100
AcDbLine
10
-26.22339528893793
20
13.75013646925915
30
0
11
-25.835166721284146
21
13.801247729825473
31
0
0
LINE
5
395
100
AcDbEntity
8
0
100
AcDbLine
10
-27.723395288937944
20
15.250136469259081
30
0
11
-27.672284028371532
21
14.86190790160537
31
0
0
LINE
5
396
100
AcDbEntity
8
0
100
AcDbLine
10
28.966588752544091
20
8.9392875711882489
30
0
11
29.277248924323935
21
8.7009096372913781
31
0
0
LINE
5
397
100
AcDbEntity
8
0
100
AcDbLine
10
-25.162735117158107
20
14.189476297479269
30
0
11
-24.924357183261275
21
14.500136469259159
31
0
0
LINE
5
398
100
AcDbEntity
8
0
100
AcDbLine
10
29.639020356670144
20
8.5510590035344514
30
0
11
30.027248924323914
21
8.4999477429680326
31
0
0
LINE
5
399
100
AcDbEntity
8
0
100
AcDbLine
10
-27.672284028371532
20
15.63836503691288
30
0
11
-27.723395288937944
21
15.250136469259081
31
0
0
LINE
5
400
100
AcDbEntity
8
0
100
AcDbLine
10
-26.611623856591713
20
13.801247729825473
30
0
11
-26.22339528893793
21
13.75013646925915
31
0
0
LINE
5
401
100
AcDbEntity
8
0
100
AcDbLine
10
-26.22339528893793
20
16.7501364692591
30
0
11
-26.611623856591713
21
16.699025208692678
31
0
0
LINE
5
402
100
AcDbEntity
8
0
100
AcDbLine
10
-24.924357183261261
20
16.00013646925909
30
0
11
-25.162735117158107
21
16.310796641038969
31
0
0
LINE
5
403
100
AcDbEntity
8
0
100
AcDbLine
10
31.396889410821505
20
-15.948654767002601
30
0
11
31.615558188669183
21
-16.267600660386741
31
0
0
LINE
5
404
100
AcDbEntity
8
0
100
AcDbLine
10
33.924363241353888
20
-12.249542163699552
30
0
11
33.209229439663389
21
-13.181522679039022
31
0
0
LINE
5
405
100
AcDbEntity
8
0
100
AcDbLine
10
34.373915142624718
20
-11.164227866660841
30
0
11
33.924363241353888
21
-12.249542163699552
31
0
0
LINE
5
406
100
AcDbEntity
8
0
100
AcDbLine
10
31.309227720915452
20
-14.818280432397282
30
0
11
31.238321092521822
21
-15.198431412090649
31
0
0
LINE
5
407
100
AcDbEntity
8
0
100
AcDbLine
10
31.47610857809493
20
-14.469434769074649
30
0
11
31.309227720915452
21
-14.818280432397282
31
0
0
LINE
5
408
100
AcDbEntity
8
0
100
AcDbLine
10
31.727591009427183
20
-14.17566767758354
30
0
11
31.47610857809493
21
-14.469434769074649
31
0
0
LINE
5
409
100
AcDbEntity
8
0
100
AcDbLine
10
34.527248924323914
20
-9.9995421636994308
30
0
11
34.373915142624718
21
-11.164227866660841
31
0
0
LINE
5
410
100
AcDbEntity
8
0
100
AcDbLine
10
28.730867192266754
20
-29.223728536426783
30
0
11
28.287170555599612
21
-29.058773797888684
31
0
0
LINE
5
411
100
AcDbEntity
8
0
100
AcDbLine
10
31.615558188669183
20
-16.267600660386741
30
0
11
35.47384401421499
21
-20.562529355722457
31
0
0
LINE
5
412
100
AcDbEntity
8
0
100
AcDbLine
10
17.527516716815139
20
-19.146789633347325
30
0
11
16.44220241977645
21
-19.596341534618148
31
0
0
LINE
5
413
100
AcDbEntity
8
0
100
AcDbLine
10
12.095536201475642
20
-18.431655831656801
30
0
11
11.38040239978514
21
-17.49967531631733
31
0
0
LINE
5
414
100
AcDbEntity
8
0
100
AcDbLine
10
28.287170555599612
20
-29.058773797888684
30
0
11
27.901285943118765
21
-28.784602615948561
31
0
0
LINE
5
415
100
AcDbEntity
8
0
100
AcDbLine
10
31.238321092521822
20
-15.198431412090649
30
0
11
31.268220862460382
21
-15.58398104711779
31
0
0
LINE
5
416
100
AcDbEntity
8
0
100
AcDbLine
10
33.209229439663389
20
-13.181522679039022
30
0
11
32.277248924323921
21
-13.896656480729451
31
0
0
ARC
5
417
100
AcDbEntity
8
0
100
AcDbCircle
10
-28.731660695955235
20
-22.268952182616673
30
0
40
6.9547763990775291
210
0
220
0
230
-1
100
AcDbArc
50
165.79689983560962
51
270.00653714941609
0
LINE
5
418
100
AcDbEntity
8
0
100
AcDbLine
10
27.901285943118765
20
-28.784602615948561
30
0
11
17.527516716815139
21
-19.146789633347325
31
0
0
LINE
5
419
100
AcDbEntity
8
0
100
AcDbLine
10
31.916752069343858
20
-14.045979167255052
30
0
11
31.727591009427183
21
-14.17566767758354
31
0
0
LINE
5
420
100
AcDbEntity
8
0
100
AcDbLine
10
13.027516716815082
20
-19.146789633347325
30
0
11
12.095536201475642
21
-18.431655831656801
31
0
0
LINE
5
421
100
AcDbEntity
8
0
100
AcDbLine
10
32.277248924323921
20
-13.896656480729451
30
0
11
31.916752069343858
21
-14.045979167255052
31
0
0
LINE
5
422
100
AcDbEntity
8
0
100
AcDbLine
10
15.277516716815089
20
-19.749675316317319
30
0
11
14.112831013853778
21
-19.596341534618109
31
0
0
LINE
5
423
100
AcDbEntity
8
0
100
AcDbLine
10
16.44220241977645
20
-19.596341534618148
30
0
11
15.277516716815089
21
-19.749675316317319
31
0
0
LINE
5
424
100
AcDbEntity
8
0
100
AcDbLine
10
14.112831013853778
20
-19.596341534618109
30
0
11
13.027516716815082
21
-19.146789633347325
31
0
0
LINE
5
425
100
AcDbEntity
8
0
100
AcDbLine
10
34.373915142624718
20
-8.8348564607381181
30
0
11
34.527248924323914
21
-9.9995421636994308
31
0
0
LINE
5
426
100
AcDbEntity
8
0
100
AcDbLine
10
31.268220862460382
20
-15.58398104711779
30
0
11
31.396889410821505
21
-15.948654767002601
31
0
0
LINE
5
427
100
AcDbEntity
8
0
100
AcDbLine
10
-24.774130127210551
20
-15.638092096071812
30
0
11
-24.72301886664415
21
-15.249863528418011
31
0
0
LINE
5
428
100
AcDbEntity
8
0
100
AcDbLine
10
-24.72301886664415
20
-15.249863528418011
30
0
11
-24.774130127210551
21
-14.861634960764301
31
0
0
LINE
5
429
100
AcDbEntity
8
0
100
AcDbLine
10
31.191934627285271
20
-5.6528759453987156
30
0
11
32.277248924323914
21
-6.1024278466695669
31
0
0
LINE
5
430
100
AcDbEntity
8
0
100
AcDbLine
10
26.2892187342078
20
-0.84843289102623942
30
0
11
26.45656186836927
21
-1.6822954373352861
31
0
0
LINE
5
431
100
AcDbEntity
8
0
100
AcDbLine
10
26.45656186836927
20
-1.6822954373352861
30
0
11
26.732228396202288
21
-2.4868688871336619
31
0
0
LINE
5
432
100
AcDbEntity
8
0
100
AcDbLine
10
26.2892187342078
20
0.84883847029490367
30
0
11
26.233112119644694
21
0.00020278963430980001
31
0
0
LINE
5
433
100
AcDbEntity
8
0
100
AcDbLine
10
27.587534145626069
20
-3.9528778055797953
30
0
11
28.152284119644698
21
-4.5887928451361031
31
0
0
LINE
5
434
100
AcDbEntity
8
0
100
AcDbLine
10
26.233112119644694
20
0.00020278963430980001
30
0
11
26.2892187342078
21
-0.84843289102623942
31
0
0
LINE
5
435
100
AcDbEntity
8
0
100
AcDbLine
10
33.209229439663375
20
-6.8175616483600798
30
0
11
33.924363241353888
21
-7.7495421636994921
31
0
0
LINE
5
436
100
AcDbEntity
8
0
100
AcDbLine
10
32.277248924323914
20
-6.1024278466695669
30
0
11
33.209229439663375
21
-6.8175616483600798
31
0
0
LINE
5
437
100
AcDbEntity
8
0
100
AcDbLine
10
27.111419487366923
20
-3.2481471457680189
30
0
11
27.587534145626069
21
-3.9528778055797953
31
0
0
LINE
5
438
100
AcDbEntity
8
0
100
AcDbLine
10
26.732228396202288
20
-2.4868688871336619
30
0
11
27.111419487366923
21
-3.2481471457680189
31
0
0
LINE
5
439
100
AcDbEntity
8
0
100
AcDbLine
10
29.034111020079479
20
-5.0045485201438016
30
0
11
31.191934627285271
21
-5.6528759453987156
31
0
0
LINE
5
440
100
AcDbEntity
8
0
100
AcDbLine
10
33.924363241353888
20
-7.7495421636994921
30
0
11
34.373915142624718
21
-8.8348564607381181
31
0
0
LINE
5
441
100
AcDbEntity
8
0
100
AcDbLine
10
26.73222839620227
20
2.4872744664023267
30
0
11
26.45656186836927
21
1.6827010166039511
31
0
0
LINE
5
442
100
AcDbEntity
8
0
100
AcDbLine
10
26.45656186836927
20
1.6827010166039511
30
0
11
26.2892187342078
21
0.84883847029490367
31
0
0
LINE
5
443
100
AcDbEntity
8
0
100
AcDbLine
10
31.08790909610374
20
-11.06020233547923
30
0
11
31.326287030000557
21
-10.74954216369944
31
0
0
LINE
5
444
100
AcDbEntity
8
0
100
AcDbLine
10
28.527248924323921
20
-9.9995421636994308
30
0
11
28.578360184890311
21
-10.38777073135323
31
0
0
LINE
5
445
100
AcDbEntity
8
0
100
AcDbLine
10
30.027248924323914
20
-8.4995421636995037
30
0
11
29.639020356670144
21
-8.5506534242658301
31
0
0
LINE
5
446
100
AcDbEntity
8
0
100
AcDbLine
10
30.415477491977697
20
-8.5506534242658301
30
0
11
30.027248924323914
21
-8.4995421636995037
31
0
0
LINE
5
447
100
AcDbEntity
8
0
100
AcDbLine
10
29.639020356670144
20
-11.44843090313304
30
0
11
30.027248924323914
21
-11.49954216369945
31
0
0
LINE
5
448
100
AcDbEntity
8
0
100
AcDbLine
10
31.527248924323914
20
-9.9995421636994308
30
0
11
31.47613766375752
21
-9.6113135960457203
31
0
0
LINE
5
449
100
AcDbEntity
8
0
100
AcDbLine
10
31.326287030000557
20
-9.2495421636994219
30
0
11
31.08790909610374
21
-8.9388819919196312
31
0
0
LINE
5
450
100
AcDbEntity
8
0
100
AcDbLine
10
29.639020356670144
20
-8.5506534242658301
30
0
11
29.277248924323949
21
-8.7005040580228492
31
0
0
LINE
5
451
100
AcDbEntity
8
0
100
AcDbLine
10
30.777248924323896
20
-11.298580269376099
30
0
11
31.08790909610374
21
-11.06020233547923
31
0
0
LINE
5
452
100
AcDbEntity
8
0
100
AcDbLine
10
30.027248924323914
20
-11.49954216369945
30
0
11
30.415477491977697
21
-11.44843090313304
31
0
0
LINE
5
453
100
AcDbEntity
8
0
100
AcDbLine
10
29.277248924323949
20
-8.7005040580228492
30
0
11
28.966588752544091
21
-8.9388819919196312
31
0
0
LINE
5
454
100
AcDbEntity
8
0
100
AcDbLine
10
29.277248924323935
20
-11.298580269376099
30
0
11
29.639020356670144
21
-11.44843090313304
31
0
0
LINE
5
455
100
AcDbEntity
8
0
100
AcDbLine
10
30.415477491977697
20
-11.44843090313304
30
0
11
30.777248924323896
21
-11.298580269376099
31
0
0
LINE
5
456
100
AcDbEntity
8
0
100
AcDbLine
10
28.578360184890311
20
-10.38777073135323
30
0
11
28.728210818647263
21
-10.74954216369944
31
0
0
LINE
5
457
100
AcDbEntity
8
0
100
AcDbLine
10
31.08790909610374
20
-8.9388819919196312
30
0
11
30.777248924323924
21
-8.7005040580228492
31
0
0
LINE
5
458
100
AcDbEntity
8
0
100
AcDbLine
10
31.47613766375752
20
-9.6113135960457203
30
0
11
31.326287030000557
21
-9.2495421636994219
31
0
0
LINE
5
459
100
AcDbEntity
8
0
100
AcDbLine
10
28.966588752544091
20
-8.9388819919196312
30
0
11
28.728210818647263
21
-9.2495421636994219
31
0
0
LINE
5
460
100
AcDbEntity
8
0
100
AcDbLine
10
28.728210818647263
20
-9.2495421636994219
30
0
11
28.578360184890311
21
-9.6113135960457203
31
0
0
LINE
5
461
100
AcDbEntity
8
0
100
AcDbLine
10
28.966588752544091
20
-11.06020233547923
30
0
11
29.277248924323935
21
-11.298580269376099
31
0
0
LINE
5
462
100
AcDbEntity
8
0
100
AcDbLine
10
31.326287030000557
20
-10.74954216369944
30
0
11
31.47613766375752
21
-10.38777073135323
31
0
0
LINE
5
463
100
AcDbEntity
8
0
100
AcDbLine
10
28.578360184890311
20
-9.6113135960457203
30
0
11
28.527248924323921
21
-9.9995421636994308
31
0
0
LINE
5
464
100
AcDbEntity
8
0
100
AcDbLine
10
30.777248924323924
20
-8.7005040580228492
30
0
11
30.415477491977697
21
-8.5506534242658301
31
0
0
LINE
5
465
100
AcDbEntity
8
0
100
AcDbLine
10
31.47613766375752
20
-10.38777073135323
30
0
11
31.527248924323914
21
-9.9995421636994308
31
0
0
LINE
5
466
100
AcDbEntity
8
0
100
AcDbLine
10
31.08790909610374
20
8.9392875711882489
30
0
11
31.326287030000557
21
9.2499477429680397
31
0
0
LINE
5
467
100
AcDbEntity
8
0
100
AcDbLine
10
31.326287030000557
20
9.2499477429680397
30
0
11
31.47613766375752
21
9.6117191753142528
31
0
0
LINE
5
468
100
AcDbEntity
8
0
100
AcDbLine
10
31.47613766375752
20
10.388176310621851
30
0
11
31.326287030000557
21
10.749947742968063
31
0
0
LINE
5
469
100
AcDbEntity
8
0
100
AcDbLine
10
31.527248924323914
20
9.9999477429680521
30
0
11
31.47613766375752
21
10.388176310621851
31
0
0
LINE
5
470
100
AcDbEntity
8
0
100
AcDbLine
10
30.777248924323896
20
8.7009096372913781
30
0
11
31.08790909610374
21
8.9392875711882489
31
0
0
LINE
5
471
100
AcDbEntity
8
0
100
AcDbLine
10
31.326287030000557
20
10.749947742968063
30
0
11
31.08790909610374
21
11.060607914747848
31
0
0
LINE
5
472
100
AcDbEntity
8
0
100
AcDbLine
10
31.47613766375752
20
9.6117191753142528
30
0
11
31.527248924323914
21
9.9999477429680521
31
0
0
LINE
5
473
100
AcDbEntity
8
0
100
AcDbLine
10
-25.473018866644153
20
-16.548901634094683
30
0
11
-25.162358694864324
21
-16.310523700197898
31
0
0
LINE
5
474
100
AcDbEntity
8
0
100
AcDbLine
10
-27.522056972320801
20
-15.999863528418011
30
0
11
-27.283679038423987
21
-16.310523700197898
31
0
0
LINE
5
475
100
AcDbEntity
8
0
100
AcDbLine
10
-24.923980760967488
20
-15.999863528418011
30
0
11
-24.774130127210551
21
-15.638092096071812
31
0
0
LINE
5
476
100
AcDbEntity
8
0
100
AcDbLine
10
-25.162358694864324
20
-16.310523700197898
30
0
11
-24.923980760967488
21
-15.999863528418011
31
0
0
LINE
5
477
100
AcDbEntity
8
0
100
AcDbLine
10
-26.22301886664415
20
-16.749863528418029
30
0
11
-25.83479029899037
21
-16.69875226785161
31
0
0
LINE
5
478
100
AcDbEntity
8
0
100
AcDbLine
10
-26.973018866644153
20
-16.548901634094683
30
0
11
-26.611247434297933
21
-16.69875226785161
31
0
0
LINE
5
479
100
AcDbEntity
8
0
100
AcDbLine
10
-27.723018866644157
20
-15.249863528418011
30
0
11
-27.671907606077752
21
-15.638092096071812
31
0
0
LINE
5
480
100
AcDbEntity
8
0
100
AcDbLine
10
-27.671907606077752
20
-14.861634960764301
30
0
11
-27.723018866644157
21
-15.249863528418011
31
0
0
LINE
5
481
100
AcDbEntity
8
0
100
AcDbLine
10
-25.83479029899037
20
-16.69875226785161
30
0
11
-25.473018866644153
21
-16.548901634094683
31
0
0
LINE
5
482
100
AcDbEntity
8
0
100
AcDbLine
10
-26.611247434297933
20
-16.69875226785161
30
0
11
-26.22301886664415
21
-16.749863528418029
31
0
0
LINE
5
483
100
AcDbEntity
8
0
100
AcDbLine
10
-27.671907606077752
20
-15.638092096071812
30
0
11
-27.522056972320801
21
-15.999863528418011
31
0
0
LINE
5
484
100
AcDbEntity
8
0
100
AcDbLine
10
-27.283679038423987
20
-16.310523700197898
30
0
11
-26.973018866644153
21
-16.548901634094683
31
0
0
LINE
5
485
100
AcDbEntity
8
0
100
AcDbLine
10
-31.414870047995343
20
14.494645210879902
30
0
11
-31.394753288084196
21
14.535205230025632
31
0
0
LINE
5
486
100
AcDbEntity
8
0
100
AcDbLine
10
-27.400900036276621
20
4.1790319217815046
30
0
11
-26.738558475096831
21
3.7158808441902731
31
0
0
LINE
5
487
100
AcDbEntity
8
0
100
AcDbLine
10
-27.400900036276621
20
4.1790319217815046
30
0
11
-28.096998663466181
21
4.5889994705065984
31
0
0
LINE
5
488
100
AcDbEntity
8
0
100
AcDbLine
10
-28.823356590937127
20
4.9434136710405649
30
0
11
-28.096998663466181
21
4.5889994705065984
31
0
0
LINE
5
489
100
AcDbEntity
8
0
100
AcDbLine
10
-29.575164409884898
20
5.2400452062977623
30
0
11
-28.823356590937127
21
4.9434136710405649
31
0
0
LINE
5
490
100
AcDbEntity
8
0
100
AcDbLine
10
-30.347833812267261
20
5.4770837241849026
30
0
11
-29.575164409884898
21
5.2400452062977623
31
0
0
LINE
5
491
100
AcDbEntity
8
0
100
AcDbLine
10
-31.13664917110674
20
5.6530825707691692
30
0
11
-30.347833812267261
21
5.4770837241849026
31
0
0
LINE
5
492
100
AcDbEntity
8
0
100
AcDbLine
10
-31.13664917110674
20
5.6530825707691692
30
0
11
-32.221963468145383
21
6.1026344720400463
31
0
0
LINE
5
493
100
AcDbEntity
8
0
100
AcDbLine
10
-32.221963468145383
20
6.1026344720400463
30
0
11
-33.153943983484865
21
6.8177682737305698
31
0
0
LINE
5
494
100
AcDbEntity
8
0
100
AcDbLine
10
-33.153943983484865
20
6.8177682737305698
30
0
11
-33.86907778517535
21
7.7497487890700354
31
0
0
LINE
5
495
100
AcDbEntity
8
0
100
AcDbLine
10
-34.318629686446187
20
8.8350630861086614
30
0
11
-33.86907778517535
21
7.7497487890700354
31
0
0
LINE
5
496
100
AcDbEntity
8
0
100
AcDbLine
10
-34.47196346814539
20
9.9997487890699741
30
0
11
-34.318629686446187
21
8.8350630861086614
31
0
0
LINE
5
497
100
AcDbEntity
8
0
100
AcDbLine
10
-34.31862968644618
20
11.164434492031381
30
0
11
-34.47196346814539
21
9.9997487890699741
31
0
0
LINE
5
498
100
AcDbEntity
8
0
100
AcDbLine
10
-33.86907778517535
20
12.249748789070001
30
0
11
-34.31862968644618
21
11.164434492031381
31
0
0
LINE
5
499
100
AcDbEntity
8
0
100
AcDbLine
10
-33.86907778517535
20
12.249748789070001
30
0
11
-33.153943983484844
21
13.181729304409471
31
0
0
LINE
5
500
100
AcDbEntity
8
0
100
AcDbLine
10
-33.153943983484844
20
13.181729304409471
30
0
11
-32.221963468145383
21
13.896863106099991
31
0
0
LINE
5
501
100
AcDbEntity
8
0
100
AcDbLine
10
-31.967640951248061
20
14.00088674480461
30
0
11
-32.221963468145383
21
13.896863106099991
31
0
0
LINE
5
502
100
AcDbEntity
8
0
100
AcDbLine
10
-31.658753231989827
20
14.211379142838812
30
0
11
-31.967640951248061
21
14.00088674480461
31
0
0
LINE
5
503
100
AcDbEntity
8
0
100
AcDbLine
10
-31.414870047995343
20
14.494645210879902
30
0
11
-31.658753231989827
21
14.211379142838812
31
0
0
LINE
5
504
100
AcDbEntity
8
0
100
AcDbLine
10
-31.239067380971779
20
14.900320044017242
30
0
11
-31.394753288084196
21
14.535205230025632
31
0
0
LINE
5
505
100
AcDbEntity
8
0
100
AcDbLine
10
-31.239067380971779
20
14.900320044017242
30
0
11
-31.183035636343305
21
15.198638037461192
31
0
0
LINE
5
506
100
AcDbEntity
8
0
100
AcDbLine
10
-31.210883540715329
20
15.571388848272949
30
0
11
-31.183035636343305
21
15.198638037461192
31
0
0
LINE
5
507
100
AcDbEntity
8
0
100
AcDbLine
10
-31.334257559671812
20
15.92423091518855
30
0
11
-31.210883540715329
21
15.571388848272949
31
0
0
LINE
5
508
100
AcDbEntity
8
0
100
AcDbLine
10
-31.560649154784414
20
16.267873601227848
30
0
11
-31.334257559671812
21
15.92423091518855
31
0
0
ENDSEC
0
SECTION
2
OBJECTS
0
DICTIONARY
5
C
100
AcDbDictionary
3
ACAD_GROUP
350
D
3
ACAD_MLINESTYLE
350
17
0
DICTIONARY
5
D
100
AcDbDictionary
0
DICTIONARY
5
1A
330
C
100
AcDbDictionary
0
DICTIONARY
5
17
100
AcDbDictionary
0
ENDSEC
0
EOF
