0
SECTION
2
HEADER
9
$INSUNITS
70
4
9
$ACADVER
1
AC1014
9
$HANDSEED
5
FFFF
0
ENDSEC
0
SECTION
2
TABLES
0
TABLE
2
VPORT
5
8
100
AcDbSymbolTable
0
ENDTAB
0
TABLE
2
LTYPE
5
5
100
AcDbSymbolTable
0
LTYPE
5
14
100
AcDbSymbolTableRecord
100
AcDbLinetypeTableRecord
2
BYBLOCK
70
0
0
LTYPE
5
15
100
AcDbSymbolTableRecord
100
AcDbLinetypeTableRecord
2
BYLAYER
70
0
0
ENDTAB
0
TABLE
2
LAYER
5
2
100
AcDbSymbolTable
70
2
0
LAYER
5
50
100
AcDbSymbolTableRecord
100
AcDbLayerTableRecord
2
0
70
0
6
CONTINUOUS
0
ENDTAB
0
TABLE
2
STYLE
5
3
100
AcDbSymbolTable
70
1
0
STYLE
5
11
100
AcDbSymbolTableRecord
100
AcDbTextStyleTableRecord
2
STANDARD
70
0
0
ENDTAB
0
TABLE
2
VIEW
5
6
100
AcDbSymbolTable
70
0
0
ENDTAB
0
TABLE
2
UCS
5
7
100
AcDbSymbolTable
70
0
0
ENDTAB
0
TABLE
2
APPID
5
9
100
AcDbSymbolTable
70
2
0
APPID
5
12
100
AcDbSymbolTableRecord
100
AcDbRegAppTableRecord
2
ACAD
70
0
0
ENDTAB
0
TABLE
2
DIMSTYLE
5
A
100
AcDbSymbolTable
70
1
0
ENDTAB
0
TABLE
2
BLOCK_RECORD
5
1
100
AcDbSymbolTable
70
1
0
BLOCK_RECORD
5
1F
100
AcDbSymbolTableRecord
100
AcDbBlockTableRecord
2
*MODEL_SPACE
0
BLOCK_RECORD
5
1B
100
AcDbSymbolTableRecord
100
AcDbBlockTableRecord
2
*PAPER_SPACE
0
ENDTAB
0
ENDSEC
0
SECTION
2
BLOCKS
0
BLOCK
5
20
100
AcDbEntity
100
AcDbBlockBegin
2
*MODEL_SPACE
0
ENDBLK
5
21
100
AcDbEntity
100
AcDbBlockEnd
0
BLOCK
5
1C
100
AcDbEntity
100
AcDbBlockBegin
2
*PAPER_SPACE
0
ENDBLK
5
1D
100
AcDbEntity
100
AcDbBlockEnd
0
ENDSEC
0
SECTION
2
ENTITIES
0
LWPOLYLINE
5
100
100
AcDbEntity
8
0
100
AcDbPolyline
90
4
70
1
43
0.0
10
3.5355339059327493
20
65.94974746830583
42
-0.99999999999999989
10
4.9497474683058407
20
64.535533905932738
10
3.8890872965260161
20
63.474873734152908
42
-0.99999999999999989
10
2.4748737341529292
20
64.889087296526
0
LWPOLYLINE
5
101
100
AcDbEntity
8
0
100
AcDbPolyline
90
4
70
1
43
0.0
10
-3.8890872965259815
20
63.474873734152922
10
-4.9497474683058043
20
64.535533905932752
42
-0.99999999999999989
10
-3.5355339059327173
20
65.949747468305844
10
-2.4748737341528901
20
64.889087296526014
42
-0.99999999999999989
0
LWPOLYLINE
5
102
100
AcDbEntity
8
0
100
AcDbPolyline
90
4
70
1
43
0.0
10
-4.9497474683058185
20
57.464466094067262
10
-3.8890872965259939
20
58.525126265847092
42
-0.99999999999999989
10
-2.4748737341529026
20
57.110912703474
10
-3.5355339059327271
20
56.05025253169417
42
-0.99999999999999989
0
LWPOLYLINE
5
103
100
AcDbEntity
8
0
100
AcDbPolyline
90
4
70
1
43
0.0
10
4.9497474683058353
20
57.464466094067262
42
-0.99999999999999989
10
3.535533905932744
20
56.05025253169417
10
2.4748737341529212
20
57.110912703474
42
-0.99999999999999989
10
3.8890872965260126
20
58.525126265847092
0
CIRCLE
5
104
100
AcDbEntity
8
0
100
AcDbCircle
10
8.8817841970012523e-15
20
61.000000000000007
30
0
40
1.9999999999999984
210
0
220
-0
230
1
0
LINE
5
105
100
AcDbEntity
8
0
100
AcDbLine
10
-3.1819805153394354
20
64.181980515339475
30
0
11
-4.242640687119259
21
65.242640687119305
31
0
0
LINE
5
106
100
AcDbEntity
8
0
100
AcDbLine
10
3.1819805153394665
20
57.818019484660546
30
0
11
4.2426406871192901
21
56.757359312880723
31
0
0
LINE
5
107
100
AcDbEntity
8
0
100
AcDbLine
10
3.1819805153394709
20
64.181980515339461
30
0
11
4.2426406871192945
21
65.242640687119277
31
0
0
LINE
5
108
100
AcDbEntity
8
0
100
AcDbLine
10
-3.1819805153394487
20
57.818019484660546
30
0
11
-4.2426406871192723
21
56.757359312880723
31
0
0
CIRCLE
5
109
100
AcDbEntity
8
0
100
AcDbCircle
10
-12.727922061357857
20
12.727922061357855
30
0
40
1.0000000000000009
210
0
220
-0
230
1
0
CIRCLE
5
110
100
AcDbEntity
8
0
100
AcDbCircle
10
12.727922061357855
20
-12.727922061357857
30
0
40
1.0000000000000009
210
0
220
-0
230
1
0
ARC
5
111
100
AcDbEntity
8
0
100
AcDbCircle
10
-12.727922061357857
20
12.727922061357855
30
0
40
2.25
210
0
220
-0
230
1
100
AcDbArc
50
66.943635991078452
51
203.05636400892152
0
ARC
5
112
100
AcDbEntity
8
0
100
AcDbCircle
10
12.727922061357855
20
-12.727922061357857
30
0
40
2.2500000000000013
210
0
220
0
230
1
100
AcDbArc
50
-119.95127821753115
51
29.951278217531527
0
ARC
5
113
100
AcDbEntity
8
0
100
AcDbCircle
10
56.38553624270984
20
56.385536242709961
30
0
40
62.741190076120091
210
0
220
0
230
1
100
AcDbArc
50
228.01634595246298
51
237.57496867277874
0
ARC
5
114
100
AcDbEntity
8
0
100
AcDbCircle
10
10.491105994763835
20
15.085707862533813
30
0
40
1.0000000000000084
210
0
220
0
230
1
100
AcDbArc
50
221.98365404753775
51
313.49182702376874
0
ARC
5
115
100
AcDbEntity
8
0
100
AcDbCircle
10
15.08570786253382
20
10.491105994763835
30
0
40
1.0000000000000249
210
0
220
0
230
1
100
AcDbArc
50
136.50817297623155
51
228.01634595246159
0
ARC
5
116
100
AcDbEntity
8
0
100
AcDbCircle
10
56.38553624270984
20
56.385536242709961
30
0
40
62.741190076120006
210
0
220
0
230
1
100
AcDbArc
50
212.42503132722135
51
221.98365404753716
0
ARC
5
117
100
AcDbEntity
8
0
100
AcDbCircle
10
12.727922061357852
20
12.727922061357859
30
0
40
2.2500000000000009
210
-0
220
0
230
1
100
AcDbArc
50
-43.491827023768991
51
133.49182702376899
0
CIRCLE
5
118
100
AcDbEntity
8
0
100
AcDbCircle
10
12.727922061357852
20
12.727922061357859
30
0
40
1.0000000000000009
210
0
220
-0
230
1
0
LINE
5
119
100
AcDbEntity
8
0
100
AcDbLine
10
9.3087884275039947
20
1.7120268526673126
30
0
11
19.14127557087604
21
1.7120268526673088
31
0
0
LINE
5
120
100
AcDbEntity
8
0
100
AcDbLine
10
1.7120268526673121
20
9.3087884275039947
30
0
11
1.7120268526673055
21
19.141275570876019
31
0
0
ARC
5
121
100
AcDbEntity
8
0
100
AcDbCircle
10
4.2426406871193034
20
56.757359312880737
30
0
40
2.3749999999999813
210
-0
220
0
230
1
100
AcDbArc
50
-40.719544563833409
51
44.999999999999709
0
ARC
5
122
100
AcDbEntity
8
0
100
AcDbCircle
10
4.2426406871192945
20
65.242640687119277
30
0
40
2.3749999999999982
210
-0
220
0
230
1
100
AcDbArc
50
-44.99999999999995
51
45.000000000000291
0
ARC
5
123
100
AcDbEntity
8
0
100
AcDbCircle
10
-4.2426406871192723
20
56.757359312880723
30
0
40
2.3749999999999982
210
0
220
0
230
1
100
AcDbArc
50
135.00000000000003
51
220.73482804691258
0
ARC
5
124
100
AcDbEntity
8
0
100
AcDbCircle
10
-8.4852813742385536
20
61.000000000000021
30
0
40
3.6250000000000071
210
-0
220
0
230
1
100
AcDbArc
50
-45.000000000000199
51
44.999999999999808
0
ARC
5
125
100
AcDbEntity
8
0
100
AcDbCircle
10
8.4852813742385624
20
61.000000000000014
30
0
40
3.6249999999999982
210
0
220
0
230
1
100
AcDbArc
50
135
51
225.00000000000017
0
LINE
5
126
100
AcDbEntity
8
0
100
AcDbLine
10
-5.9220192924373061
20
66.922019292437355
30
0
11
-0.80649226840228128
21
73.899897372291264
31
0
0
LINE
5
127
100
AcDbEntity
8
0
100
AcDbLine
10
5.9220192924373416
20
66.922019292437341
30
0
11
0.80649226840230792
21
73.899897372291264
31
0
0
ARC
5
128
100
AcDbEntity
8
0
100
AcDbCircle
10
-4.242640687119259
20
65.242640687119305
30
0
40
2.3749999999999982
210
0
220
0
230
1
100
AcDbArc
50
134.99999999999997
51
225.00000000000006
0
ARC
5
129
100
AcDbEntity
8
0
100
AcDbCircle
10
1.3322676295501878e-14
20
73.308652735100111
30
0
40
0.99999999999998912
210
0
220
-0
230
1
100
AcDbArc
50
36.245381262760972
51
143.75461873723904
0
LWPOLYLINE
5
130
100
AcDbEntity
8
0
100
AcDbPolyline
90
4
70
1
43
0.0
10
-58.525126265847092
20
-3.8890872965260206
42
-0.99999999999999989
10
-57.110912703474
20
-2.4748737341529292
10
-56.05025253169417
20
-3.5355339059327537
42
-0.99999999999999989
10
-57.464466094067262
20
-4.9497474683058451
0
ARC
5
131
100
AcDbEntity
8
0
100
AcDbCircle
10
-56.385536242709946
20
-56.385536242709847
30
0
40
62.741190076120063
210
0
220
-0
230
1
100
AcDbArc
50
48.016345952462835
51
57.574968672778496
0
ARC
5
132
100
AcDbEntity
8
0
100
AcDbCircle
10
-61.000000000000014
20
-8.4852813742385678
30
0
40
3.6249999999999982
210
0
220
-0
230
1
100
AcDbArc
50
44.999999999999787
51
135.00000000000006
0
ARC
5
133
100
AcDbEntity
8
0
100
AcDbCircle
10
-12.727922061357857
20
-12.727922061357855
30
0
40
2.2500000000000009
210
0
220
0
230
1
100
AcDbArc
50
136.50817297623101
51
313.49182702376896
0
CIRCLE
5
134
100
AcDbEntity
8
0
100
AcDbCircle
10
-61.000000000000007
20
-1.7763568394002505e-14
30
0
40
1.9999999999999984
210
0
220
-0
230
1
0
LWPOLYLINE
5
135
100
AcDbEntity
8
0
100
AcDbPolyline
90
4
70
1
43
0.0
10
-64.535533905932738
20
-4.9497474683058487
42
-0.99999999999999989
10
-65.949747468305816
20
-3.5355339059327617
10
-64.889087296526
20
-2.4748737341529345
42
-0.99999999999999989
10
-63.474873734152908
20
-3.8890872965260259
0
LINE
5
136
100
AcDbEntity
8
0
100
AcDbLine
10
-64.181980515339461
20
-3.1819805153394798
30
0
11
-65.242640687119277
21
-4.2426406871193034
31
0
0
LWPOLYLINE
5
137
100
AcDbEntity
8
0
100
AcDbPolyline
90
4
70
1
43
0.0
10
-65.949747468305844
20
3.5355339059327084
10
-64.889087296526014
20
2.4748737341528813
42
0.99999999999999989
10
-63.474873734152922
20
3.8890872965259726
10
-64.535533905932752
20
4.9497474683057954
42
0.99999999999999989
0
LWPOLYLINE
5
138
100
AcDbEntity
8
0
100
AcDbPolyline
90
4
70
1
43
0.0
10
-57.464466094067262
20
4.9497474683058087
42
-0.99999999999999989
10
-56.05025253169417
20
3.5355339059327173
10
-57.110912703474
20
2.4748737341528946
42
-0.99999999999999989
10
-58.525126265847092
20
3.8890872965259859
0
ARC
5
139
100
AcDbEntity
8
0
100
AcDbCircle
10
-56.757359312880723
20
4.2426406871192635
30
0
40
2.3749999999999942
210
0
220
-0
230
1
100
AcDbArc
50
49.26517195308741
51
135.00000000000017
0
LINE
5
140
100
AcDbEntity
8
0
100
AcDbLine
10
-66.922019292437341
20
-5.9220192924373549
30
0
11
-73.899897372291264
21
-0.8064922684023168
31
0
0
CIRCLE
5
141
100
AcDbEntity
8
0
100
AcDbCircle
10
-12.727922061357857
20
-12.727922061357855
30
0
40
1.0000000000000009
210
0
220
-0
230
1
0
ARC
5
142
100
AcDbEntity
8
0
100
AcDbCircle
10
-61.000000000000021
20
8.4852813742385447
30
0
40
3.6250000000000027
210
0
220
0
230
1
100
AcDbArc
50
225.00000000000017
51
315.00000000000011
0
ARC
5
143
100
AcDbEntity
8
0
100
AcDbCircle
10
-15.085707862533813
20
-10.491105994763839
30
0
40
1.0000000000000087
210
-0
220
0
230
1
100
AcDbArc
50
-43.491827023768579
51
48.016345952462366
0
ARC
5
144
100
AcDbEntity
8
0
100
AcDbCircle
10
-65.242640687119305
20
4.2426406871192501
30
0
40
2.3749999999999982
210
0
220
-0
230
1
100
AcDbArc
50
44.999999999999901
51
135.00000000000006
0
ARC
5
145
100
AcDbEntity
8
0
100
AcDbCircle
10
-65.242640687119277
20
-4.2426406871193034
30
0
40
2.3749999999999982
210
0
220
0
230
1
100
AcDbArc
50
224.99999999999977
51
314.99999999999994
0
LINE
5
146
100
AcDbEntity
8
0
100
AcDbLine
10
-57.818019484660546
20
3.1819805153394398
30
0
11
-56.757359312880723
21
4.2426406871192635
31
0
0
ARC
5
147
100
AcDbEntity
8
0
100
AcDbCircle
10
-56.385536242709946
20
-56.385536242709847
30
0
40
62.741190076120091
210
0
220
-0
230
1
100
AcDbArc
50
32.425031327221376
51
41.98365404753703
0
ARC
5
148
100
AcDbEntity
8
0
100
AcDbCircle
10
-56.757359312880737
20
-4.2426406871193123
30
0
40
2.3749999999999805
210
0
220
0
230
1
100
AcDbArc
50
225.00000000000028
51
310.71954456383344
0
LINE
5
149
100
AcDbEntity
8
0
100
AcDbLine
10
-57.818019484660546
20
-3.1819805153394753
30
0
11
-56.757359312880723
21
-4.242640687119299
31
0
0
ARC
5
150
100
AcDbEntity
8
0
100
AcDbCircle
10
-73.308652735100111
20
-2.6645352591003757e-14
30
0
40
0.99999999999998912
210
0
220
0
230
1
100
AcDbArc
50
126.24538126276097
51
233.7546187372389
0
ARC
5
151
100
AcDbEntity
8
0
100
AcDbCircle
10
-10.491105994763831
20
-15.085707862533821
30
0
40
1.0000000000000255
210
0
220
-0
230
1
100
AcDbArc
50
41.983654047538401
51
133.49182702376862
0
LINE
5
152
100
AcDbEntity
8
0
100
AcDbLine
10
-64.181980515339475
20
3.1819805153394265
30
0
11
-65.242640687119305
21
4.2426406871192501
31
0
0
LINE
5
153
100
AcDbEntity
8
0
100
AcDbLine
10
-66.922019292437355
20
5.9220192924372972
30
0
11
-73.899897372291264
21
0.80649226840226795
31
0
0
LINE
5
154
100
AcDbEntity
8
0
100
AcDbLine
10
-1.7120268526673104
20
-9.3087884275039965
30
0
11
-1.7120268526673055
21
-19.141275570876012
31
0
0
LINE
5
155
100
AcDbEntity
8
0
100
AcDbLine
10
-9.3087884275039947
20
-1.7120268526673126
30
0
11
-19.141275570876012
21
-1.7120268526673077
31
0
0
CIRCLE
5
156
100
AcDbEntity
8
0
100
AcDbCircle
10
0
20
0
30
0
40
1
210
0
220
-0
230
1
0
LWPOLYLINE
5
157
100
AcDbEntity
8
0
100
AcDbPolyline
90
4
70
1
43
0.0
10
1.590990257669731
20
5.1265241636024692
10
5.1265241636024692
20
1.5909902576697328
42
-0.99999999999999989
10
4.0658639918226482
20
0.53033008588991071
10
0.53033008588991082
20
4.0658639918226491
42
-0.99999999999999989
0
LINE
5
158
100
AcDbEntity
8
0
100
AcDbLine
10
4.5961940777125587
20
1.0606601717798219
30
0
11
1.0606601717798212
21
4.5961940777125596
31
0
0
LWPOLYLINE
5
159
100
AcDbEntity
8
0
100
AcDbPolyline
90
4
70
1
43
0.0
10
-5.1265241636024683
20
-1.5909902576697315
42
-0.99999999999999989
10
-4.06586399182265
20
-0.53033008588990849
10
-0.53033008588990982
20
-4.0658639918226447
42
-0.99999999999999989
10
-1.590990257669731
20
-5.1265241636024648
0
LINE
5
160
100
AcDbEntity
8
0
100
AcDbLine
10
-4.5961940777125587
20
-1.0606601717798201
30
0
11
-1.0606601717798205
21
-4.5961940777125552
31
0
0
LWPOLYLINE
5
161
100
AcDbEntity
8
0
100
AcDbPolyline
90
16
70
1
43
0.0
10
3.0052038200428273
20
-7.247844507162112
42
-0.99999999999999989
10
1.944543648263005
20
-6.1871843353822911
10
3.3587572106361003
20
-4.7729707730091953
42
0.41421356237309331
10
3.3587572106360994
20
-4.4194173824159213
10
1.9445436482630061
20
-3.0052038200428273
42
-0.99999999999999989
10
3.0052038200428264
20
-1.9445436482630063
10
4.4194173824159222
20
-3.3587572106361008
42
0.41421356237309409
10
4.7729707730091961
20
-3.3587572106361012
10
6.1871843353822893
20
-1.9445436482630052
42
-0.99999999999999989
10
7.2478445071621111
20
-3.0052038200428259
10
5.833630944789018
20
-4.4194173824159204
42
0.41421356237309198
10
5.8336309447890162
20
-4.7729707730091935
10
10.783378413094846
20
-9.7227182413150341
42
-0.99999999999999989
10
9.7227182413150324
20
-10.783378413094848
10
4.7729707730091953
20
-5.8336309447890162
42
0.41421356237309276
10
4.4194173824159231
20
-5.8336309447890162
0
LINE
5
162
100
AcDbEntity
8
0
100
AcDbLine
10
2.4748737341529163
20
-6.7175144212722016
30
0
11
6.7175144212722007
21
-2.4748737341529154
31
0
0
LINE
5
163
100
AcDbEntity
8
0
100
AcDbLine
10
4.2426406871192857
20
-4.2426406871192865
30
0
11
10.253048327204938
21
-10.25304832720494
31
0
0
ARC
5
164
100
AcDbEntity
8
0
100
AcDbCircle
10
56.385536242709797
20
56.385536242709804
30
0
40
65.241190076119906
210
0
220
0
230
1
100
AcDbArc
50
214.50850357247137
51
235.49149642752872
0
ARC
5
165
100
AcDbEntity
8
0
100
AcDbCircle
10
2.2120268526673059
20
19.141275570876019
30
0
40
0.50000000000000366
210
0
220
-0
230
1
100
AcDbArc
50
34.508503572470303
51
180
0
ARC
5
166
100
AcDbEntity
8
0
100
AcDbCircle
10
19.141275570876051
20
2.2120268526673037
30
0
40
0.49999999999999434
210
0
220
0
230
1
100
AcDbArc
50
-90.000000000001208
51
55.491496427530691
0
ARC
5
167
100
AcDbEntity
8
0
100
AcDbCircle
10
-56.385536242709797
20
-56.385536242709804
30
0
40
65.241190076119921
210
0
220
-0
230
1
100
AcDbArc
50
34.508503572471326
51
55.491496427528666
0
ARC
5
168
100
AcDbEntity
8
0
100
AcDbCircle
10
-2.2120268526673073
20
-19.141275570876005
30
0
40
0.50000000000000089
210
0
220
0
230
1
100
AcDbArc
50
214.5085035724737
51
360
0
ARC
5
169
100
AcDbEntity
8
0
100
AcDbCircle
10
-19.141275570876005
20
-2.2120268526673126
30
0
40
0.50000000000000533
210
0
220
0
230
1
100
AcDbArc
50
90.00000000000081
51
235.49149642752872
0
LINE
5
170
100
AcDbEntity
8
0
100
AcDbLine
10
5.3033008588991057
20
5.3033008588991066
30
0
11
2.0049200714807629
21
8.6016816463174486
31
0
0
ARC
5
171
100
AcDbEntity
8
0
100
AcDbCircle
10
2.7120268526672984
20
9.3087884275039912
30
0
40
0.99999999999998745
210
0
220
0
230
1
100
AcDbArc
50
180
51
225.00000000000028
0
LINE
5
172
100
AcDbEntity
8
0
100
AcDbLine
10
5.3033008588991057
20
5.3033008588991066
30
0
11
8.6016816463174486
21
2.0049200714807647
31
0
0
ARC
5
173
100
AcDbEntity
8
0
100
AcDbCircle
10
9.3087884275039894
20
2.7120268526673001
30
0
40
0.99999999999998757
210
0
220
0
230
1
100
AcDbArc
50
224.99999999999977
51
270.00000000000034
0
ARC
5
174
100
AcDbEntity
8
0
100
AcDbCircle
10
-9.3087884275039912
20
-2.7120268526672997
30
0
40
0.99999999999998757
210
0
220
-0
230
1
100
AcDbArc
50
44.999999999999694
51
90.000000000000199
0
ARC
5
175
100
AcDbEntity
8
0
100
AcDbCircle
10
-2.7120268526672997
20
-9.3087884275039894
30
0
40
0.99999999999999023
210
-0
220
0
230
1
100
AcDbArc
50
0
51
44.99999999999995
0
LINE
5
176
100
AcDbEntity
8
0
100
AcDbLine
10
-5.3033008588991057
20
-5.3033008588991066
30
0
11
-2.0049200714807611
21
-8.6016816463174521
31
0
0
LINE
5
177
100
AcDbEntity
8
0
100
AcDbLine
10
-5.3033008588991057
20
-5.3033008588991066
30
0
11
-8.6016816463174486
21
-2.0049200714807647
31
0
0
SPLINE
5
178
100
AcDbEntity
8
0
100
AcDbSpline
70
0
71
3
72
9
73
5
74
0
42
0.000000001
43
0.0000000001
44
0.0000000001
40
-0.030408149178941
40
-0.030408149178941
40
-0.030408149178941
40
-0.030408149178941
40
-0.016875076255182486
40
0
40
0
40
0
40
0
10
-5.9008976038675511
20
7.1840832328289821
30
0
10
-5.8595989406644442
20
7.1658557477086804
30
0
10
-5.766802875894383
20
7.1248994852383971
30
0
10
-5.6789576853313504
20
7.0741435623391391
30
0
10
-5.630207783432394
20
7.0459764396284825
30
0
0
SPLINE
5
179
100
AcDbEntity
8
0
100
AcDbSpline
70
0
71
3
72
9
73
5
74
0
42
0.000000001
43
0.0000000001
44
0.0000000001
40
-0.14348164766600202
40
-0.14348164766600202
40
-0.14348164766600202
40
-0.14348164766600202
40
-0.072226784520359091
40
0
40
0
40
0
40
0
10
-7.3095864730441402
20
12.327180127321814
30
0
10
-7.5463129098150548
20
12.369048856095555
30
0
10
-8.0229947487032618
20
12.453357406065809
30
0
10
-8.4928204485938235
20
12.336357712645318
30
0
10
-8.7293245600263489
20
12.277461597475938
30
0
0
SPLINE
5
180
100
AcDbEntity
8
0
100
AcDbSpline
70
0
71
3
72
9
73
5
74
0
42
0.000000001
43
0.0000000001
44
0.0000000001
40
-0.055451287698181646
40
-0.055451287698181646
40
-0.055451287698181646
40
-0.055451287698181646
40
-0.034262217542419267
40
0
40
0
40
0
40
0
10
-5.4577254865212961
20
9.193604722237934
30
0
10
-5.4369458872350247
20
9.2611984442255828
30
0
10
-5.386509188088942
20
9.4389690884167656
30
0
10
-5.3629974389414983
20
9.6227453978540112
30
0
10
-5.348470009597075
20
9.7362970240552666
30
0
0
LINE
5
181
100
AcDbEntity
8
0
100
AcDbLine
10
-10.463946177652534
20
11.161559087737555
30
0
11
-9.9280919886220005
21
10.625704898707017
31
0
0
SPLINE
5
182
100
AcDbEntity
8
0
100
AcDbSpline
70
0
71
3
72
9
73
5
74
0
42
0.000000001
43
0.0000000001
44
0.0000000001
40
-0.028549408024533304
40
-0.028549408024533304
40
-0.028549408024533304
40
-0.028549408024533304
40
-0.011388555430981776
40
0
40
0
40
0
40
0
10
-8.9944893500902108
20
10.421306381154947
30
0
10
-8.9455661474538832
20
10.391434899152923
30
0
10
-8.8641757581176215
20
10.341739633528782
30
0
10
-8.7914720970743012
20
10.280147682611592
30
0
10
-8.7624701061007677
20
10.255578229314349
30
0
0
SPLINE
5
183
100
AcDbEntity
8
0
100
AcDbSpline
70
0
71
3
72
9
73
5
74
0
42
0.000000001
43
0.0000000001
44
0.0000000001
40
-0.055160092356106055
40
-0.055160092356106055
40
-0.055160092356106055
40
-0.055160092356106055
40
-0.025947929947402176
40
0
40
0
40
0
40
0
10
-3.530984948253316
20
5.024093071466897
30
0
10
-3.4638746342815212
20
4.9525485320709581
30
0
10
-3.3371530631448247
20
4.8174540003672934
30
0
10
-3.258584507903258
20
4.6499148458959807
30
0
10
-3.2216249728409285
20
4.5711025368881746
30
0
0
LINE
5
184
100
AcDbEntity
8
0
100
AcDbLine
10
-5.420285710648729
20
6.91339383386231
30
0
11
-3.530984948253316
21
5.024093071466897
31
0
0
SPLINE
5
185
100
AcDbEntity
8
0
100
AcDbSpline
70
0
71
3
72
9
73
5
74
0
42
0.000000001
43
0.0000000001
44
0.0000000001
40
-0.067948059009688005
40
-0.067948059009688005
40
-0.067948059009688005
40
-0.067948059009688005
40
-0.033843770847667605
40
-0.012615014536256767
40
-0.012615014536256767
40
-0.012615014536256767
40
-0.012615014536256767
10
-9.7325323901284513
20
5.3522346435238912
30
0
10
-9.6194910685481343
20
5.3664345166039507
30
0
10
-9.4360853793684196
20
5.3894733264135306
30
0
10
-9.2583213285949242
20
5.4385220162829393
30
0
10
-9.1904309233354766
20
5.4587667644277822
30
0
0
SPLINE
5
186
100
AcDbEntity
8
0
100
AcDbSpline
70
0
71
3
72
9
73
5
74
0
42
0.000000001
43
0.0000000001
44
0.0000000001
40
-0.024879284128520203
40
-0.024879284128520203
40
-0.024879284128520203
40
-0.024879284128520203
40
-0.0096674586653542234
40
0
40
0
40
0
40
0
10
-5.630207783432394
20
7.0459764396284825
30
0
10
-5.5849040156261021
20
7.0228184130579052
30
0
10
-5.5108086801205403
20
6.9849429375405041
30
0
10
-5.4456173915789829
20
6.9334159241206903
30
0
10
-5.420285710648729
20
6.91339383386231
30
0
0
LINE
5
187
100
AcDbEntity
8
0
100
AcDbLine
10
-9.3590911998458264
20
10.664374421481517
30
0
11
-8.9944893500902108
21
10.421306381154947
31
0
0
SPLINE
5
188
100
AcDbEntity
8
0
100
AcDbSpline
70
0
71
3
72
9
73
5
74
0
42
0.000000001
43
0.0000000001
44
0.0000000001
40
-0.12576488310805672
40
-0.12576488310805672
40
-0.12576488310805672
40
-0.12576488310805672
40
-0.062900644094422281
40
0
40
0
40
0
40
0
10
-8.8320761406080557
20
4.3744385055175208
30
0
10
-8.8507103907236999
20
4.1637963329006702
30
0
10
-8.8879896821678024
20
3.7423900034445898
30
0
10
-8.7733851223559896
20
3.3351541010290569
30
0
10
-8.7160662551955319
20
3.1314772086623606
30
0
0
SPLINE
5
189
100
AcDbEntity
8
0
100
AcDbSpline
70
0
71
3
72
9
73
5
74
0
42
0.000000001
43
0.0000000001
44
0.0000000001
40
-0.1434816440244783
40
-0.1434816440244783
40
-0.1434816440244783
40
-0.1434816440244783
40
-0.071254835085317061
40
0
40
0
40
0
40
0
10
-12.273697279650486
20
8.7330888778517988
30
0
10
-12.332593520534772
20
8.4965846959201645
30
0
10
-12.449593421168032
20
8.0267590267451698
30
0
10
-12.365284568033097
20
7.5500772265679128
30
0
10
-12.323415704129241
20
7.3133508962367149
30
0
0
SPLINE
5
190
100
AcDbEntity
8
0
100
AcDbSpline
70
0
71
3
72
9
73
5
74
0
42
0.000000001
43
0.0000000001
44
0.0000000001
40
-0.030136790087452313
40
-0.030136790087452313
40
-0.030136790087452313
40
-0.030136790087452313
40
-0.013002607862316258
40
0
40
0
40
0
40
0
10
-6.4257032072951992
20
7.1233161173802175
30
0
10
-6.372986631770404
20
7.1458809837606108
30
0
10
-6.2802650562761571
20
7.1855696384347567
30
0
10
-6.1811877938520858
20
7.2038272783410404
30
0
10
-6.13844061382283
20
7.2117045914690792
30
0
0
SPLINE
5
191
100
AcDbEntity
8
0
100
AcDbSpline
70
0
71
3
72
9
73
5
74
0
42
0.000000001
43
0.0000000001
44
0.0000000001
40
-0.028936217637926469
40
-0.028936217637926469
40
-0.028936217637926469
40
-0.028936217637926469
40
-0.015728416779619857
40
0
40
0
40
0
40
0
10
-8.0034351706708282
20
6.9266520860095637
30
0
10
-8.0475333757370144
20
6.9299600801119974
30
0
10
-8.144145618223579
20
6.9372073757307025
30
0
10
-8.2355109111320122
20
6.9697372338241887
30
0
10
-8.2851729445061455
20
6.9874189907240858
30
0
0
SPLINE
5
192
100
AcDbEntity
8
0
100
AcDbSpline
70
0
71
3
72
9
73
5
74
0
42
0.000000001
43
0.0000000001
44
0.0000000001
40
-0.14248501811160738
40
-0.14248501811160738
40
-0.14248501811160738
40
-0.14248501811160738
40
-0.067076681926899459
40
0
40
0
40
0
40
0
10
-2.6250034576273853
20
3.5546360331703304
30
0
10
-2.4566431805493893
20
3.7416982360547184
30
0
10
-2.138524278284069
20
4.0951546669285364
30
0
10
-1.8683217631667739
20
4.486369626792456
30
0
10
-1.7411204026126841
20
4.6705391751114398
30
0
0
LINE
5
193
100
AcDbEntity
8
0
100
AcDbLine
10
-2.6968195801475225
20
3.4717723787185166
30
0
11
-2.6250034576273853
21
3.5546360331703304
31
0
0
SPLINE
5
194
100
AcDbEntity
8
0
100
AcDbSpline
70
0
71
3
72
9
73
5
74
0
42
0.000000001
43
0.0000000001
44
0.0000000001
40
-0.026626156173890053
40
-0.026626156173890053
40
-0.026626156173890053
40
-0.026626156173890053
40
-0.014590977266731255
40
0
40
0
40
0
40
0
10
-4.2800755202232317
20
3.2032924355619681
30
0
10
-4.3205108311836833
20
3.2034542609697358
30
0
10
-4.4099683218348904
20
3.2038122771332955
30
0
10
-4.4937851847698376
20
3.2355946321696667
30
0
10
-4.5397163335870152
20
3.2530111761420866
30
0
0
SPLINE
5
195
100
AcDbEntity
8
0
100
AcDbSpline
70
0
71
3
72
9
73
5
74
0
42
0.000000001
43
0.0000000001
44
0.0000000001
40
-0.031595831685823042
40
-0.031595831685823042
40
-0.031595831685823042
40
-0.031595831685823042
40
-0.017995272827283727
40
0
40
0
40
0
40
0
10
-6.9228874520827466
20
8.0071998045976436
30
0
10
-6.9291779358670968
20
7.9621450763519839
30
0
10
-6.943791531450918
20
7.8574772001928697
30
0
10
-6.9832680524895174
20
7.7592879325493103
30
0
10
-7.0057517387372892
20
7.7033646488223075
30
0
0
SPLINE
5
196
100
AcDbEntity
8
0
100
AcDbSpline
70
0
71
3
72
9
73
5
74
0
42
0.000000001
43
0.0000000001
44
0.0000000001
40
-0.20720410915378018
40
-0.20720410915378018
40
-0.20720410915378018
40
-0.20720410915378018
40
-0.10591073655316689
40
0
40
0
40
0
40
0
10
-5.348470009597075
20
9.7362970240552666
30
0
10
-5.3580861224613932
20
10.084227819735146
30
0
10
-5.3777566897296953
20
10.795949512034483
30
0
10
-5.8372719446545585
20
11.341314574140394
30
0
10
-6.0721495216739854
20
11.620073599016356
30
0
0
SPLINE
5
197
100
AcDbEntity
8
0
100
AcDbSpline
70
0
71
3
72
9
73
5
74
0
42
0.000000001
43
0.0000000001
44
0.0000000001
40
-0.050860455809078498
40
-0.050860455809078498
40
-0.050860455809078498
40
-0.050860455809078498
40
-0.027356319561277483
40
0
40
0
40
0
40
0
10
-7.1913671845050526
20
5.9267587767974161
30
0
10
-7.2010189578492776
20
6.0057378090985214
30
0
10
-7.2219043708028821
20
6.1766400511483628
30
0
10
-7.1589416486537383
20
6.3374490742238763
30
0
10
-7.1250758816219673
20
6.4239434430534494
30
0
0
SPLINE
5
198
100
AcDbEntity
8
0
100
AcDbSpline
70
0
71
3
72
9
73
5
74
0
42
0.000000001
43
0.0000000001
44
0.0000000001
40
-0.076180044007949491
40
-0.076180044007949491
40
-0.076180044007949491
40
-0.076180044007949491
40
-0.041455049368732663
40
0
40
0
40
0
40
0
10
-5.3407356287827801
20
1.3913310348169248
30
0
10
-5.2347033375207142
20
1.4380674203515507
30
0
10
-5.0020886258834221
20
1.5405981750368039
30
0
10
-4.7849406223255073
20
1.6728934416877528
30
0
10
-4.6667747519188669
20
1.7448848258052596
30
0
0
SPLINE
5
199
100
AcDbEntity
8
0
100
AcDbSpline
70
0
71
3
72
9
73
5
74
0
42
0.000000001
43
0.0000000001
44
0.0000000001
40
-0.024032096492023022
40
-0.024032096492023022
40
-0.024032096492023022
40
-0.024032096492023022
40
-0.012568416966033403
40
0
40
0
40
0
40
0
10
-6.13844061382283
20
7.2117045914690792
30
0
10
-6.1000309476275891
20
7.2130369919431931
30
0
10
-6.0195101338576604
20
7.2158301943078733
30
0
10
-5.9416285006081226
20
7.1949849664816643
30
0
10
-5.9008976038675511
20
7.1840832328289821
30
0
0
SPLINE
5
200
100
AcDbEntity
8
0
100
AcDbSpline
70
0
71
3
72
9
73
5
74
0
42
0.000000001
43
0.0000000001
44
0.0000000001
40
-0.022556770394678134
40
-0.022556770394678134
40
-0.022556770394678134
40
-0.022556770394678134
40
-0.015776814602377245
40
0
40
0
40
0
40
0
10
-7.2377711934609721
20
8.7308793166745531
30
0
10
-7.2251682312457071
20
8.7121113687924225
30
0
10
-7.1832384408914187
20
8.6496708007230421
30
0
10
-7.147063135730642
20
8.583683268755447
30
0
10
-7.1217611499977673
20
8.5375298061938558
30
0
0
LINE
5
201
100
AcDbEntity
8
0
100
AcDbLine
10
-8.7624701061007677
20
10.255578229314349
30
0
11
-7.2377711934609721
21
8.7308793166745531
31
0
0
LINE
5
202
100
AcDbEntity
8
0
100
AcDbLine
10
-3.2713435026868041
20
4.0462963012577982
30
0
11
-2.6968195801475225
21
3.4717723787185166
31
0
0
SPLINE
5
203
100
AcDbEntity
8
0
100
AcDbSpline
70
0
71
3
72
9
73
5
74
0
42
0.000000001
43
0.0000000001
44
0.0000000001
40
-0.072814624091006697
40
-0.072814624091006697
40
-0.072814624091006697
40
-0.072814624091006697
40
-0.02861179296672408
40
0
40
0
40
0
40
0
10
-10.224192447481679
20
8.7938558879334412
30
0
10
-10.329728695876213
20
8.8982512542901198
30
0
10
-10.503576887482238
20
9.0702200889724853
30
0
10
-10.620277883658291
20
9.2842711685976873
30
0
10
-10.666134396457512
20
9.368380442675452
30
0
0
LINE
5
204
100
AcDbEntity
8
0
100
AcDbLine
10
-10.627464662948769
20
9.9263322243802499
30
0
11
-11.163318851979305
21
10.462186413410786
31
0
0
SPLINE
5
205
100
AcDbEntity
8
0
100
AcDbSpline
70
0
71
3
72
9
73
5
74
0
42
0.000000001
43
0.0000000001
44
0.0000000001
40
-0.026626170136373025
40
-0.026626170136373025
40
-0.026626170136373025
40
-0.026626170136373025
40
-0.012035178907158798
40
0
40
0
40
0
40
0
10
-3.2216249728409285
20
4.5711025368881746
30
0
10
-3.2042085177312813
20
4.5251713115548622
30
0
10
-3.1724263386019169
20
4.4413543452442896
30
0
10
-3.1720682851655022
20
4.3518968187486342
30
0
10
-3.1719064429950521
20
4.3114615127901477
30
0
0
SPLINE
5
206
100
AcDbEntity
8
0
100
AcDbSpline
70
0
71
3
72
9
73
5
74
0
42
0.000000001
43
0.0000000001
44
0.0000000001
40
-0.057853433234614421
40
-0.057853433234614421
40
-0.057853433234614421
40
-0.057853433234614421
40
-0.024102718626569371
40
0
40
0
40
0
40
0
10
-9.9280919886220005
20
10.625704898707017
30
0
10
-9.8185030096808141
20
10.660356116992906
30
0
10
-9.6306522115554145
20
10.719753139156206
30
0
10
-9.4389553528903605
20
10.680660906628772
30
0
10
-9.3590911998458264
20
10.664374421481517
30
0
0
LINE
5
207
100
AcDbEntity
8
0
100
AcDbLine
10
-3.4403865968858431
20
2.728205361980196
30
0
11
-4.0149105194251247
21
3.3027292845194776
31
0
0
LINE
5
208
100
AcDbEntity
8
0
100
AcDbLine
10
-7.0057517387372892
20
7.7033646488223075
30
0
11
-6.4257032072951992
21
7.1233161173802175
31
0
0
SPLINE
5
209
100
AcDbEntity
8
0
100
AcDbSpline
70
0
71
3
72
9
73
5
74
0
42
0.000000001
43
0.0000000001
44
0.0000000001
40
-0.028621839739887418
40
-0.028621839739887418
40
-0.028621839739887418
40
-0.028621839739887418
40
-0.013329955159874986
40
0
40
0
40
0
40
0
10
-6.9891785442315912
20
8.2834133909986392
30
0
10
-6.968422707048477
20
8.2362899823755935
30
0
10
-6.929573980299736
20
8.148089038760773
30
0
10
-6.9250120601363658
20
8.0519665941567258
30
0
10
-6.9228874520827466
20
8.0071998045976436
30
0
0
SPLINE
5
210
100
AcDbEntity
8
0
100
AcDbSpline
70
0
71
3
72
9
73
5
74
0
42
0.000000001
43
0.0000000001
44
0.0000000001
40
-0.028464283628987213
40
-0.028464283628987213
40
-0.028464283628987213
40
-0.028464283628987213
40
-0.015936860183923526
40
0
40
0
40
0
40
0
10
-3.1719064429950521
20
4.3114615127901477
30
0
10
-3.1802814549741862
20
4.270317213889701
30
0
10
-3.1993108042586376
20
4.1768308718055547
30
0
10
-3.2454888749691606
20
4.0931489501164364
30
0
10
-3.2713435026868041
20
4.0462963012577982
30
0
0
SPLINE
5
211
100
AcDbEntity
8
0
100
AcDbSpline
70
0
71
3
72
9
73
5
74
0
42
0.000000001
43
0.0000000001
44
0.0000000001
40
-0.14391018141246431
40
-0.14391018141246431
40
-0.14391018141246431
40
-0.14391018141246431
40
-0.072871195637926447
40
0
40
0
40
0
40
0
10
-12.323415704129241
20
7.3133508962367149
30
0
10
-12.250026515243881
20
7.0852891971113285
30
0
10
-12.101355312086138
20
6.623283720308299
30
0
10
-11.779357598354911
20
6.2599127775247441
30
0
10
-11.616308965089541
20
6.0759141556008007
30
0
0
SPLINE
5
212
100
AcDbEntity
8
0
100
AcDbSpline
70
0
71
3
72
9
73
5
74
0
42
0.000000001
43
0.0000000001
44
0.0000000001
40
-0.13106213728388449
40
-0.13106213728388449
40
-0.13106213728388449
40
-0.13106213728388449
40
-0.066951413856076461
40
0
40
0
40
0
40
0
10
-8.7160662551955319
20
3.1314772086623606
30
0
10
-8.6310304419282495
20
2.9336690420825966
30
0
10
-8.4571909524232893
20
2.5292880010022616
30
0
10
-8.1605135332144663
20
2.2038947075690118
30
0
10
-8.0089596742065154
20
2.0376717120790722
30
0
0
SPLINE
5
213
100
AcDbEntity
8
0
100
AcDbSpline
70
0
71
3
72
9
73
5
74
0
42
0.000000001
43
0.0000000001
44
0.0000000001
40
-0.028669834357044007
40
-0.028669834357044007
40
-0.028669834357044007
40
-0.028669834357044007
40
-0.011365102768499721
40
0
40
0
40
0
40
0
10
-7.1217611499977673
20
8.5375298061938558
30
0
10
-7.0934193448834204
20
8.4872621232114334
30
0
10
-7.0464636984551374
20
8.4039804994980436
30
0
10
-7.0054406320879643
20
8.3176399360360325
30
0
10
-6.9891785442315912
20
8.2834133909986392
30
0
0
SPLINE
5
214
100
AcDbEntity
8
0
100
AcDbSpline
70
0
71
3
72
9
73
5
74
0
42
0.000000001
43
0.0000000001
44
0.0000000001
40
-0.20663792266398462
40
-0.20663792266398462
40
-0.20663792266398462
40
-0.20663792266398462
40
-0.092340708750765124
40
0
40
0
40
0
40
0
10
-11.163318851979305
20
10.462186413410786
30
0
10
-11.417446052136405
20
10.174323026644295
30
0
10
-11.876882594244497
20
9.6538948358258292
30
0
10
-12.151139526543812
20
9.017483365775238
30
0
10
-12.273697279650486
20
8.7330888778517988
30
0
0
SPLINE
5
215
100
AcDbEntity
8
0
100
AcDbSpline
70
0
71
3
72
9
73
5
74
0
42
0.000000001
43
0.0000000001
44
0.0000000001
40
-0.13127218381741484
40
-0.13127218381741484
40
-0.13127218381741484
40
-0.13127218381741484
40
-0.064300544894476508
40
0
40
0
40
0
40
0
10
-2.0339073942536183
20
8.0127239920319653
30
0
10
-2.2004854545649648
20
8.1641200400743532
30
0
10
-2.5269977828402324
20
8.4608738625501481
30
0
10
-2.9339173143475152
20
8.6309826198016975
30
0
10
-3.1332371309547908
20
8.7143063329030994
30
0
0
SPLINE
5
216
100
AcDbEntity
8
0
100
AcDbSpline
70
0
71
3
72
9
73
5
74
0
42
0.000000001
43
0.0000000001
44
0.0000000001
40
-0.20720410915378018
40
-0.20720410915378018
40
-0.20720410915378018
40
-0.20720410915378018
40
-0.10129337260061329
40
0
40
0
40
0
40
0
10
-11.616308965089541
20
6.0759141556008007
30
0
10
-11.337549940213577
20
5.8410365785813756
30
0
10
-10.792184878107667
20
5.3815213236565116
30
0
10
-10.08046318580833
20
5.3618507563882094
30
0
10
-9.7325323901284513
20
5.3522346435238912
30
0
0
SPLINE
5
217
100
AcDbEntity
8
0
100
AcDbSpline
70
0
71
3
72
9
73
5
74
0
42
0.000000001
43
0.0000000001
44
0.0000000001
40
-0.028464255505527145
40
-0.028464255505527145
40
-0.028464255505527145
40
-0.028464255505527145
40
-0.012527423445063687
40
0
40
0
40
0
40
0
10
-4.0149105194251247
20
3.3027292845194776
30
0
10
-4.061763104629847
20
3.2768747425494626
30
0
10
-4.145444977620782
20
3.2306967891255436
30
0
10
-4.2389312231610807
20
3.2116674509338146
30
0
10
-4.2800755202232317
20
3.2032924355619681
30
0
0
SPLINE
5
218
100
AcDbEntity
8
0
100
AcDbSpline
70
0
71
3
72
9
73
5
74
0
42
0.000000001
43
0.0000000001
44
0.0000000001
40
-0.059055527661610409
40
-0.059055527661610409
40
-0.059055527661610409
40
-0.059055527661610409
40
-0.035590300719117382
40
0
40
0
40
0
40
0
10
-8.6968329477060831
20
4.9484154314811288
30
0
10
-8.7217044222336888
20
4.8741535596900274
30
0
10
-8.7808288190955199
20
4.6863792590943527
30
0
10
-8.8128052692459988
20
4.4917396630676185
30
0
10
-8.8320761406080557
20
4.3744385055175208
30
0
0
SPLINE
5
219
100
AcDbEntity
8
0
100
AcDbSpline
70
0
71
3
72
9
73
5
74
0
42
0.000000001
43
0.0000000001
44
0.0000000001
40
-0.050335375536786624
40
-0.050335375536786624
40
-0.050335375536786624
40
-0.050335375536786624
40
-0.025304076892718217
40
0
40
0
40
0
40
0
10
-8.2851729445061455
20
6.9874189907240858
30
0
10
-8.3606040562084445
20
7.0241804459741095
30
0
10
-8.5122882891634184
20
7.0981039639505674
30
0
10
-8.636866747111192
20
7.2119336822536804
30
0
10
-8.6994935348418814
20
7.2691569752936473
30
0
0
LINE
5
220
100
AcDbEntity
8
0
100
AcDbLine
10
-7.1250758816219673
20
6.4239434430534494
30
0
11
-7.7051244130640573
21
7.0039919744955395
31
0
0
LINE
5
221
100
AcDbEntity
8
0
100
AcDbLine
10
-4.9927072896342235
20
3.562370730085989
30
0
11
-6.8820080520296365
21
5.4516714924814025
31
0
0
SPLINE
5
222
100
AcDbEntity
8
0
100
AcDbSpline
70
0
71
3
72
9
73
5
74
0
42
0.000000001
43
0.0000000001
44
0.0000000001
40
-0.066250937219753642
40
-0.066250937219753642
40
-0.066250937219753642
40
-0.066250937219753642
40
-0.033906220107098962
40
0
40
0
40
0
40
0
10
-1.3875669277257132
20
5.3334522039423131
30
0
10
-1.3540913930990772
20
5.4362671761063819
30
0
10
-1.285524228476099
20
5.6468607095841339
30
0
10
-1.2616686398124566
20
5.8670843187575272
30
0
10
-1.2494597130567306
20
5.9797914060647628
30
0
0
SPLINE
5
223
100
AcDbEntity
8
0
100
AcDbSpline
70
0
71
3
72
9
73
5
74
0
42
0.000000001
43
0.0000000001
44
0.0000000001
40
-0.030932455722417658
40
-0.030932455722417658
40
-0.030932455722417658
40
-0.030932455722417658
40
-0.013986357709536412
40
0
40
0
40
0
40
0
10
-7.7051244130640573
20
7.0039919744955395
30
0
10
-7.7578747427352237
20
6.9829781647843658
30
0
10
-7.8541622323777283
20
6.9446207365459642
30
0
10
-7.9569560998359892
20
6.9322469794352397
30
0
10
-8.0034351706708282
20
6.9266520860095637
30
0
0
SPLINE
5
224
100
AcDbEntity
8
0
100
AcDbSpline
70
0
71
3
72
9
73
5
74
0
42
0.000000001
43
0.0000000001
44
0.0000000001
40
-0.057184673340673627
40
-0.057184673340673627
40
-0.057184673340673627
40
-0.057184673340673627
40
-0.025214242200378781
40
0
40
0
40
0
40
0
10
-6.8820080520296365
20
5.4516714924814025
30
0
10
-6.9567854671343445
20
5.5294350512971739
30
0
10
-7.0905378722006898
20
5.6685286934558965
30
0
10
-7.1605132019660083
20
5.8477398258556015
30
0
10
-7.1913671845050526
20
5.9267587767974161
30
0
0
SPLINE
5
225
100
AcDbEntity
8
0
100
AcDbSpline
70
0
71
3
72
9
73
5
74
0
42
0.000000001
43
0.0000000001
44
0.0000000001
40
-0.14180285318067548
40
-0.14180285318067548
40
-0.14180285318067548
40
-0.14180285318067548
40
-0.069652127089594493
40
0
40
0
40
0
40
0
10
-4.6667747519188669
20
1.7448848258052596
30
0
10
-4.4659305190597358
20
1.8780622174625725
30
0
10
-4.0711973430088646
20
2.1398050319746309
30
0
10
-3.7259686428186853
20
2.464001612439684
30
0
10
-3.5563957974120797
20
2.6232436933856356
30
0
0
SPLINE
5
226
100
AcDbEntity
8
0
100
AcDbSpline
70
0
71
3
72
9
73
5
74
0
42
0.000000001
43
0.0000000001
44
0.0000000001
40
-0.056596449280722612
40
-0.056596449280722612
40
-0.056596449280722612
40
-0.056596449280722612
40
-0.032285738478672665
40
0
40
0
40
0
40
0
10
-10.666134396457512
20
9.368380442675452
30
0
10
-10.680258926355364
20
9.4491963962777099
30
0
10
-10.713141479501864
20
9.6373396413011356
30
0
10
-10.658586076166078
20
9.8213579973188523
30
0
10
-10.627464662948769
20
9.9263322243802499
30
0
0
SPLINE
5
227
100
AcDbEntity
8
0
100
AcDbSpline
70
0
71
3
72
9
73
5
74
0
42
0.000000001
43
0.0000000001
44
0.0000000001
40
-0.1439101832553667
40
-0.1439101832553667
40
-0.1439101832553667
40
-0.1439101832553667
40
-0.071038982824783992
40
0
40
0
40
0
40
0
10
-6.0721495216739854
20
11.620073599016356
30
0
10
-6.2561482516174882
20
11.783122116031262
30
0
10
-6.6195193884790084
20
12.105119583130525
30
0
10
-7.0815248124090333
20
12.25379089082212
30
0
10
-7.3095864730441402
20
12.327180127321814
30
0
0
LINE
5
228
100
AcDbEntity
8
0
100
AcDbLine
10
-3.5563957974120797
20
2.6232436933856356
30
0
11
-3.4403865968858431
21
2.728205361980196
31
0
0
SPLINE
5
229
100
AcDbEntity
8
0
100
AcDbSpline
70
0
71
3
72
9
73
5
74
0
42
0.000000001
43
0.0000000001
44
0.0000000001
40
-0.070867329132703216
40
-0.070867329132703216
40
-0.070867329132703216
40
-0.070867329132703216
40
-0.035115004027134959
40
-0.011674718268417901
40
-0.011674718268417901
40
-0.011674718268417901
40
-0.011674718268417901
10
-4.3706740823249461
20
8.8358405638006285
30
0
10
-4.4884879005646301
20
8.8162384393604629
30
0
10
-4.6835439557136489
20
8.7837845801869943
30
0
10
-4.8713352910003103
20
8.7232413511807749
30
0
10
-4.9453219380328193
20
8.6978017300861818
30
0
0
SPLINE
5
230
100
AcDbEntity
8
0
100
AcDbSpline
70
0
71
3
72
9
73
5
74
0
42
0.000000001
43
0.0000000001
44
0.0000000001
40
-0.2237138006834872
40
-0.2237138006834872
40
-0.2237138006834872
40
-0.2237138006834872
40
-0.1092608937339008
40
0
40
0
40
0
40
0
10
-8.0089596742065154
20
2.0376717120790722
30
0
10
-7.7079265733442419
20
1.7836574689228468
30
0
10
-7.119516362364636
20
1.287152021584167
30
0
10
-6.3512466319962684
20
1.2643571583930875
30
0
10
-5.9760268775050696
20
1.2532242416164268
30
0
0
SPLINE
5
231
100
AcDbEntity
8
0
100
AcDbSpline
70
0
71
3
72
9
73
5
74
0
42
0.000000001
43
0.0000000001
44
0.0000000001
40
-0.065138246439102043
40
-0.065138246439102043
40
-0.065138246439102043
40
-0.065138246439102043
40
-0.031737548012736337
40
0
40
0
40
0
40
0
10
-5.9760268775050696
20
1.2532242416164268
30
0
10
-5.8652443441236199
20
1.2667992337200333
30
0
10
-5.6491955696808542
20
1.293273266381441
30
0
10
-5.4417904096973837
20
1.359206259465636
30
0
10
-5.3407356287827801
20
1.3913310348169248
30
0
0
SPLINE
5
232
100
AcDbEntity
8
0
100
AcDbSpline
70
0
71
3
72
9
73
5
74
0
42
0.000000001
43
0.0000000001
44
0.0000000001
40
-0.12530839043815423
40
-0.12530839043815423
40
-0.12530839043815423
40
-0.12530839043815423
40
-0.062722373593237193
40
0
40
0
40
0
40
0
10
-3.1332371309547908
20
8.7143063329030994
30
0
10
-3.3354484524331083
20
8.773214851392682
30
0
10
-3.7403116551131523
20
8.8911602329196331
30
0
10
-4.1604008971768138
20
8.8542938258049091
30
0
10
-4.3706740823249461
20
8.8358405638006285
30
0
0
SPLINE
5
233
100
AcDbEntity
8
0
100
AcDbSpline
70
0
71
3
72
9
73
5
74
0
42
0.000000001
43
0.0000000001
44
0.0000000001
40
-0.055160103695126847
40
-0.055160103695126847
40
-0.055160103695126847
40
-0.055160103695126847
40
-0.029212164999052669
40
0
40
0
40
0
40
0
10
-4.5397163335870152
20
3.2530111761420866
30
0
10
-4.6185287111289943
20
3.2899706353957181
30
0
10
-4.7860679892425475
20
3.3685390191438569
30
0
10
-4.9211626763180814
20
3.4952604815443311
30
0
10
-4.9927072896342235
20
3.562370730085989
30
0
0
SPLINE
5
234
100
AcDbEntity
8
0
100
AcDbSpline
70
0
71
3
72
9
73
5
74
0
42
0.000000001
43
0.0000000001
44
0.0000000001
40
-0.075225468316516636
40
-0.075225468316516636
40
-0.075225468316516636
40
-0.075225468316516636
40
-0.03410766970734469
40
0
40
0
40
0
40
0
10
-1.7411204026126841
20
4.6705391751114398
30
0
10
-1.6677966496495713
20
4.786624054350904
30
0
10
-1.5336500308628289
20
4.9990026276363615
30
0
10
-1.433139151496857
20
5.2291169960759163
30
0
10
-1.3875669277257132
20
5.3334522039423131
30
0
0
SPLINE
5
235
100
AcDbEntity
8
0
100
AcDbSpline
70
0
71
3
72
9
73
5
74
0
42
0.000000001
43
0.0000000001
44
0.0000000001
40
-0.20740433206040437
40
-0.20740433206040437
40
-0.20740433206040437
40
-0.20740433206040437
40
-0.11487897175488132
40
0
40
0
40
0
40
0
10
-8.7293245600263489
20
12.277461597475938
30
0
10
-9.0141867771034505
20
12.154437684898699
30
0
10
-9.6527323354999037
20
11.878667968020146
30
0
10
-10.174786264754188
20
11.417174969255182
30
0
10
-10.463946177652536
20
11.161559087737555
30
0
0
LINE
5
236
100
AcDbEntity
8
0
100
AcDbLine
10
-8.6994935348418814
20
7.2691569752936473
30
0
11
-10.224192447481679
21
8.7938558879334412
31
0
0
SPLINE
5
237
100
AcDbEntity
8
0
100
AcDbSpline
70
0
71
3
72
9
73
5
74
0
42
0.000000001
43
0.0000000001
44
0.0000000001
40
-0.22371378878010703
40
-0.22371378878010703
40
-0.22371378878010703
40
-0.22371378878010703
40
-0.11445290407615091
40
0
40
0
40
0
40
0
10
-1.2494597130567306
20
5.9797914060647628
30
0
10
-1.2605926693064939
20
6.3550111288719968
30
0
10
-1.2833876139905547
20
7.1232808169828665
30
0
10
-1.7798931159928832
20
7.7116909318708533
30
0
10
-2.0339073942536183
20
8.0127239920319653
30
0
0
ARC
5
238
100
AcDbEntity
8
0
100
AcDbCircle
10
-5.0753845306322019
20
9.0760658203806805
30
0
40
0.39999999999999752
210
0
220
0
230
1
100
AcDbArc
50
162.91157341336964
51
288.975055639706
0
ARC
5
239
100
AcDbEntity
8
0
100
AcDbCircle
10
-9.0761258164263463
20
5.0754466077252003
30
0
40
0.39999999999999913
210
-0
220
0
230
1
100
AcDbArc
50
-18.516512068738166
51
106.60444823890469
0
LWPOLYLINE
5
240
100
AcDbEntity
8
0
100
AcDbPolyline
90
8
70
1
43
0.0
10
-0.80649226840227239
20
71.362876474941402
10
-2.9209327870988271
20
68.478655928896913
42
0.37013635690700453
10
-2.8215472998830782
20
67.180304510519221
10
-0.70710678118651904
20
65.065863991822638
42
0.41421356237310281
10
0.70710678118653725
20
65.065863991822624
10
2.8215472998831026
20
67.180304510519179
42
0.37013635690700342
10
2.9209327870988799
20
68.47865592889687
10
0.80649226840230059
20
71.362876474941373
42
0.50683109909858182
0
LWPOLYLINE
5
241
100
AcDbEntity
8
0
100
AcDbPolyline
90
8
70
1
43
0.0
10
-71.362876474941388
20
-0.80649226840230348
10
-68.47865592889687
20
-2.9209327870988955
42
0.37013635690699875
10
-67.180304510519193
20
-2.8215472998831226
10
-65.065863991822638
20
-0.70710678118654635
42
0.4142135623730977
10
-65.065863991822638
20
0.70710678118650172
10
-67.180304510519207
20
2.8215472998830653
42
0.3701363569070017
10
-68.478655928896899
20
2.9209327870988222
10
-71.362876474941402
20
0.80649226840226151
42
0.50683109909857893
0
ARC
5
242
100
AcDbEntity
8
0
100
AcDbCircle
10
-36.751891454616334
20
-250.29609272851604
30
0
40
248.0460927285161
210
0
220
-0
230
1
100
AcDbArc
50
87.444832096267561
51
92.132251803705216
0
ARC
5
243
100
AcDbEntity
8
0
100
AcDbCircle
10
-36.184886809563807
20
250.27140608634141
30
0
40
248.04609272851627
210
0
220
0
230
1
100
AcDbArc
50
267.72910785800235
51
273.75839832654253
0
ARC
5
244
100
AcDbEntity
8
0
100
AcDbCircle
10
-45.419144499219222
20
17.408335117694495
30
0
40
15.000000000000375
210
0
220
0
230
1
100
AcDbArc
50
229.26517195308745
51
267.72910785800167
0
ARC
5
245
100
AcDbEntity
8
0
100
AcDbCircle
10
-45.422656813378346
20
-17.411359085193261
30
0
40
14.999999999999931
210
0
220
0
230
1
100
AcDbArc
50
92.132251803705088
51
130.71954456383361
0
ARC
5
246
100
AcDbEntity
8
0
100
AcDbCircle
10
-250.27140608634136
20
36.184886809563736
30
0
40
248.04609272851624
210
-0
220
0
230
1
100
AcDbArc
50
-3.7583983265425078
51
2.2708921419975252
0
ARC
5
247
100
AcDbEntity
8
0
100
AcDbCircle
10
-17.408335117694502
20
45.419144499219222
30
0
40
15.000000000000377
210
0
220
-0
230
1
100
AcDbArc
50
2.2708921419981674
51
40.734828046912561
0
ARC
5
248
100
AcDbEntity
8
0
100
AcDbCircle
10
250.29609272851604
20
36.75189145461637
30
0
40
248.04609272851596
210
0
220
0
230
1
100
AcDbArc
50
177.86774819629488
51
182.55516790373241
0
ARC
5
249
100
AcDbEntity
8
0
100
AcDbCircle
10
17.411359085193254
20
45.422656813378346
30
0
40
14.999999999999931
210
0
220
0
230
1
100
AcDbArc
50
139.28045543616642
51
177.86774819629508
0
LINE
5
250
100
AcDbEntity
8
0
100
AcDbLine
10
-14.318912319027589
20
9.4969211470956534
30
0
11
-14.318912319027589
21
8.7458756374731799
31
0
0
ARC
5
251
100
AcDbEntity
8
0
100
AcDbCircle
10
-20.31891231902754
20
8.7458756374731443
30
0
40
5.999999999999952
210
-0
220
0
230
1
100
AcDbArc
50
-86.241601673458916
51
0
0
ARC
5
252
100
AcDbEntity
8
0
100
AcDbCircle
10
-25.961159045425291
20
-8.4906521379157809
30
0
40
6.0000000000006626
210
0
220
-0
230
1
100
AcDbArc
50
57.574968672776443
51
87.44483209626226
0
ARC
5
253
100
AcDbEntity
8
0
100
AcDbCircle
10
-20.318912319027667
20
9.4969211470956356
30
0
40
6.0000000000000755
210
0
220
-0
230
1
100
AcDbArc
50
0
51
23.056364008921342
0
ARC
5
254
100
AcDbEntity
8
0
100
AcDbCircle
10
8.4906521379151272
20
25.961159045425077
30
0
40
5.9999999999999476
210
0
220
0
230
1
100
AcDbArc
50
182.55516790373429
51
212.42503132722345
0
ARC
5
255
100
AcDbEntity
8
0
100
AcDbCircle
10
-8.7458756374731479
20
20.31891231902754
30
0
40
5.9999999999999512
210
0
220
0
230
1
100
AcDbArc
50
269.99999999999972
51
356.24160167345889
0
LINE
5
256
100
AcDbEntity
8
0
100
AcDbLine
10
-9.4969211470956552
20
14.318912319027588
30
0
11
-8.7458756374731816
21
14.318912319027588
31
0
0
ARC
5
257
100
AcDbEntity
8
0
100
AcDbCircle
10
-9.4969211470956392
20
20.31891231902766
30
0
40
6.0000000000000755
210
0
220
0
230
1
100
AcDbArc
50
246.94363599107865
51
269.99999999999983
0
ARC
5
258
100
AcDbEntity
8
0
100
AcDbCircle
10
25.961159045425074
20
8.4906521379151307
30
0
40
5.9999999999999485
210
0
220
0
230
1
100
AcDbArc
50
237.57496867277649
51
267.44483209626571
0
ARC
5
259
100
AcDbEntity
8
0
100
AcDbCircle
10
12.727922061357857
20
-12.727922061357855
30
0
40
2.25
210
0
220
0
230
1
100
AcDbArc
50
-113.05636400892153
51
23.05636400892152
0
CIRCLE
5
260
100
AcDbEntity
8
0
100
AcDbCircle
10
12.727922061357857
20
-12.727922061357855
30
0
40
1.0000000000000009
210
0
220
-0
230
1
0
ARC
5
261
100
AcDbEntity
8
0
100
AcDbCircle
10
-250.29609272851604
20
-36.75189145461637
30
0
40
248.04609272851596
210
-0
220
0
230
1
100
AcDbArc
50
-2.1322518037051403
51
2.555167903732428
0
ARC
5
262
100
AcDbEntity
8
0
100
AcDbCircle
10
20.31891231902754
20
-8.7458756374731443
30
0
40
5.999999999999952
210
0
220
0
230
1
100
AcDbArc
50
93.758398326541069
51
180
0
ARC
5
263
100
AcDbEntity
8
0
100
AcDbCircle
10
8.7458756374731479
20
-20.31891231902754
30
0
40
5.9999999999999512
210
0
220
-0
230
1
100
AcDbArc
50
89.999999999999673
51
176.24160167345894
0
ARC
5
264
100
AcDbEntity
8
0
100
AcDbCircle
10
9.4969211470956392
20
-20.31891231902766
30
0
40
6.0000000000000755
210
0
220
-0
230
1
100
AcDbArc
50
66.943635991078651
51
89.999999999999844
0
ARC
5
265
100
AcDbEntity
8
0
100
AcDbCircle
10
20.318912319027667
20
-9.4969211470956356
30
0
40
6.0000000000000755
210
0
220
0
230
1
100
AcDbArc
50
180
51
203.05636400892135
0
ARC
5
266
100
AcDbEntity
8
0
100
AcDbCircle
10
250.27140608634141
20
-36.184886809563764
30
0
40
248.04609272851636
210
0
220
0
230
1
100
AcDbArc
50
176.24160167345747
51
182.27089214199751
0
ARC
5
267
100
AcDbEntity
8
0
100
AcDbCircle
10
-8.4906521379157773
20
-25.961159045425291
30
0
40
6.0000000000006626
210
0
220
-0
230
1
100
AcDbArc
50
2.5551679037377069
51
32.425031327223529
0
LINE
5
268
100
AcDbEntity
8
0
100
AcDbLine
10
9.4969211470956552
20
-14.318912319027588
30
0
11
8.7458756374731816
21
-14.318912319027588
31
0
0
LINE
5
269
100
AcDbEntity
8
0
100
AcDbLine
10
14.318912319027589
20
-9.4969211470956534
30
0
11
14.318912319027589
21
-8.7458756374731799
31
0
0
ARC
5
270
100
AcDbEntity
8
0
100
AcDbCircle
10
36.751891454616334
20
250.29609272851604
30
0
40
248.04609272851599
210
0
220
0
230
1
100
AcDbArc
50
267.44483209626759
51
272.13225180370517
0
ARC
5
271
100
AcDbEntity
8
0
100
AcDbCircle
10
36.184886809563764
20
-250.27140608634136
30
0
40
248.04609272851624
210
0
220
-0
230
1
100
AcDbArc
50
87.729107858002322
51
93.758398326542533
0
LWPOLYLINE
5
272
100
AcDbEntity
8
0
100
AcDbPolyline
90
4
70
1
43
0.0
10
-4.9497474683058353
20
-57.464466094067262
42
-0.99999999999999989
10
-3.535533905932744
20
-56.05025253169417
10
-2.4748737341529212
20
-57.110912703474
42
-0.99999999999999989
10
-3.8890872965260126
20
-58.525126265847092
0
LWPOLYLINE
5
273
100
AcDbEntity
8
0
100
AcDbPolyline
90
4
70
1
43
0.0
10
-3.8890872965260161
20
-63.474873734152908
42
-0.99999999999999989
10
-2.4748737341529292
20
-64.889087296526
10
-3.5355339059327493
20
-65.94974746830583
42
-0.99999999999999989
10
-4.9497474683058407
20
-64.535533905932738
0
ARC
5
274
100
AcDbEntity
8
0
100
AcDbCircle
10
8.4852813742385536
20
-61.000000000000021
30
0
40
3.6250000000000071
210
0
220
0
230
1
100
AcDbArc
50
134.9999999999998
51
224.99999999999977
0
LINE
5
275
100
AcDbEntity
8
0
100
AcDbLine
10
3.1819805153394354
20
-64.181980515339475
30
0
11
4.242640687119259
21
-65.242640687119305
31
0
0
LWPOLYLINE
5
276
100
AcDbEntity
8
0
100
AcDbPolyline
90
4
70
1
43
0.0
10
57.110912703474
20
-2.4748737341528946
42
-0.99999999999999989
10
58.525126265847092
20
-3.8890872965259859
10
57.464466094067262
20
-4.9497474683058087
42
-0.99999999999999989
10
56.05025253169417
20
-3.5355339059327173
0
LWPOLYLINE
5
277
100
AcDbEntity
8
0
100
AcDbPolyline
90
4
70
1
43
0.0
10
63.474873734152922
20
-3.8890872965259717
42
-0.99999999999999989
10
64.889087296526014
20
-2.4748737341528848
10
65.949747468305844
20
-3.5355339059327049
42
-0.99999999999999989
10
64.535533905932752
20
-4.9497474683057963
0
ARC
5
278
100
AcDbEntity
8
0
100
AcDbCircle
10
-4.2426406871192945
20
-65.242640687119277
30
0
40
2.3749999999999982
210
0
220
0
230
1
100
AcDbArc
50
135.00000000000003
51
225.00000000000028
0
LWPOLYLINE
5
279
100
AcDbEntity
8
0
100
AcDbPolyline
90
8
70
1
43
0.0
10
-2.9209327870988839
20
-68.47865592889687
42
-0.37013635690699875
10
-2.8215472998831137
20
-67.180304510519193
10
-0.70710678118653336
20
-65.065863991822624
42
-0.4142135623730977
10
0.7071067811865106
20
-65.065863991822638
10
2.8215472998830688
20
-67.180304510519221
42
-0.3701363569070017
10
2.9209327870988355
20
-68.478655928896899
10
0.8064922684022714
20
-71.362876474941402
42
-0.50683109909857893
10
-0.8064922684022946
20
-71.362876474941388
0
LWPOLYLINE
5
280
100
AcDbEntity
8
0
100
AcDbPolyline
90
4
70
1
43
0.0
10
56.05025253169417
20
3.5355339059327529
10
57.110912703474
20
2.4748737341529301
42
0.99999999999999989
10
58.525126265847092
20
3.8890872965260215
10
57.464466094067262
20
4.9497474683058442
42
0.99999999999999989
0
LINE
5
281
100
AcDbEntity
8
0
100
AcDbLine
10
-3.1819805153394665
20
-57.818019484660546
30
0
11
-4.2426406871192901
21
-56.757359312880723
31
0
0
LINE
5
282
100
AcDbEntity
8
0
100
AcDbLine
10
64.181980515339461
20
3.1819805153394798
30
0
11
65.242640687119277
21
4.2426406871193034
31
0
0
CIRCLE
5
283
100
AcDbEntity
8
0
100
AcDbCircle
10
61.000000000000007
20
1.7763568394002505e-14
30
0
40
1.9999999999999984
210
0
220
-0
230
1
0
ARC
5
284
100
AcDbEntity
8
0
100
AcDbCircle
10
45.419144499219222
20
-17.408335117694495
30
0
40
15.000000000000375
210
0
220
-0
230
1
100
AcDbArc
50
49.265171953087432
51
87.729107858001697
0
LWPOLYLINE
5
285
100
AcDbEntity
8
0
100
AcDbPolyline
90
4
70
1
43
0.0
10
4.9497474683058043
20
-64.535533905932752
42
-0.99999999999999989
10
3.5355339059327173
20
-65.949747468305844
10
2.4748737341528901
20
-64.889087296526014
42
-0.99999999999999989
10
3.8890872965259815
20
-63.474873734152922
0
ARC
5
286
100
AcDbEntity
8
0
100
AcDbCircle
10
17.408335117694502
20
-45.419144499219222
30
0
40
15.000000000000377
210
0
220
0
230
1
100
AcDbArc
50
182.27089214199816
51
220.73482804691258
0
ARC
5
287
100
AcDbEntity
8
0
100
AcDbCircle
10
45.422656813378346
20
17.411359085193261
30
0
40
14.999999999999931
210
-0
220
0
230
1
100
AcDbArc
50
272.13225180370512
51
310.71954456383361
0
LWPOLYLINE
5
288
100
AcDbEntity
8
0
100
AcDbPolyline
90
4
70
1
43
0.0
10
64.889087296526
20
2.4748737341529381
10
65.94974746830583
20
3.5355339059327582
42
0.99999999999999989
10
64.535533905932738
20
4.9497474683058496
10
63.474873734152908
20
3.889087296526025
42
0.99999999999999989
0
LWPOLYLINE
5
289
100
AcDbEntity
8
0
100
AcDbPolyline
90
8
70
1
43
0.0
10
68.478655928896913
20
-2.9209327870988124
42
-0.37013635690700453
10
67.180304510519221
20
-2.8215472998830604
10
65.065863991822653
20
-0.70710678118650594
42
-0.41421356237310281
10
65.065863991822638
20
0.70710678118655057
10
67.180304510519179
20
2.821547299883107
42
-0.37013635690700342
10
68.47865592889687
20
2.9209327870988888
10
71.362876474941373
20
0.80649226840230703
42
-0.50683109909858182
10
71.362876474941402
20
-0.80649226840225907
0
LINE
5
290
100
AcDbEntity
8
0
100
AcDbLine
10
57.818019484660546
20
-3.1819805153394398
30
0
11
56.757359312880723
21
-4.2426406871192635
31
0
0
LINE
5
291
100
AcDbEntity
8
0
100
AcDbLine
10
66.922019292437341
20
5.9220192924373549
30
0
11
73.899897372291264
21
0.8064922684023168
31
0
0
LINE
5
292
100
AcDbEntity
8
0
100
AcDbLine
10
66.922019292437355
20
-5.9220192924372972
30
0
11
73.899897372291264
21
-0.80649226840226795
31
0
0
LINE
5
293
100
AcDbEntity
8
0
100
AcDbLine
10
64.181980515339475
20
-3.1819805153394265
30
0
11
65.242640687119305
21
-4.2426406871192501
31
0
0
LINE
5
294
100
AcDbEntity
8
0
100
AcDbLine
10
5.9220192924373061
20
-66.922019292437355
30
0
11
0.80649226840228128
21
-73.899897372291264
31
0
0
LWPOLYLINE
5
295
100
AcDbEntity
8
0
100
AcDbPolyline
90
4
70
1
43
0.0
10
3.5355339059327271
20
-56.05025253169417
42
-0.99999999999999989
10
4.9497474683058185
20
-57.464466094067262
10
3.8890872965259939
20
-58.525126265847092
42
-0.99999999999999989
10
2.4748737341529026
20
-57.110912703474
0
ARC
5
296
100
AcDbEntity
8
0
100
AcDbCircle
10
61.000000000000014
20
8.4852813742385678
30
0
40
3.6249999999999982
210
0
220
0
230
1
100
AcDbArc
50
224.99999999999977
51
315.00000000000006
0
ARC
5
297
100
AcDbEntity
8
0
100
AcDbCircle
10
73.308652735100111
20
2.6645352591003757e-14
30
0
40
0.99999999999998912
210
-0
220
0
230
1
100
AcDbArc
50
-53.754618737238992
51
53.754618737238872
0
ARC
5
298
100
AcDbEntity
8
0
100
AcDbCircle
10
56.757359312880737
20
4.2426406871193123
30
0
40
2.3749999999999805
210
0
220
-0
230
1
100
AcDbArc
50
45.000000000000291
51
130.71954456383344
0
ARC
5
299
100
AcDbEntity
8
0
100
AcDbCircle
10
-8.4852813742385624
20
-61.000000000000014
30
0
40
3.6249999999999982
210
-0
220
0
230
1
100
AcDbArc
50
-45
51
45.000000000000185
0
CIRCLE
5
300
100
AcDbEntity
8
0
100
AcDbCircle
10
-8.8817841970012523e-15
20
-61.000000000000007
30
0
40
1.9999999999999984
210
0
220
-0
230
1
0
LINE
5
301
100
AcDbEntity
8
0
100
AcDbLine
10
-3.1819805153394709
20
-64.181980515339461
30
0
11
-4.2426406871192945
21
-65.242640687119277
31
0
0
LINE
5
302
100
AcDbEntity
8
0
100
AcDbLine
10
57.818019484660546
20
3.1819805153394753
30
0
11
56.757359312880723
21
4.242640687119299
31
0
0
ARC
5
303
100
AcDbEntity
8
0
100
AcDbCircle
10
65.242640687119277
20
4.2426406871193034
30
0
40
2.3749999999999982
210
0
220
-0
230
1
100
AcDbArc
50
44.999999999999794
51
134.99999999999997
0
LINE
5
304
100
AcDbEntity
8
0
100
AcDbLine
10
-5.9220192924373416
20
-66.922019292437341
30
0
11
-0.80649226840230792
21
-73.899897372291264
31
0
0
ARC
5
305
100
AcDbEntity
8
0
100
AcDbCircle
10
-4.2426406871193034
20
-56.757359312880737
30
0
40
2.3749999999999813
210
0
220
0
230
1
100
AcDbArc
50
139.28045543616659
51
224.99999999999972
0
ARC
5
306
100
AcDbEntity
8
0
100
AcDbCircle
10
-1.3322676295501878e-14
20
-73.308652735100111
30
0
40
0.99999999999998912
210
0
220
0
230
1
100
AcDbArc
50
216.24538126276096
51
323.75461873723907
0
ARC
5
307
100
AcDbEntity
8
0
100
AcDbCircle
10
4.242640687119259
20
-65.242640687119305
30
0
40
2.3749999999999982
210
-0
220
0
230
1
100
AcDbArc
50
-45.00000000000005
51
45.000000000000092
0
ARC
5
308
100
AcDbEntity
8
0
100
AcDbCircle
10
61.000000000000021
20
-8.4852813742385447
30
0
40
3.6250000000000027
210
0
220
-0
230
1
100
AcDbArc
50
45.000000000000185
51
135.00000000000011
0
ARC
5
309
100
AcDbEntity
8
0
100
AcDbCircle
10
65.242640687119305
20
-4.2426406871192501
30
0
40
2.3749999999999982
210
0
220
0
230
1
100
AcDbArc
50
224.99999999999989
51
315.00000000000006
0
LINE
5
310
100
AcDbEntity
8
0
100
AcDbLine
10
3.1819805153394487
20
-57.818019484660546
30
0
11
4.2426406871192723
21
-56.757359312880723
31
0
0
ARC
5
311
100
AcDbEntity
8
0
100
AcDbCircle
10
-17.411359085193254
20
-45.422656813378346
30
0
40
14.999999999999931
210
-0
220
0
230
1
100
AcDbArc
50
319.28045543616639
51
357.86774819629505
0
ARC
5
312
100
AcDbEntity
8
0
100
AcDbCircle
10
56.757359312880723
20
-4.2426406871192635
30
0
40
2.3749999999999942
210
0
220
0
230
1
100
AcDbArc
50
229.26517195308739
51
315.00000000000017
0
ARC
5
313
100
AcDbEntity
8
0
100
AcDbCircle
10
4.2426406871192723
20
-56.757359312880723
30
0
40
2.3749999999999982
210
-0
220
0
230
1
100
AcDbArc
50
-44.99999999999995
51
40.734828046912597
0
LINE
5
314
100
AcDbEntity
8
0
100
AcDbLine
10
-14.318912319027588
20
14.318912319027586
30
0
11
14.318912319027589
21
-14.318912319027588
31
0
0
ENDSEC
0
SECTION
2
OBJECTS
0
DICTIONARY
5
C
100
AcDbDictionary
3
ACAD_GROUP
350
D
3
ACAD_MLINESTYLE
350
17
0
DICTIONARY
5
D
100
AcDbDictionary
0
DICTIONARY
5
1A
330
C
100
AcDbDictionary
0
DICTIONARY
5
17
100
AcDbDictionary
0
ENDSEC
0
EOF
