  0
SECTION
  2
HEADER
  9
$ACADVER
  1
AC1027
  9
$ACADMAINTVER
 70
   105
  9
$DWGCODEPAGE
  3
ANSI_1252
  9
$REQUIREDVERSIONS
160
                 0
  9
$INSBASE
 10
0.0
 20
0.0
 30
0.0
  9
$EXTMIN
 10
-68.66307460868671
 20
-95.32741310125952
 30
0.0
  9
$EXTMAX
 10
68.66307425176322
 20
93.71964085023016
 30
0.0
  9
$LIMMIN
 10
0.0
 20
0.0
  9
$LIMMAX
 10
12.0
 20
9.0
  9
$ORTHOMODE
 70
     0
  9
$REGENMODE
 70
     1
  9
$FILLMODE
 70
     1
  9
$QTEXTMODE
 70
     0
  9
$MIRRTEXT
 70
     1
  9
$LTSCALE
 40
1.0
  9
$ATTMODE
 70
     1
  9
$TEXTSIZE
 40
0.2
  9
$TRACEWID
 40
0.05
  9
$TEXTSTYLE
  7
Standard
  9
$CLAYER
  8
0
  9
$CELTYPE
  6
ByLayer
  9
$CECOLOR
 62
    18
  9
$CELTSCALE
 40
1.0
  9
$DISPSILH
 70
     0
  9
$DIMSCALE
 40
1.0
  9
$DIMASZ
 40
2.5
  9
$DIMEXO
 40
0.625
  9
$DIMDLI
 40
5.0
  9
$DIMRND
 40
0.0
  9
$DIMDLE
 40
0.0
  9
$DIMEXE
 40
1.25
  9
$DIMTP
 40
0.0
  9
$DIMTM
 40
0.0
  9
$DIMTXT
 40
2.5
  9
$DIMCEN
 40
0.09
  9
$DIMTSZ
 40
0.0
  9
$DIMTOL
 70
     0
  9
$DIMLIM
 70
     0
  9
$DIMTIH
 70
     1
  9
$DIMTOH
 70
     1
  9
$DIMSE1
 70
     0
  9
$DIMSE2
 70
     0
  9
$DIMTAD
 70
     0
  9
$DIMZIN
 70
     8
  9
$DIMBLK
  1

  9
$DIMASO
 70
     1
  9
$DIMSHO
 70
     1
  9
$DIMPOST
  1

  9
$DIMAPOST
  1

  9
$DIMALT
 70
     0
  9
$DIMALTD
 70
     2
  9
$DIMALTF
 40
25.4
  9
$DIMLFAC
 40
1.0
  9
$DIMTOFL
 70
     0
  9
$DIMTVP
 40
0.0
  9
$DIMTIX
 70
     0
  9
$DIMSOXD
 70
     0
  9
$DIMSAH
 70
     0
  9
$DIMBLK1
  1

  9
$DIMBLK2
  1

  9
$DIMSTYLE
  2
Standard
  9
$DIMCLRD
 70
    18
  9
$DIMCLRE
 70
    18
  9
$DIMCLRT
 70
    18
  9
$DIMTFAC
 40
1.0
  9
$DIMGAP
 40
0.625
  9
$DIMJUST
 70
     0
  9
$DIMSD1
 70
     0
  9
$DIMSD2
 70
     0
  9
$DIMTOLJ
 70
     1
  9
$DIMTZIN
 70
     0
  9
$DIMALTZ
 70
     0
  9
$DIMALTTZ
 70
     0
  9
$DIMUPT
 70
     0
  9
$DIMDEC
 70
     4
  9
$DIMTDEC
 70
     4
  9
$DIMALTU
 70
     2
  9
$DIMALTTD
 70
     2
  9
$DIMTXSTY
  7
Standard
  9
$DIMAUNIT
 70
     0
  9
$DIMADEC
 70
     0
  9
$DIMALTRND
 40
0.0
  9
$DIMAZIN
 70
     2
  9
$DIMDSEP
 70
    46
  9
$DIMATFIT
 70
     3
  9
$DIMFRAC
 70
     0
  9
$DIMLDRBLK
  1

  9
$DIMLUNIT
 70
     2
  9
$DIMLWD
 70
    -2
  9
$DIMLWE
 70
    -2
  9
$DIMTMOVE
 70
     0
  9
$DIMFXL
 40
1.0
  9
$DIMFXLON
 70
     0
  9
$DIMJOGANG
 40
0.7853981633974483
  9
$DIMTFILL
 70
     0
  9
$DIMTFILLCLR
 70
     0
  9
$DIMARCSYM
 70
     0
  9
$DIMLTYPE
  6

  9
$DIMLTEX1
  6

  9
$DIMLTEX2
  6

  9
$DIMTXTDIRECTION
 70
     0
  9
$LUNITS
 70
     2
  9
$LUPREC
 70
     4
  9
$SKETCHINC
 40
0.1
  9
$FILLETRAD
 40
0.5
  9
$AUNITS
 70
     0
  9
$AUPREC
 70
     0
  9
$MENU
  1
.
  9
$ELEVATION
 40
0.0
  9
$PELEVATION
 40
0.0
  9
$THICKNESS
 40
0.0
  9
$LIMCHECK
 70
     0
  9
$CHAMFERA
 40
0.0
  9
$CHAMFERB
 40
0.0
  9
$CHAMFERC
 40
0.0
  9
$CHAMFERD
 40
0.0
  9
$SKPOLY
 70
     0
  9
$TDCREATE
 40
2458924.899706076
  9
$TDUCREATE
 40
2458925.066372743
  9
$TDUPDATE
 40
2458924.899706122
  9
$TDUUPDATE
 40
2458925.066372789
  9
$TDINDWG
 40
0.0000000116
  9
$TDUSRTIMER
 40
0.0000000116
  9
$USRTIMER
 70
     1
  9
$ANGBASE
 50
0.0
  9
$ANGDIR
 70
     0
  9
$PDMODE
 70
     0
  9
$PDSIZE
 40
0.0
  9
$PLINEWID
 40
0.0
  9
$SPLFRAME
 70
     0
  9
$SPLINETYPE
 70
     6
  9
$SPLINESEGS
 70
     8
  9
$HANDSEED
  5
B92
  9
$SURFTAB1
 70
     6
  9
$SURFTAB2
 70
     6
  9
$SURFTYPE
 70
     6
  9
$SURFU
 70
     6
  9
$SURFV
 70
     6
  9
$UCSBASE
  2

  9
$UCSNAME
  2

  9
$UCSORG
 10
0.0
 20
0.0
 30
0.0
  9
$UCSXDIR
 10
1.0
 20
0.0
 30
0.0
  9
$UCSYDIR
 10
0.0
 20
1.0
 30
0.0
  9
$UCSORTHOREF
  2

  9
$UCSORTHOVIEW
 70
     0
  9
$UCSORGTOP
 10
0.0
 20
0.0
 30
0.0
  9
$UCSORGBOTTOM
 10
0.0
 20
0.0
 30
0.0
  9
$UCSORGLEFT
 10
0.0
 20
0.0
 30
0.0
  9
$UCSORGRIGHT
 10
0.0
 20
0.0
 30
0.0
  9
$UCSORGFRONT
 10
0.0
 20
0.0
 30
0.0
  9
$UCSORGBACK
 10
0.0
 20
0.0
 30
0.0
  9
$PUCSBASE
  2

  9
$PUCSNAME
  2

  9
$PUCSORG
 10
0.0
 20
0.0
 30
0.0
  9
$PUCSXDIR
 10
1.0
 20
0.0
 30
0.0
  9
$PUCSYDIR
 10
0.0
 20
1.0
 30
0.0
  9
$PUCSORTHOREF
  2

  9
$PUCSORTHOVIEW
 70
     0
  9
$PUCSORGTOP
 10
0.0
 20
0.0
 30
0.0
  9
$PUCSORGBOTTOM
 10
0.0
 20
0.0
 30
0.0
  9
$PUCSORGLEFT
 10
0.0
 20
0.0
 30
0.0
  9
$PUCSORGRIGHT
 10
0.0
 20
0.0
 30
0.0
  9
$PUCSORGFRONT
 10
0.0
 20
0.0
 30
0.0
  9
$PUCSORGBACK
 10
0.0
 20
0.0
 30
0.0
  9
$USERI1
 70
     0
  9
$USERI2
 70
     0
  9
$USERI3
 70
     0
  9
$USERI4
 70
     0
  9
$USERI5
 70
     0
  9
$USERR1
 40
0.0
  9
$USERR2
 40
0.0
  9
$USERR3
 40
0.0
  9
$USERR4
 40
0.0
  9
$USERR5
 40
0.0
  9
$WORLDVIEW
 70
     1
  9
$SHADEDGE
 70
     3
  9
$SHADEDIF
 70
    70
  9
$TILEMODE
 70
     1
  9
$MAXACTVP
 70
    64
  9
$PINSBASE
 10
0.0
 20
0.0
 30
0.0
  9
$PLIMCHECK
 70
     0
  9
$PEXTMIN
 10
0.0
 20
0.0
 30
0.0
  9
$PEXTMAX
 10
0.0
 20
0.0
 30
0.0
  9
$PLIMMIN
 10
-20.0
 20
-7.5
  9
$PLIMMAX
 10
277.0
 20
202.5
  9
$UNITMODE
 70
     0
  9
$VISRETAIN
 70
     1
  9
$PLINEGEN
 70
     0
  9
$PSLTSCALE
 70
     1
  9
$TREEDEPTH
 70
  3020
  9
$CMLSTYLE
  2
Standard
  9
$CMLJUST
 70
     0
  9
$CMLSCALE
 40
1.0
  9
$PROXYGRAPHICS
 70
     1
  9
$MEASUREMENT
 70
     1
  9
$CELWEIGHT
370
    -1
  9
$ENDCAPS
280
     0
  9
$JOINSTYLE
280
     0
  9
$LWDISPLAY
290
     0
  9
$INSUNITS
 70
     4
  9
$HYPERLINKBASE
  1

  9
$STYLESHEET
  1

  9
$XEDIT
290
     1
  9
$CEPSNTYPE
380
     0
  9
$PSTYLEMODE
290
     1
  9
$FINGERPRINTGUID
  2
{46df79b7-977c-41e9-a03b-b189a55b0556}
  9
$VERSIONGUID
  2
{FAEB1C32-E019-11D5-929B-00C0DF256EC4}
  9
$EXTNAMES
290
     1
  9
$PSVPSCALE
 40
0.0
  9
$OLESTARTUP
290
     0
  9
$SORTENTS
280
   127
  9
$INDEXCTL
280
     0
  9
$HIDETEXT
280
     1
  9
$XCLIPFRAME
280
     2
  9
$HALOGAP
280
     0
  9
$OBSCOLOR
 70
   257
  9
$OBSLTYPE
280
     0
  9
$INTERSECTIONDISPLAY
280
     0
  9
$INTERSECTIONCOLOR
 70
   257
  9
$DIMASSOC
280
     2
  9
$PROJECTNAME
  1

  9
$CAMERADISPLAY
290
     0
  9
$LENSLENGTH
 40
50.0
  9
$CAMERAHEIGHT
 40
0.0
  9
$STEPSPERSEC
 40
2.0
  9
$STEPSIZE
 40
6.0
  9
$3DDWFPREC
 40
2.0
  9
$PSOLWIDTH
 40
0.25
  9
$PSOLHEIGHT
 40
4.0
  9
$LOFTANG1
 40
1.570796326794897
  9
$LOFTANG2
 40
1.570796326794897
  9
$LOFTMAG1
 40
0.0
  9
$LOFTMAG2
 40
0.0
  9
$LOFTPARAM
 70
     7
  9
$LOFTNORMALS
280
     1
  9
$LATITUDE
 40
37.795
  9
$LONGITUDE
 40
-122.394
  9
$NORTHDIRECTION
 40
0.0
  9
$TIMEZONE
 70
 -8000
  9
$LIGHTGLYPHDISPLAY
280
     1
  9
$TILEMODELIGHTSYNCH
280
     1
  9
$CMATERIAL
347
AED
  9
$SOLIDHIST
280
     0
  9
$SHOWHIST
280
     1
  9
$DWFFRAME
280
     2
  9
$DGNFRAME
280
     2
  9
$REALWORLDSCALE
290
     1
  9
$INTERFERECOLOR
 62
   256
  9
$CSHADOW
280
     0
  9
$SHADOWPLANELOCATION
 40
0.0
  0
ENDSEC
  0
SECTION
  2
CLASSES
  0
CLASS
  1
ACDBDICTIONARYWDFLT
  2
AcDbDictionaryWithDefault
  3
ObjectDBX Classes
 90
        0
 91
        3
280
     0
281
     0
  0
CLASS
  1
VISUALSTYLE
  2
AcDbVisualStyle
  3
ObjectDBX Classes
 90
     4095
 91
        3
280
     0
281
     0
  0
CLASS
  1
MATERIAL
  2
AcDbMaterial
  3
ObjectDBX Classes
 90
     1153
 91
        3
280
     0
281
     0
  0
CLASS
  1
SCALE
  2
AcDbScale
  3
ObjectDBX Classes
 90
     1153
 91
        3
280
     0
281
     0
  0
CLASS
  1
TABLESTYLE
  2
AcDbTableStyle
  3
ObjectDBX Classes
 90
     4095
 91
        3
280
     0
281
     0
  0
CLASS
  1
MLEADERSTYLE
  2
AcDbMLeaderStyle
  3
ACDB_MLEADERSTYLE_CLASS
 90
     4095
 91
        3
280
     0
281
     0
  0
CLASS
  1
SUN
  2
AcDbSun
  3
SCENEOE
 90
     1153
 91
        3
280
     0
281
     0
  0
CLASS
  1
DICTIONARYVAR
  2
AcDbDictionaryVar
  3
ObjectDBX Classes
 90
        0
 91
        3
280
     0
281
     0
  0
CLASS
  1
CELLSTYLEMAP
  2
AcDbCellStyleMap
  3
ObjectDBX Classes
 90
     1152
 91
        3
280
     0
281
     0
  0
ENDSEC
  0
SECTION
  2
TABLES
  0
TABLE
  2
VPORT
  5
AB2
330
0
100
AcDbSymbolTable
 70
     1
  0
VPORT
  5
AD2
330
AB2
100
AcDbSymbolTableRecord
100
AcDbViewportTableRecord
  2
*Active
 70
     0
 10
0.0
 20
0.0
 11
1.0
 21
1.0
 12
47.72962339236105
 22
-42.31779866984476
 13
0.0
 23
0.0
 14
0.5
 24
0.5
 15
0.5
 25
0.5
 16
0.0
 26
0.0
 36
1.0
 17
0.0
 27
0.0
 37
0.0
 40
67.97577842059864
 41
1.121293800539084
 42
50.0
 43
0.0
 44
0.0
 50
0.0
 51
0.0
 71
     0
 72
   100
 73
     1
 74
     3
 75
     0
 76
     0
 77
     0
 78
     0
281
     0
 65
     1
110
0.0
120
0.0
130
0.0
111
1.0
121
0.0
131
0.0
112
0.0
122
1.0
132
0.0
 79
     0
146
0.0
348
AD8
 60
     3
 61
     5
292
     1
282
     1
141
0.0
142
0.0
 63
   250
361
B16
  0
ENDTAB
  0
TABLE
  2
LTYPE
  5
AAF
330
0
100
AcDbSymbolTable
 70
    48
  0
LTYPE
  5
ABD
330
AAF
100
AcDbSymbolTableRecord
100
AcDbLinetypeTableRecord
  2
ByBlock
 70
     0
  3

 72
    65
 73
     0
 40
0.0
  0
LTYPE
  5
ABE
330
AAF
100
AcDbSymbolTableRecord
100
AcDbLinetypeTableRecord
  2
ByLayer
 70
     0
  3

 72
    65
 73
     0
 40
0.0
  0
LTYPE
  5
ABF
330
AAF
100
AcDbSymbolTableRecord
100
AcDbLinetypeTableRecord
  2
Continuous
 70
     0
  3
Solid line
 72
    65
 73
     0
 40
0.0
  0
LTYPE
  5
B4D
330
AAF
100
AcDbSymbolTableRecord
100
AcDbLinetypeTableRecord
  2
BORDER2
 70
     0
  3
Border (.5x) __.__.__.__.__.__.__.__.__.__.__.
 72
    65
 73
     6
 40
22.225
 49
6.35
 74
     0
 49
-3.175
 74
     0
 49
6.35
 74
     0
 49
-3.175
 74
     0
 49
0.0
 74
     0
 49
-3.175
 74
     0
  0
LTYPE
  5
B4E
330
AAF
100
AcDbSymbolTableRecord
100
AcDbLinetypeTableRecord
  2
CENTER2
 70
     0
  3
Center (.5x) ___ _ ___ _ ___ _ ___ _ ___ _ ___
 72
    65
 73
     4
 40
28.575
 49
19.05
 74
     0
 49
-3.175
 74
     0
 49
3.175
 74
     0
 49
-3.175
 74
     0
  0
LTYPE
  5
B4F
330
AAF
100
AcDbSymbolTableRecord
100
AcDbLinetypeTableRecord
  2
CENTER
 70
     0
  3
Center ____ _ ____ _ ____ _ ____ _ ____ _ ____
 72
    65
 73
     4
 40
50.8
 49
31.75
 74
     0
 49
-6.35
 74
     0
 49
6.35
 74
     0
 49
-6.35
 74
     0
  0
LTYPE
  5
B50
330
AAF
100
AcDbSymbolTableRecord
100
AcDbLinetypeTableRecord
  2
ACAD_ISO07W100
 70
     0
  3
ISO dot . . . . . . . . . . . . . . . . . . . . 
 72
    65
 73
     2
 40
3.0
 49
0.0
 74
     0
 49
-3.0
 74
     0
  0
LTYPE
  5
B51
330
AAF
100
AcDbSymbolTableRecord
100
AcDbLinetypeTableRecord
  2
ACAD_ISO06W100
 70
     0
  3
ISO long-dash triple-dot ____ ... ____ ... ____
 72
    65
 73
     8
 40
36.0
 49
24.0
 74
     0
 49
-3.0
 74
     0
 49
0.0
 74
     0
 49
-3.0
 74
     0
 49
0.0
 74
     0
 49
-3.0
 74
     0
 49
0.0
 74
     0
 49
-3.0
 74
     0
  0
LTYPE
  5
B52
330
AAF
100
AcDbSymbolTableRecord
100
AcDbLinetypeTableRecord
  2
ACAD_ISO09W100
 70
     0
  3
ISO long-dash double-short-dash ____ __ __ ____
 72
    65
 73
     6
 40
45.0
 49
24.0
 74
     0
 49
-3.0
 74
     0
 49
6.0
 74
     0
 49
-3.0
 74
     0
 49
6.0
 74
     0
 49
-3.0
 74
     0
  0
LTYPE
  5
B53
330
AAF
100
AcDbSymbolTableRecord
100
AcDbLinetypeTableRecord
  2
ACAD_ISO08W100
 70
     0
  3
ISO long-dash short-dash ____ __ ____ __ ____ _
 72
    65
 73
     4
 40
36.0
 49
24.0
 74
     0
 49
-3.0
 74
     0
 49
6.0
 74
     0
 49
-3.0
 74
     0
  0
LTYPE
  5
B54
330
AAF
100
AcDbSymbolTableRecord
100
AcDbLinetypeTableRecord
  2
ACAD_ISO03W100
 70
     0
  3
ISO dash space __    __    __    __    __    __
 72
    65
 73
     2
 40
30.0
 49
12.0
 74
     0
 49
-18.0
 74
     0
  0
LTYPE
  5
B55
330
AAF
100
AcDbSymbolTableRecord
100
AcDbLinetypeTableRecord
  2
ACAD_ISO02W100
 70
     0
  3
ISO dash __ __ __ __ __ __ __ __ __ __ __ __ __
 72
    65
 73
     2
 40
15.0
 49
12.0
 74
     0
 49
-3.0
 74
     0
  0
LTYPE
  5
B56
330
AAF
100
AcDbSymbolTableRecord
100
AcDbLinetypeTableRecord
  2
ACAD_ISO05W100
 70
     0
  3
ISO long-dash double-dot ____ .. ____ .. ____ . 
 72
    65
 73
     6
 40
33.0
 49
24.0
 74
     0
 49
-3.0
 74
     0
 49
0.0
 74
     0
 49
-3.0
 74
     0
 49
0.0
 74
     0
 49
-3.0
 74
     0
  0
LTYPE
  5
B57
330
AAF
100
AcDbSymbolTableRecord
100
AcDbLinetypeTableRecord
  2
ACAD_ISO04W100
 70
     0
  3
ISO long-dash dot ____ . ____ . ____ . ____ . _
 72
    65
 73
     4
 40
30.0
 49
24.0
 74
     0
 49
-3.0
 74
     0
 49
0.0
 74
     0
 49
-3.0
 74
     0
  0
LTYPE
  5
B59
330
AAF
100
AcDbSymbolTableRecord
100
AcDbLinetypeTableRecord
  2
TRACKS
 70
     0
  3
Tracks -|-|-|-|-|-|-|-|-|-|-|-|-|-|-|-|-|-|-|-|-|-|-|-|-
 72
    65
 73
     2
 40
7.62
 49
3.81
 74
     2
 75
     0
340
B58
 46
6.35
 50
0.0
 44
0.0
 45
0.0
  9
TRACK1
 49
3.81
 74
     0
  0
LTYPE
  5
B5A
330
AAF
100
AcDbSymbolTableRecord
100
AcDbLinetypeTableRecord
  2
PHANTOMX2
 70
     0
  3
Phantom (2x) ____________    ____    ____   _
 72
    65
 73
     6
 40
127.0
 49
63.5
 74
     0
 49
-12.7
 74
     0
 49
12.7
 74
     0
 49
-12.7
 74
     0
 49
12.7
 74
     0
 49
-12.7
 74
     0
  0
LTYPE
  5
B5D
330
AAF
100
AcDbSymbolTableRecord
100
AcDbLinetypeTableRecord
  2
ZIGZAG
 70
     0
  3
Zig zag /\/\/\/\/\/\/\/\/\/\/\/\/\/\/\/\/\/\/\/\/\/\/\/
 72
    65
 73
     4
 40
20.32254
 49
0.00254
 74
     0
 49
-5.08
 74
     2
 75
     0
340
B5B
 46
5.08
 50
0.0
 44
-5.08
 45
0.0
  9
ZIG
 49
-10.16
 74
     2
 75
     0
340
B5C
 46
5.08
 50
180.0
 44
5.08
 45
0.0
  9
ZIG
 49
-5.08
 74
     0
  0
LTYPE
  5
B5F
330
AAF
100
AcDbSymbolTableRecord
100
AcDbLinetypeTableRecord
  2
HOT_WATER_SUPPLY
 70
     0
  3
Hot water supply ---- HW ---- HW ---- HW ----
 72
    65
 73
     3
 40
22.86
 49
12.7
 74
     0
 49
-5.08
 74
     2
 75
     0
340
B5E
 46
2.54
 50
0.0
 44
-2.54
 45
-1.27
  9
HW
 49
-5.08
 74
     0
  0
LTYPE
  5
B60
330
AAF
100
AcDbSymbolTableRecord
100
AcDbLinetypeTableRecord
  2
HIDDENX2
 70
     0
  3
Hidden (2x) ____ ____ ____ ____ ____ ____ ____ 
 72
    65
 73
     2
 40
19.05
 49
12.7
 74
     0
 49
-6.35
 74
     0
  0
LTYPE
  5
B61
330
AAF
100
AcDbSymbolTableRecord
100
AcDbLinetypeTableRecord
  2
PHANTOM2
 70
     0
  3
Phantom (.5x) ___ _ _ ___ _ _ ___ _ _ ___ _ _
 72
    65
 73
     6
 40
31.75
 49
15.875
 74
     0
 49
-3.175
 74
     0
 49
3.175
 74
     0
 49
-3.175
 74
     0
 49
3.175
 74
     0
 49
-3.175
 74
     0
  0
LTYPE
  5
B62
330
AAF
100
AcDbSymbolTableRecord
100
AcDbLinetypeTableRecord
  2
PHANTOM
 70
     0
  3
Phantom ______  __  __  ______  __  __  ______ 
 72
    65
 73
     6
 40
63.50000000000001
 49
31.75
 74
     0
 49
-6.35
 74
     0
 49
6.35
 74
     0
 49
-6.35
 74
     0
 49
6.35
 74
     0
 49
-6.35
 74
     0
  0
LTYPE
  5
B63
330
AAF
100
AcDbSymbolTableRecord
100
AcDbLinetypeTableRecord
  2
DIVIDEX2
 70
     0
  3
Divide (2x) ________  .  .  ________  .  .  _
 72
    65
 73
     6
 40
63.5
 49
25.4
 74
     0
 49
-12.7
 74
     0
 49
0.0
 74
     0
 49
-12.7
 74
     0
 49
0.0
 74
     0
 49
-12.7
 74
     0
  0
LTYPE
  5
B64
330
AAF
100
AcDbSymbolTableRecord
100
AcDbLinetypeTableRecord
  2
DIVIDE2
 70
     0
  3
Divide (.5x) __..__..__..__..__..__..__..__.._
 72
    65
 73
     6
 40
15.875
 49
6.35
 74
     0
 49
-3.175
 74
     0
 49
0.0
 74
     0
 49
-3.175
 74
     0
 49
0.0
 74
     0
 49
-3.175
 74
     0
  0
LTYPE
  5
B65
330
AAF
100
AcDbSymbolTableRecord
100
AcDbLinetypeTableRecord
  2
DOT2
 70
     0
  3
Dot (.5x) ........................................
 72
    65
 73
     2
 40
3.175
 49
0.0
 74
     0
 49
-3.175
 74
     0
  0
LTYPE
  5
B66
330
AAF
100
AcDbSymbolTableRecord
100
AcDbLinetypeTableRecord
  2
DOT
 70
     0
  3
Dot . . . . . . . . . . . . . . . . . . . . . . . .
 72
    65
 73
     2
 40
6.35
 49
0.0
 74
     0
 49
-6.35
 74
     0
  0
LTYPE
  5
B67
330
AAF
100
AcDbSymbolTableRecord
100
AcDbLinetypeTableRecord
  2
DASHED2
 70
     0
  3
Dashed (.5x) _ _ _ _ _ _ _ _ _ _ _ _ _ _ _ _ _ 
 72
    65
 73
     2
 40
9.524999999999999
 49
6.35
 74
     0
 49
-3.175
 74
     0
  0
LTYPE
  5
B68
330
AAF
100
AcDbSymbolTableRecord
100
AcDbLinetypeTableRecord
  2
DASHED
 70
     0
  3
Dashed __ __ __ __ __ __ __ __ __ __ __ __ __ _
 72
    65
 73
     2
 40
19.05
 49
12.7
 74
     0
 49
-6.35
 74
     0
  0
LTYPE
  5
B69
330
AAF
100
AcDbSymbolTableRecord
100
AcDbLinetypeTableRecord
  2
DIVIDE
 70
     0
  3
Divide ____ . . ____ . . ____ . . ____ . . ____
 72
    65
 73
     6
 40
31.75
 49
12.7
 74
     0
 49
-6.35
 74
     0
 49
0.0
 74
     0
 49
-6.35
 74
     0
 49
0.0
 74
     0
 49
-6.35
 74
     0
  0
LTYPE
  5
B6A
330
AAF
100
AcDbSymbolTableRecord
100
AcDbLinetypeTableRecord
  2
DASHEDX2
 70
     0
  3
Dashed (2x) ____  ____  ____  ____  ____  ___
 72
    65
 73
     2
 40
38.09999999999999
 49
25.4
 74
     0
 49
-12.7
 74
     0
  0
LTYPE
  5
B6C
330
AAF
100
AcDbSymbolTableRecord
100
AcDbLinetypeTableRecord
  2
GAS_LINE
 70
     0
  3
Gas line ----GAS----GAS----GAS----GAS----GAS----GAS--
 72
    65
 73
     3
 40
24.13
 49
12.7
 74
     0
 49
-5.08
 74
     2
 75
     0
340
B6B
 46
2.54
 50
0.0
 44
-2.54
 45
-1.27
  9
GAS
 49
-6.35
 74
     0
  0
LTYPE
  5
B6E
330
AAF
100
AcDbSymbolTableRecord
100
AcDbLinetypeTableRecord
  2
FENCELINE2
 70
     0
  3
Fenceline square ----[]-----[]----[]-----[]----[]---
 72
    65
 73
     4
 40
36.83
 49
6.35
 74
     0
 49
-2.54
 74
     2
 75
     0
340
B6D
 46
2.54
 50
0.0
 44
-2.54
 45
0.0
  9
BOX
 49
-2.54
 74
     0
 49
25.4
 74
     0
  0
LTYPE
  5
B6F
330
AAF
100
AcDbSymbolTableRecord
100
AcDbLinetypeTableRecord
  2
HIDDEN2
 70
     0
  3
Hidden (.5x) _ _ _ _ _ _ _ _ _ _ _ _ _ _ _ _ _ 
 72
    65
 73
     2
 40
4.762499999999999
 49
3.175
 74
     0
 49
-1.5875
 74
     0
  0
LTYPE
  5
B70
330
AAF
100
AcDbSymbolTableRecord
100
AcDbLinetypeTableRecord
  2
HIDDEN
 70
     0
  3
Hidden __ __ __ __ __ __ __ __ __ __ __ __ __ __
 72
    65
 73
     2
 40
9.524999999999999
 49
6.35
 74
     0
 49
-3.175
 74
     0
  0
LTYPE
  5
B72
330
AAF
100
AcDbSymbolTableRecord
100
AcDbLinetypeTableRecord
  2
DRAINAGE
 70
     0
  3
Drainage ---->---->---->----
 72
    65
 73
     2
 40
10.16
 49
5.08
 74
     2
 75
     0
340
B71
 46
2.54
 50
180.0
 44
0.0
 45
0.0
  9
RIGHT_ARROW
 49
5.08
 74
     0
  0
LTYPE
  5
B73
330
AAF
100
AcDbSymbolTableRecord
100
AcDbLinetypeTableRecord
  2
DOTX2
 70
     0
  3
Dot (2x) .  .  .  .  .  .  .  .  .  .  .  .  .  .
 72
    65
 73
     2
 40
12.7
 49
0.0
 74
     0
 49
-12.7
 74
     0
  0
LTYPE
  5
B75
330
AAF
100
AcDbSymbolTableRecord
100
AcDbLinetypeTableRecord
  2
FENCELINE1
 70
     0
  3
Fenceline circle ----0-----0----0-----0----0-----0--
 72
    65
 73
     4
 40
36.83
 49
6.35
 74
     0
 49
-2.54
 74
     2
 75
     0
340
B74
 46
2.54
 50
0.0
 44
-2.54
 45
0.0
  9
CIRC1
 49
-2.54
 74
     0
 49
25.4
 74
     0
  0
LTYPE
  5
B77
330
AAF
100
AcDbSymbolTableRecord
100
AcDbLinetypeTableRecord
  2
DRAINAGE2
 70
     0
  3
Drainage reversed----<----<----<----
 72
    65
 73
     2
 40
10.16
 49
5.08
 74
     2
 75
     0
340
B76
 46
2.54
 50
0.0
 44
0.0
 45
0.0
  9
RIGHT_ARROW
 49
5.08
 74
     0
  0
LTYPE
  5
B78
330
AAF
100
AcDbSymbolTableRecord
100
AcDbLinetypeTableRecord
  2
ACAD_ISO15W100
 70
     0
  3
ISO double-dash triple-dot __ __ . . . __ __ . .
 72
    65
 73
    10
 40
39.0
 49
12.0
 74
     0
 49
-3.0
 74
     0
 49
12.0
 74
     0
 49
-3.0
 74
     0
 49
0.0
 74
     0
 49
-3.0
 74
     0
 49
0.0
 74
     0
 49
-3.0
 74
     0
 49
0.0
 74
     0
 49
-3.0
 74
     0
  0
LTYPE
  5
B79
330
AAF
100
AcDbSymbolTableRecord
100
AcDbLinetypeTableRecord
  2
ACAD_ISO14W100
 70
     0
  3
ISO dash triple-dot __ . . . __ . . . __ . . . _
 72
    65
 73
     8
 40
24.0
 49
12.0
 74
     0
 49
-3.0
 74
     0
 49
0.0
 74
     0
 49
-3.0
 74
     0
 49
0.0
 74
     0
 49
-3.0
 74
     0
 49
0.0
 74
     0
 49
-3.0
 74
     0
  0
LTYPE
  5
B7A
330
AAF
100
AcDbSymbolTableRecord
100
AcDbLinetypeTableRecord
  2
BORDER
 70
     0
  3
Border __ __ . __ __ . __ __ . __ __ . __ __ .
 72
    65
 73
     6
 40
44.45
 49
12.7
 74
     0
 49
-6.35
 74
     0
 49
12.7
 74
     0
 49
-6.35
 74
     0
 49
0.0
 74
     0
 49
-6.35
 74
     0
  0
LTYPE
  5
B7D
330
AAF
100
AcDbSymbolTableRecord
100
AcDbLinetypeTableRecord
  2
BATTING
 70
     0
  3
Batting SSSSSSSSSSSSSSSSSSSSSSSSSSSSSSSSSSSSSSSSSSSSSSS
 72
    65
 73
     4
 40
10.16254
 49
0.00254
 74
     0
 49
-2.54
 74
     2
 75
     0
340
B7B
 46
2.54
 50
0.0
 44
-2.54
 45
0.0
  9
BAT
 49
-5.08
 74
     2
 75
     0
340
B7C
 46
2.54
 50
180.0
 44
2.54
 45
0.0
  9
BAT
 49
-2.54
 74
     0
  0
LTYPE
  5
B7E
330
AAF
100
AcDbSymbolTableRecord
100
AcDbLinetypeTableRecord
  2
ACAD_ISO11W100
 70
     0
  3
ISO double-dash dot __ __ . __ __ . __ __ . __ _
 72
    65
 73
     6
 40
33.0
 49
12.0
 74
     0
 49
-3.0
 74
     0
 49
12.0
 74
     0
 49
-3.0
 74
     0
 49
0.0
 74
     0
 49
-3.0
 74
     0
  0
LTYPE
  5
B7F
330
AAF
100
AcDbSymbolTableRecord
100
AcDbLinetypeTableRecord
  2
ACAD_ISO10W100
 70
     0
  3
ISO dash dot __ . __ . __ . __ . __ . __ . __ . 
 72
    65
 73
     4
 40
18.0
 49
12.0
 74
     0
 49
-3.0
 74
     0
 49
0.0
 74
     0
 49
-3.0
 74
     0
  0
LTYPE
  5
B80
330
AAF
100
AcDbSymbolTableRecord
100
AcDbLinetypeTableRecord
  2
ACAD_ISO13W100
 70
     0
  3
ISO double-dash double-dot __ __ . . __ __ . . _
 72
    65
 73
     8
 40
36.0
 49
12.0
 74
     0
 49
-3.0
 74
     0
 49
12.0
 74
     0
 49
-3.0
 74
     0
 49
0.0
 74
     0
 49
-3.0
 74
     0
 49
0.0
 74
     0
 49
-3.0
 74
     0
  0
LTYPE
  5
B81
330
AAF
100
AcDbSymbolTableRecord
100
AcDbLinetypeTableRecord
  2
ACAD_ISO12W100
 70
     0
  3
ISO dash double-dot __ . . __ . . __ . . __ . . 
 72
    65
 73
     6
 40
21.0
 49
12.0
 74
     0
 49
-3.0
 74
     0
 49
0.0
 74
     0
 49
-3.0
 74
     0
 49
0.0
 74
     0
 49
-3.0
 74
     0
  0
LTYPE
  5
B82
330
AAF
100
AcDbSymbolTableRecord
100
AcDbLinetypeTableRecord
  2
DASHDOT
 70
     0
  3
Dash dot __ . __ . __ . __ . __ . __ . __ . __
 72
    65
 73
     4
 40
25.4
 49
12.7
 74
     0
 49
-6.35
 74
     0
 49
0.0
 74
     0
 49
-6.35
 74
     0
  0
LTYPE
  5
B83
330
AAF
100
AcDbSymbolTableRecord
100
AcDbLinetypeTableRecord
  2
CENTERX2
 70
     0
  3
Center (2x) ________  __  ________  __  _____
 72
    65
 73
     4
 40
101.6
 49
63.5
 74
     0
 49
-12.7
 74
     0
 49
12.7
 74
     0
 49
-12.7
 74
     0
  0
LTYPE
  5
B84
330
AAF
100
AcDbSymbolTableRecord
100
AcDbLinetypeTableRecord
  2
DASHDOTX2
 70
     0
  3
Dash dot (2x) ____  .  ____  .  ____  .  ___
 72
    65
 73
     4
 40
50.8
 49
25.4
 74
     0
 49
-12.7
 74
     0
 49
0.0
 74
     0
 49
-12.7
 74
     0
  0
LTYPE
  5
B85
330
AAF
100
AcDbSymbolTableRecord
100
AcDbLinetypeTableRecord
  2
DASHDOT2
 70
     0
  3
Dash dot (.5x) _._._._._._._._._._._._._._._.
 72
    65
 73
     4
 40
12.7
 49
6.35
 74
     0
 49
-3.175
 74
     0
 49
0.0
 74
     0
 49
-3.175
 74
     0
  0
LTYPE
  5
B86
330
AAF
100
AcDbSymbolTableRecord
100
AcDbLinetypeTableRecord
  2
BORDERX2
 70
     0
  3
Border (2x) ____  ____  .  ____  ____  .  ___
 72
    65
 73
     6
 40
88.89999999999999
 49
25.4
 74
     0
 49
-12.7
 74
     0
 49
25.4
 74
     0
 49
-12.7
 74
     0
 49
0.0
 74
     0
 49
-12.7
 74
     0
  0
ENDTAB
  0
TABLE
  2
LAYER
  5
AAD
330
0
100
AcDbSymbolTable
 70
     1
  0
LAYER
  5
ABA
330
AAD
100
AcDbSymbolTableRecord
100
AcDbLayerTableRecord
  2
0
 70
     0
 62
    18
420
        0
  6
Continuous
370
    25
390
AB9
347
AEF
348
0
  0
ENDTAB
  0
TABLE
  2
STYLE
  5
AAE
330
0
100
AcDbSymbolTable
 70
    13
  0
STYLE
  5
ABB
330
AAE
100
AcDbSymbolTableRecord
100
AcDbTextStyleTableRecord
  2
Standard
 70
     0
 40
0.0
 41
1.0
 50
0.0
 71
     0
 42
0.2
  3
txt
  4

  0
STYLE
  5
B4B
330
AAE
100
AcDbSymbolTableRecord
100
AcDbTextStyleTableRecord
  2
QCADDimTextStyle
 70
     0
 40
0.0
 41
1.0
 50
0.0
 71
     0
 42
0.2
  3
txt
  4

  0
STYLE
  5
B58
330
AAE
100
AcDbSymbolTableRecord
100
AcDbTextStyleTableRecord
  2
textstyle0
 70
     0
 40
0.0
 41
1.0
 50
0.0
 71
     0
 42
0.2
  3
ltypeshp.shx
  4

  0
STYLE
  5
B5B
330
AAE
100
AcDbSymbolTableRecord
100
AcDbTextStyleTableRecord
  2
textstyle1
 70
     0
 40
0.0
 41
1.0
 50
0.0
 71
     0
 42
0.2
  3
ltypeshp.shx
  4

  0
STYLE
  5
B5C
330
AAE
100
AcDbSymbolTableRecord
100
AcDbTextStyleTableRecord
  2
textstyle2
 70
     0
 40
0.0
 41
1.0
 50
0.0
 71
     0
 42
0.2
  3
ltypeshp.shx
  4

  0
STYLE
  5
B5E
330
AAE
100
AcDbSymbolTableRecord
100
AcDbTextStyleTableRecord
  2
textstyle3
 70
     0
 40
0.0
 41
1.0
 50
0.0
 71
     0
 42
0.2
  3
STANDARD
  4

  0
STYLE
  5
B6B
330
AAE
100
AcDbSymbolTableRecord
100
AcDbTextStyleTableRecord
  2
textstyle4
 70
     0
 40
0.0
 41
1.0
 50
0.0
 71
     0
 42
0.2
  3
STANDARD
  4

  0
STYLE
  5
B6D
330
AAE
100
AcDbSymbolTableRecord
100
AcDbTextStyleTableRecord
  2
textstyle5
 70
     0
 40
0.0
 41
1.0
 50
0.0
 71
     0
 42
0.2
  3
ltypeshp.shx
  4

  0
STYLE
  5
B71
330
AAE
100
AcDbSymbolTableRecord
100
AcDbTextStyleTableRecord
  2
textstyle6
 70
     0
 40
0.0
 41
1.0
 50
0.0
 71
     0
 42
0.2
  3
qcadshp.shx
  4

  0
STYLE
  5
B74
330
AAE
100
AcDbSymbolTableRecord
100
AcDbTextStyleTableRecord
  2
textstyle7
 70
     0
 40
0.0
 41
1.0
 50
0.0
 71
     0
 42
0.2
  3
ltypeshp.shx
  4

  0
STYLE
  5
B76
330
AAE
100
AcDbSymbolTableRecord
100
AcDbTextStyleTableRecord
  2
textstyle8
 70
     0
 40
0.0
 41
1.0
 50
0.0
 71
     0
 42
0.2
  3
qcadshp.shx
  4

  0
STYLE
  5
B7B
330
AAE
100
AcDbSymbolTableRecord
100
AcDbTextStyleTableRecord
  2
textstyle9
 70
     0
 40
0.0
 41
1.0
 50
0.0
 71
     0
 42
0.2
  3
ltypeshp.shx
  4

  0
STYLE
  5
B7C
330
AAE
100
AcDbSymbolTableRecord
100
AcDbTextStyleTableRecord
  2
textstyle10
 70
     0
 40
0.0
 41
1.0
 50
0.0
 71
     0
 42
0.2
  3
ltypeshp.shx
  4

  0
ENDTAB
  0
TABLE
  2
VIEW
  5
AB0
330
0
100
AcDbSymbolTable
 70
     0
  0
ENDTAB
  0
TABLE
  2
UCS
  5
AB1
330
0
100
AcDbSymbolTable
 70
     0
  0
ENDTAB
  0
TABLE
  2
APPID
  5
AB3
330
0
100
AcDbSymbolTable
 70
     2
  0
APPID
  5
ABC
330
AB3
100
AcDbSymbolTableRecord
100
AcDbRegAppTableRecord
  2
ACAD
 70
     0
  0
APPID
  5
B17
330
AB3
100
AcDbSymbolTableRecord
100
AcDbRegAppTableRecord
  2
QCAD
 70
     0
  0
ENDTAB
  0
TABLE
  2
DIMSTYLE
  5
AB4
330
0
100
AcDbSymbolTable
 70
     2
100
AcDbDimStyleTable
  0
DIMSTYLE
105
AD0
330
AB4
100
AcDbSymbolTableRecord
100
AcDbDimStyleTableRecord
  2
Standard
 70
     0
178
     0
340
ABB
  0
DIMSTYLE
105
B4C
330
AB4
100
AcDbSymbolTableRecord
100
AcDbDimStyleTableRecord
  2
QCADDimStyle
 70
     0
 41
2.5
 42
0.625
 44
1.25
 73
     0
 77
     1
140
2.5
147
0.625
178
     0
340
B4B
  0
ENDTAB
  0
TABLE
  2
BLOCK_RECORD
  5
AAC
330
0
100
AcDbSymbolTable
 70
     0
  0
BLOCK_RECORD
  5
AC8
330
AAC
100
AcDbSymbolTableRecord
100
AcDbBlockTableRecord
  2
*Model_Space
340
ACB
 70
     0
280
     1
281
     0
  0
BLOCK_RECORD
  5
AC4
330
AAC
100
AcDbSymbolTableRecord
100
AcDbBlockTableRecord
  2
*Paper_Space
340
AC7
 70
     0
280
     1
281
     0
  0
ENDTAB
  0
ENDSEC
  0
SECTION
  2
BLOCKS
  0
BLOCK
  5
AC9
330
AC8
100
AcDbEntity
  8
0
100
AcDbBlockBegin
  2
*Model_Space
 70
     0
 10
0.0
 20
0.0
 30
0.0
  3
*Model_Space
  1

  0
ENDBLK
  5
ACA
330
AC8
100
AcDbEntity
  8
0
100
AcDbBlockEnd
  0
BLOCK
  5
AC5
330
AC4
100
AcDbEntity
 67
     1
  8
0
100
AcDbBlockBegin
  2
*Paper_Space
 70
     0
 10
0.0
 20
0.0
 30
0.0
  3
*Paper_Space
  1

  0
ENDBLK
  5
AC6
330
AC4
100
AcDbEntity
 67
     1
  8
0
100
AcDbBlockEnd
  0
ENDSEC
  0
SECTION
  2
ENTITIES
  0
LWPOLYLINE
  5
52
330
AC8
100
AcDbEntity
  8
0
100
AcDbPolyline
 90
        6
 70
     1
 43
0.0
 10
-5.065889755696782
 20
-44.77935350790062
 42
0.7065604032167837
 10
-6.446313089591005
 20
-45.08496758612398
 10
-6.994212344461463
 20
-49.52831819759638
 42
0.5344022315826927
 10
-6.050038534561677
 20
-50.34299757215353
 10
-3.215514252717796
 20
-49.55952111202622
 42
0.5015562324917072
 10
-2.779264728723151
 20
-48.43922765924583
  0
LWPOLYLINE
  5
42D
330
AC8
100
AcDbEntity
  8
0
100
AcDbPolyline
 90
        6
 70
     1
 43
0.0
 10
-4.065889755696729
 20
49.3809250137806
 42
-0.7065604032167837
 10
-5.446313089590953
 20
49.68653909200395
 10
-5.994212344461411
 20
54.12988970347636
 42
-0.5344022315826927
 10
-5.050038534561626
 20
54.9445690780335
 10
-2.215514252717744
 20
54.16109261790619
 42
-0.5015562324917072
 10
-1.779264728723099
 20
53.0407991651258
  0
CIRCLE
  5
45
330
AC8
100
AcDbEntity
  8
0
100
AcDbCircle
 10
-15.24999999999944
 20
48.18214084204374
 30
0.0
 40
1.475
  0
ARC
  5
1E7
330
AC8
100
AcDbEntity
  8
0
100
AcDbCircle
 10
-14.24999999999955
 20
55.94464086660292
 30
0.0
 40
0.4999999999999982
100
AcDbArc
 50
270.0
 51
90.0
  0
LINE
  5
1E8
330
AC8
100
AcDbEntity
  8
0
100
AcDbLine
 10
-14.24999999999953
 20
60.44464086660297
 30
0.0
 11
-14.24999999999953
 21
56.44464086660292
 31
0.0
  0
ARC
  5
1E9
330
AC8
100
AcDbEntity
  8
0
100
AcDbCircle
 10
-14.24999999999949
 20
60.94464086660297
 30
0.0
 40
0.4999999999999893
100
AcDbArc
 50
270.0
 51
90.0
  0
CIRCLE
  5
46
330
AC8
100
AcDbEntity
  8
0
100
AcDbCircle
 10
-15.25000000000072
 20
89.8819849420131
 30
0.0
 40
1.475
  0
LINE
  5
1EA
330
AC8
100
AcDbEntity
  8
0
100
AcDbLine
 10
-16.24999999999946
 20
61.44464086660297
 30
0.0
 11
-14.24999999999953
 21
61.44464086660297
 31
0.0
  0
CIRCLE
  5
56
330
AC8
100
AcDbEntity
  8
0
100
AcDbCircle
 10
-15.24999999999949
 20
-91.57324681161612
 30
0.0
 40
1.475
  0
LINE
  5
3BC
330
AC8
100
AcDbEntity
  8
0
100
AcDbLine
 10
-7.542302230892118
 20
30.48431284590167
 30
0.0
 11
-6.516253831661027
 21
37.00924121971491
 31
0.0
  0
ARC
  5
1EB
330
AC8
100
AcDbEntity
  8
0
100
AcDbCircle
 10
-16.24999999999957
 20
60.94464086660297
 30
0.0
 40
0.4999999999999893
100
AcDbArc
 50
90.0
 51
270.0
  0
ARC
  5
3BD
330
AC8
100
AcDbEntity
  8
0
100
AcDbCircle
 10
-6.554441421700726
 20
30.32897121701856
 30
0.0
 40
1.000000000000006
100
AcDbArc
 50
171.063389861115
 51
285.9644464190642
  0
LINE
  5
1EC
330
AC8
100
AcDbEntity
  8
0
100
AcDbLine
 10
-16.24999999999964
 20
56.44464086660292
 30
0.0
 11
-16.24999999999947
 21
60.44464086660297
 31
0.0
  0
LINE
  5
3BE
330
AC8
100
AcDbEntity
  8
0
100
AcDbLine
 10
-1.950744053012137
 20
30.60585457290065
 30
0.0
 11
-6.279400607795822
 21
29.36753866572516
 31
0.0
  0
ARC
  5
3BF
330
AC8
100
AcDbEntity
  8
0
100
AcDbCircle
 10
-2.22578486691653
 20
31.56728712419404
 30
0.0
 40
0.9999999999999875
100
AcDbArc
 50
285.9644464190633
 51
31.99349934580218
  0
ARC
  5
1ED
330
AC8
100
AcDbEntity
  8
0
100
AcDbCircle
 10
-16.24999999999956
 20
55.94464086660294
 30
0.0
 40
0.4999999999999982
100
AcDbArc
 50
90.0
 51
270.0
  0
LINE
  5
3C0
330
AC8
100
AcDbEntity
  8
0
100
AcDbLine
 10
-4.680284808287299
 20
37.3837226339668
 30
0.0
 11
-1.377676652734171
 21
32.09711016732906
 31
0.0
  0
CIRCLE
  5
57
330
AC8
100
AcDbEntity
  8
0
100
AcDbCircle
 10
-15.24999999999949
 20
-49.26289921602728
 30
0.0
 40
1.475
  0
ARC
  5
3C1
330
AC8
100
AcDbEntity
  8
0
100
AcDbCircle
 10
-5.528393022469741
 20
36.85389959083179
 30
0.0
 40
1.000000000000014
100
AcDbArc
 50
31.99349934580157
 51
171.0633898611133
  0
LINE
  5
1EE
330
AC8
100
AcDbEntity
  8
0
100
AcDbLine
 10
-14.24999999999953
 20
55.44464086660295
 30
0.0
 11
-16.24999999999951
 21
55.44464086660294
 31
0.0
  0
LINE
  5
3C2
330
AC8
100
AcDbEntity
  8
0
100
AcDbLine
 10
-2.928278860954336
 20
47.6500736307933
 30
0.0
 11
-0.2750408159190997
 21
48.4090959360084
 31
0.0
  0
LINE
  5
437
330
AC8
100
AcDbEntity
  8
0
100
AcDbLine
 10
-2.92827885894522
 20
57.29450827973776
 30
0.0
 11
-0.2750408139099838
 21
56.53548597452266
 31
0.0
  0
ARC
  5
3C3
330
AC8
100
AcDbEntity
  8
0
100
AcDbCircle
 10
-0.0000000020093524
 20
47.447663384715
 30
0.0
 40
1.000000000000015
100
AcDbArc
 50
74.03555358093683
 51
105.9644464190631
  0
ARC
  5
438
330
AC8
100
AcDbEntity
  8
0
100
AcDbCircle
 10
-0.0000000000002364
 20
57.49691852581606
 30
0.0
 40
1.000000000000015
100
AcDbArc
 50
254.0355535809369
 51
285.9644464190632
1001
QCAD
1000
reversed:1
  0
LINE
  5
3C4
330
AC8
100
AcDbEntity
  8
0
100
AcDbLine
 10
0.2750408119003695
 20
48.4090959360084
 30
0.0
 11
2.928278856936874
 21
47.6500736307933
 31
0.0
  0
LINE
  5
439
330
AC8
100
AcDbEntity
  8
0
100
AcDbLine
 10
0.2750408139094853
 20
56.53548597452266
 30
0.0
 11
2.92827885894599
 21
57.29450827973776
 31
0.0
  0
ARC
  5
3C5
330
AC8
100
AcDbEntity
  8
0
100
AcDbCircle
 10
2.653238043031724
 20
46.6886410794999
 30
0.0
 40
1.000000000000012
100
AcDbArc
 50
328.0065006541785
 51
74.03555358093674
  0
ARC
  5
43A
330
AC8
100
AcDbEntity
  8
0
100
AcDbCircle
 10
2.65323804504084
 20
58.25594083103115
 30
0.0
 40
1.000000000000012
100
AcDbArc
 50
285.9644464190633
 51
31.99349934582144
1001
QCAD
1000
reversed:1
  0
LWPOLYLINE
  5
58
330
AC8
100
AcDbEntity
  8
0
100
AcDbPolyline
 90
        7
 70
     1
 43
0.0
 10
-3.064263504121361
 20
-53.41818198713997
 42
0.5015562324917202
 10
-3.50051302811601
 20
-54.53847543992038
 10
-0.6360609200002703
 20
-59.12319488652497
 42
0.5543499190558216
 10
0.6360609200008702
 20
-59.12319488652497
 10
3.500513028116819
 20
-54.53847543992038
 42
0.5015562324917229
 10
3.064263504122013
 20
-53.41818198713997
 10
-0.0000000000000477
 20
-52.571204475434
  0
LINE
  5
3C6
330
AC8
100
AcDbEntity
  8
0
100
AcDbLine
 10
3.501346257213831
 20
46.15881803636461
 30
0.0
 11
0.8481082121730301
 21
41.9116773932118
 31
0.0
  0
LINE
  5
43B
330
AC8
100
AcDbEntity
  8
0
100
AcDbLine
 10
3.501346259222947
 20
58.78576387416645
 30
0.0
 11
0.848108214182145
 21
63.03290451731925
 31
0.0
  0
ARC
  5
3C7
330
AC8
100
AcDbEntity
  8
0
100
AcDbCircle
 10
-0.0000000020093539
 20
42.4415004363471
 30
0.0
 40
1.000000000000001
100
AcDbArc
 50
211.9934993458223
 51
328.0065006541776
  0
ARC
  5
43C
330
AC8
100
AcDbEntity
  8
0
100
AcDbCircle
 10
-0.0000000000002381
 20
62.50308147418396
 30
0.0
 40
1.000000000000001
100
AcDbArc
 50
31.99349934582246
 51
148.0065006541778
1001
QCAD
1000
reversed:1
  0
LINE
  5
3C8
330
AC8
100
AcDbEntity
  8
0
100
AcDbLine
 10
-0.8481082161917627
 20
41.9116773932118
 30
0.0
 11
-3.501346261231566
 21
46.15881803636461
 31
0.0
  0
LINE
  5
43D
330
AC8
100
AcDbEntity
  8
0
100
AcDbLine
 10
-0.848108214182648
 20
63.03290451731925
 30
0.0
 11
-3.50134625922245
 21
58.78576387416645
 31
0.0
  0
ARC
  5
3C9
330
AC8
100
AcDbEntity
  8
0
100
AcDbCircle
 10
-2.653238047049966
 20
46.6886410794999
 30
0.0
 40
1.000000000000002
100
AcDbArc
 50
105.9644464190627
 51
211.9934993458222
  0
ARC
  5
43E
330
AC8
100
AcDbEntity
  8
0
100
AcDbCircle
 10
-2.65323804504085
 20
58.25594083103115
 30
0.0
 40
1.000000000000002
100
AcDbArc
 50
148.0065006541778
 51
254.0355535809373
1001
QCAD
1000
reversed:1
  0
LINE
  5
3CA
330
AC8
100
AcDbEntity
  8
0
100
AcDbLine
 10
-3.917735511656403
 20
-6.863865717333965
 30
0.0
 11
-0.8481082161907404
 21
-1.950194714360158
 31
0.0
  0
ARC
  5
3CB
330
AC8
100
AcDbEntity
  8
0
100
AcDbCircle
 10
-0.0000000020093667
 20
-2.480017757495489
 30
0.0
 40
1.000000000000001
100
AcDbArc
 50
31.99349934582228
 51
148.0065006541778
  0
LWPOLYLINE
  5
88
330
AC8
100
AcDbEntity
  8
0
100
AcDbPolyline
 90
        2
 70
   128
 43
0.0
 10
-19.25000000002041
 20
-60.41112566101265
 10
-19.25000000002041
 20
-60.41112566101265
  0
LINE
  5
3CC
330
AC8
100
AcDbEntity
  8
0
100
AcDbLine
 10
0.8481082121729118
 20
-1.950194714360158
 30
0.0
 11
3.917735507638644
 21
-6.863865717333979
 31
0.0
  0
LWPOLYLINE
  5
9E
330
AC8
100
AcDbEntity
  8
0
100
AcDbPolyline
 90
        2
 70
   128
 43
0.0
 10
-19.25000000001006
 20
-75.99218623631435
 10
-19.25000000001006
 20
-75.99218623631435
  0
ARC
  5
3CD
330
AC8
100
AcDbEntity
  8
0
100
AcDbCircle
 10
3.069627293456796
 20
-7.393688760469296
 30
0.0
 40
0.9999999999999952
100
AcDbArc
 50
285.4508916167012
 51
31.99349934582223
  0
LWPOLYLINE
  5
A1
330
AC8
100
AcDbEntity
  8
0
100
AcDbPolyline
 90
        2
 70
   128
 43
0.0
 10
-19.25000000001006
 20
-75.99218623631435
 10
-19.25000000001006
 20
-75.99218623631435
  0
LINE
  5
3CE
330
AC8
100
AcDbEntity
  8
0
100
AcDbLine
 10
3.336039640944144
 20
-8.357547910504344
 30
0.0
 11
0.2664123454775602
 21
-9.205998240271335
 31
0.0
  0
LWPOLYLINE
  5
A4
330
AC8
100
AcDbEntity
  8
0
100
AcDbPolyline
 90
        2
 70
   128
 43
0.0
 10
-19.24999999999972
 20
-91.57324681161606
 10
-19.24999999999972
 20
-91.57324681161606
  0
ARC
  5
3CF
330
AC8
100
AcDbEntity
  8
0
100
AcDbCircle
 10
-0.0000000020093685
 20
-8.242139090236336
 30
0.0
 40
0.999999999999951
100
AcDbArc
 50
254.5491083832975
 51
285.450891616701
  0
LWPOLYLINE
  5
A6
330
AC8
100
AcDbEntity
  8
0
100
AcDbPolyline
 90
        2
 70
   128
 43
0.0
 10
19.25000000001006
 20
-75.99218623631445
 10
19.25000000001006
 20
-75.99218623631445
  0
LINE
  5
3D0
330
AC8
100
AcDbEntity
  8
0
100
AcDbLine
 10
-0.2664123494963219
 20
-9.205998240271335
 30
0.0
 11
-3.336039644961849
 21
-8.357547910504344
 31
0.0
  0
ARC
  5
3D1
330
AC8
100
AcDbEntity
  8
0
100
AcDbCircle
 10
-3.069627297474601
 20
-7.39368876046931
 30
0.0
 40
1.0
100
AcDbArc
 50
148.0065006541776
 51
254.5491083832988
  0
LINE
  5
31E
330
AC8
100
AcDbEntity
  8
0
100
AcDbLine
 10
14.4999999999547
 20
-82.67258689874053
 30
0.0
 11
14.4999999999549
 21
-57.67258689874047
 31
0.0
  0
LINE
  5
5FB
330
AC8
100
AcDbEntity
  8
0
100
AcDbLine
 10
14.49999999995469
 20
-5.500000000000043
 30
0.0
 11
14.49999999995489
 21
19.50000000000002
 31
0.0
  0
LWPOLYLINE
  5
5B
330
AC8
100
AcDbEntity
  8
0
100
AcDbPolyline
 90
        6
 70
     1
 43
0.0
 10
5.065889755696796
 20
-44.77935350790062
 42
-0.7065604032167837
 10
6.446313089591113
 20
-45.08496758612397
 10
6.994212344461349
 20
-49.52831819759638
 42
-0.5344022315826927
 10
6.050038534561791
 20
-50.34299757215352
 10
3.215514252717914
 20
-49.55952111202622
 42
-0.5015562324917072
 10
2.779264728723042
 20
-48.43922765924583
  0
ARC
  5
31F
330
AC8
100
AcDbEntity
  8
0
100
AcDbCircle
 10
15.49999999995495
 20
-57.6725868987405
 30
0.0
 40
1.000000000000001
100
AcDbArc
 50
0.0
 51
180.0
  0
ARC
  5
5FC
330
AC8
100
AcDbEntity
  8
0
100
AcDbCircle
 10
15.49999999995494
 20
19.49999999999999
 30
0.0
 40
1.000000000000001
100
AcDbArc
 50
0.0
 51
180.0
  0
LWPOLYLINE
  5
42E
330
AC8
100
AcDbEntity
  8
0
100
AcDbPolyline
 90
        6
 70
     1
 43
0.0
 10
4.065889755696848
 20
49.3809250137806
 42
0.7065604032167837
 10
5.44631308959117
 20
49.68653909200395
 10
5.994212344461401
 20
54.12988970347636
 42
0.5344022315826927
 10
5.050038534561844
 20
54.9445690780335
 10
2.215514252717965
 20
54.16109261790619
 42
0.5015562324917072
 10
1.779264728723095
 20
53.0407991651258
  0
CIRCLE
  5
4C
330
AC8
100
AcDbEntity
  8
0
100
AcDbCircle
 10
15.24999999999969
 20
48.18214084204372
 30
0.0
 40
1.475
  0
LINE
  5
320
330
AC8
100
AcDbEntity
  8
0
100
AcDbLine
 10
16.49999999995492
 20
-57.67258689874049
 30
0.0
 11
16.4999999999547
 21
-82.67258689874053
 31
0.0
  0
LINE
  5
A90
330
AC8
100
AcDbEntity
  8
0
100
AcDbLine
 10
32.23308915141283
 20
59.05864634309756
 30
0.0
 11
56.66509729184637
 21
67.95117006956512
 31
0.0
  0
LINE
  5
5FD
330
AC8
100
AcDbEntity
  8
0
100
AcDbLine
 10
16.49999999995492
 20
19.5
 30
0.0
 11
16.4999999999547
 21
-5.500000000000043
 31
0.0
  0
ARC
  5
321
330
AC8
100
AcDbEntity
  8
0
100
AcDbCircle
 10
15.4999999999547
 20
-82.67258689874052
 30
0.0
 40
0.9999999999999987
100
AcDbArc
 50
180.0
 51
0.0
  0
ARC
  5
5FE
330
AC8
100
AcDbEntity
  8
0
100
AcDbCircle
 10
15.49999999995469
 20
-5.500000000000028
 30
0.0
 40
0.9999999999999987
100
AcDbArc
 50
180.0
 51
0.0
  0
LINE
  5
322
330
AC8
100
AcDbEntity
  8
0
100
AcDbLine
 10
-6.100000000000019
 20
-78.3174131176323
 30
0.0
 11
-6.100000000000019
 21
-68.31741311763228
 31
0.0
  0
LINE
  5
A91
330
AC8
100
AcDbEntity
  8
0
100
AcDbLine
 10
38.73492260337127
 20
29.49978701348956
 30
0.0
 11
66.92570122694858
 21
39.76039131325952
 31
0.0
  0
ARC
  5
323
330
AC8
100
AcDbEntity
  8
0
100
AcDbCircle
 10
-5.000000000000004
 20
-68.31741311763228
 30
0.0
 40
1.099999999999999
100
AcDbArc
 50
0.0
 51
180.0
  0
LINE
  5
324
330
AC8
100
AcDbEntity
  8
0
100
AcDbLine
 10
-3.900000000000031
 20
-68.31741311763228
 30
0.0
 11
-3.900000000000015
 21
-78.31741311763231
 31
0.0
  0
CIRCLE
  5
A92
330
AC8
100
AcDbEntity
  8
0
100
AcDbCircle
 10
56.15379262357726
 20
63.50835929977011
 30
0.0
 40
1.474999999999994
  0
ARC
  5
325
330
AC8
100
AcDbEntity
  8
0
100
AcDbCircle
 10
-5.000000000000011
 20
-78.31741311763231
 30
0.0
 40
1.100000000000002
100
AcDbArc
 50
180.0
 51
0.0
  0
CIRCLE
  5
4D
330
AC8
100
AcDbEntity
  8
0
100
AcDbCircle
 10
15.25000000000075
 20
89.88198494201308
 30
0.0
 40
1.475
  0
CIRCLE
  5
A93
330
AC8
100
AcDbEntity
  8
0
100
AcDbCircle
 10
63.67823577674193
 20
42.8351216424801
 30
0.0
 40
1.474999999999994
  0
ARC
  5
3D2
330
AC8
100
AcDbEntity
  8
0
100
AcDbCircle
 10
4.900561426426626
 20
0.9999999999999005
 30
0.0
 40
1.000000000000007
100
AcDbArc
 50
148.0065006541812
 51
211.9934993458193
  0
CIRCLE
  5
5F
330
AC8
100
AcDbEntity
  8
0
100
AcDbCircle
 10
15.2499999999996
 20
-91.57324681161613
 30
0.0
 40
1.475
  0
LINE
  5
3D3
330
AC8
100
AcDbEntity
  8
0
100
AcDbLine
 10
6.825584771525077
 20
-3.96888186646455
 30
0.0
 11
4.052453212244742
 21
0.4701769568646199
 31
0.0
  0
ARC
  5
3D4
330
AC8
100
AcDbEntity
  8
0
100
AcDbCircle
 10
7.588882164288792
 20
-3.492041127642764
 30
0.0
 40
0.9000000000000008
100
AcDbArc
 50
211.9934993458197
 51
359.7159018302997
  0
CIRCLE
  5
60
330
AC8
100
AcDbEntity
  8
0
100
AcDbCircle
 10
15.24999999999962
 20
-49.26289921602729
 30
0.0
 40
1.475
  0
ELLIPSE
  5
3D5
330
AC8
100
AcDbEntity
  8
0
100
AcDbEllipse
 10
-0.0000000020093657
 20
0.9999999999999858
 30
0.0
 11
2.691140748205108E-14
 21
87.89932738414979
 31
0.0
210
0.0
220
0.0
230
1.0
 40
0.096701536324698
 41
4.66121148822006
 42
4.763566418959453
  0
ARC
  5
A96
330
AC8
100
AcDbEntity
  8
0
100
AcDbCircle
 10
57.05209962845366
 20
63.96993543801419
 30
0.0
 40
4.0
100
AcDbArc
 50
18.1877101923538
 51
95.55208509933318
1001
QCAD
1000
reversed:1
  0
ARC
  5
3D6
330
AC8
100
AcDbEntity
  8
0
100
AcDbCircle
 10
7.588882164288835
 20
5.492041127642821
 30
0.0
 40
0.899999999999999
100
AcDbArc
 50
0.2837986780655444
 51
148.006500654181
  0
LINE
  5
3D7
330
AC8
100
AcDbEntity
  8
0
100
AcDbLine
 10
4.05245321224468
 20
1.529823043135181
 30
0.0
 11
6.825584771525253
 21
5.968881866464557
 31
0.0
  0
ARC
  5
A97
330
AC8
100
AcDbEntity
  8
0
100
AcDbCircle
 10
64.66307425176322
 20
43.058954511254
 30
0.0
 40
4.0
100
AcDbArc
 50
304.4479092068336
 51
21.81228838632502
  0
LINE
  5
61
330
AC8
100
AcDbEntity
  8
0
100
AcDbLine
 10
-32.23308950833632
 20
59.05864647582157
 30
0.0
 11
-56.66509764876987
 21
67.95117020228909
 31
0.0
  0
LINE
  5
A98
330
AC8
100
AcDbEntity
  8
0
100
AcDbLine
 10
60.85225572750679
 20
65.21846001639842
 30
0.0
 11
68.37669888067148
 21
44.54522235910839
 31
0.0
  0
LINE
  5
63
330
AC8
100
AcDbEntity
  8
0
100
AcDbLine
 10
-66.92570158387207
 20
39.76039144598357
 30
0.0
 11
-38.73492296029492
 21
29.49978714621319
 31
0.0
  0
ARC
  5
3E0
330
AC8
100
AcDbEntity
  8
0
100
AcDbCircle
 10
-2.225784866916382
 20
-31.56728712419407
 30
0.0
 40
0.9999999999999993
100
AcDbArc
 50
328.0065006541993
 51
74.03555358093601
  0
LINE
  5
3E1
330
AC8
100
AcDbEntity
  8
0
100
AcDbLine
 10
-1.37767665273427
 20
-32.09711016732906
 30
0.0
 11
-4.680284808287563
 21
-37.38372263396683
 31
0.0
  0
ARC
  5
3E2
330
AC8
100
AcDbEntity
  8
0
100
AcDbCircle
 10
-5.528393022469683
 20
-36.85389959083182
 30
0.0
 40
1.000000000000004
100
AcDbArc
 50
188.9366101388869
 51
328.0065006541996
  0
LINE
  5
3E3
330
AC8
100
AcDbEntity
  8
0
100
AcDbLine
 10
-6.516253831660896
 20
-37.00924121971496
 30
0.0
 11
-7.542302230892056
 21
-30.48431284590169
 31
0.0
  0
ARC
  5
3E4
330
AC8
100
AcDbEntity
  8
0
100
AcDbCircle
 10
-6.554441421700833
 20
-30.32897121701859
 30
0.0
 40
1.00000000000001
100
AcDbArc
 50
74.03555358093601
 51
188.9366101388847
  0
CIRCLE
  5
69
330
AC8
100
AcDbEntity
  8
0
100
AcDbCircle
 10
-35.48745751008817
 20
32.57451747543396
 30
0.0
 40
1.475000000000001
  0
LINE
  5
3E5
330
AC8
100
AcDbEntity
  8
0
100
AcDbLine
 10
-6.279400607795877
 20
-29.36753866572519
 30
0.0
 11
-1.950744053011501
 21
-30.60585457290066
 31
0.0
  0
LINE
  5
A9B
330
AC8
100
AcDbEntity
  8
0
100
AcDbLine
 10
-63.1271216341196
 20
-47.37643510396781
 30
0.0
 11
-48.98579422101589
 21
-64.2294128525854
 31
0.0
  0
CIRCLE
  5
6A
330
AC8
100
AcDbEntity
  8
0
100
AcDbCircle
 10
35.487458
 20
32.574517
 30
0.0
 40
1.475000000000001
  0
LINE
  5
AA4
330
AC8
100
AcDbEntity
  8
0
100
AcDbLine
 10
63.12712163411962
 20
-47.37643510396777
 30
0.0
 11
48.98579422101588
 21
-64.2294128525854
 31
0.0
  0
LINE
  5
326
330
AC8
100
AcDbEntity
  8
0
100
AcDbLine
 10
3.899999999999996
 20
-78.3174131176323
 30
0.0
 11
3.900000000000033
 21
-68.31741311763233
 31
0.0
  0
LINE
  5
A9C
330
AC8
100
AcDbEntity
  8
0
100
AcDbLine
 10
-62.63409430038986
 20
-41.74110689274575
 30
0.0
 11
-32.7583610187497
 21
-16.6723901149707
 31
0.0
  0
CIRCLE
  5
6B
330
AC8
100
AcDbEntity
  8
0
100
AcDbCircle
 10
-27.9630143569235
 20
53.24775513272397
 30
0.0
 40
1.475000000000001
  0
LINE
  5
AA5
330
AC8
100
AcDbEntity
  8
0
100
AcDbLine
 10
62.63409430038983
 20
-41.74110689274573
 30
0.0
 11
32.7583610187497
 21
-16.6723901149707
 31
0.0
  0
ARC
  5
327
330
AC8
100
AcDbEntity
  8
0
100
AcDbCircle
 10
5.000000000000022
 20
-68.3174131176323
 30
0.0
 40
1.099999999999999
100
AcDbArc
 50
0.0
 51
180.0
  0
LINE
  5
A9D
330
AC8
100
AcDbEntity
  8
0
100
AcDbLine
 10
-31.09375491989005
 20
-54.43783843133048
 30
0.0
 11
-43.35046600979369
 21
-64.72244018631514
 31
0.0
  0
CIRCLE
  5
6C
330
AC8
100
AcDbEntity
  8
0
100
AcDbCircle
 10
27.963014
 20
53.247755
 30
0.0
 40
1.475000000000001
  0
LINE
  5
AA6
330
AC8
100
AcDbEntity
  8
0
100
AcDbLine
 10
31.09375491989003
 20
-54.43783843133046
 30
0.0
 11
43.35046600979369
 21
-64.72244018631508
 31
0.0
  0
LINE
  5
328
330
AC8
100
AcDbEntity
  8
0
100
AcDbLine
 10
6.100000000000025
 20
-68.3174131176323
 30
0.0
 11
6.100000000000014
 21
-78.3174131176323
 31
0.0
  0
ARC
  5
A9E
330
AC8
100
AcDbEntity
  8
0
100
AcDbCircle
 10
-60.06294386164372
 20
-44.80528466522167
 30
0.0
 40
4.0
100
AcDbArc
 50
129.9999999999999
 51
220.0000000000003
  0
ARC
  5
6D
330
AC8
100
AcDbEntity
  8
0
100
AcDbCircle
 10
-57.05209998537718
 20
63.96993557073816
 30
0.0
 40
4.0
100
AcDbArc
 50
84.44791490066687
 51
161.8122898076463
  0
ARC
  5
AA7
330
AC8
100
AcDbEntity
  8
0
100
AcDbCircle
 10
60.06294386164367
 20
-44.80528466522164
 30
0.0
 40
4.0
100
AcDbArc
 50
319.9999999999997
 51
50.00000000000012
1001
QCAD
1000
reversed:1
  0
ARC
  5
329
330
AC8
100
AcDbEntity
  8
0
100
AcDbCircle
 10
5.000000000000006
 20
-78.3174131176323
 30
0.0
 40
1.100000000000013
100
AcDbArc
 50
180.0
 51
0.0
  0
ARC
  5
A9F
330
AC8
100
AcDbEntity
  8
0
100
AcDbCircle
 10
-45.92161644853994
 20
-61.6582624138393
 30
0.0
 40
4.0
100
AcDbArc
 50
219.9999999999998
 51
310.0000000000018
  0
ARC
  5
AA8
330
AC8
100
AcDbEntity
  8
0
100
AcDbCircle
 10
45.92161644853994
 20
-61.65826241383926
 30
0.0
 40
4.0
100
AcDbArc
 50
229.9999999999983
 51
320.0000000000003
1001
QCAD
1000
reversed:1
  0
LINE
  5
3E6
330
AC8
100
AcDbEntity
  8
0
100
AcDbLine
 10
6.516253827642942
 20
37.00924121971491
 30
0.0
 11
7.542302226874472
 21
30.48431284590168
 31
0.0
  0
ARC
  5
6F
330
AC8
100
AcDbEntity
  8
0
100
AcDbCircle
 10
-64.66307460868671
 20
43.05895464397804
 30
0.0
 40
4.0
100
AcDbArc
 50
158.1877116136752
 51
235.5520907931663
1001
QCAD
1000
reversed:1
  0
ARC
  5
3E7
330
AC8
100
AcDbEntity
  8
0
100
AcDbCircle
 10
5.528393018451788
 20
36.8538995908318
 30
0.0
 40
0.999999999999997
100
AcDbArc
 50
8.936610138886156
 51
148.0065006541997
  0
LINE
  5
3E8
330
AC8
100
AcDbEntity
  8
0
100
AcDbLine
 10
1.377676648715479
 20
32.09711016732905
 30
0.0
 11
4.680284804269773
 21
37.3837226339668
 31
0.0
  0
LINE
  5
71
330
AC8
100
AcDbEntity
  8
0
100
AcDbLine
 10
-60.85225608443027
 20
65.2184601491224
 30
0.0
 11
-68.37669923759498
 21
44.54522249183248
 31
0.0
  0
ARC
  5
3E9
330
AC8
100
AcDbEntity
  8
0
100
AcDbCircle
 10
2.225784862898678
 20
31.56728712419404
 30
0.0
 40
0.9999999999999921
100
AcDbArc
 50
148.0065006541986
 51
254.0355535809355
  0
LINE
  5
3EA
330
AC8
100
AcDbEntity
  8
0
100
AcDbLine
 10
6.279400603778116
 20
29.36753866572516
 30
0.0
 11
1.950744048993944
 21
30.60585457290067
 31
0.0
  0
ARC
  5
73
330
AC8
100
AcDbEntity
  8
0
100
AcDbCircle
 10
-32.88840462798383
 20
73.04330099761657
 30
0.0
 40
14.0
100
AcDbArc
 50
272.6828939314367
 51
346.9495869543269
  0
ARC
  5
3EB
330
AC8
100
AcDbEntity
  8
0
100
AcDbCircle
 10
6.554441417683011
 20
30.32897121701855
 30
0.0
 40
1.000000000000007
100
AcDbArc
 50
254.0355535809356
 51
8.936610138886511
  0
ARC
  5
7E
330
AC8
100
AcDbEntity
  8
0
100
AcDbCircle
 10
32.88840462801082
 20
73.04330099764044
 30
0.0
 40
14.0
100
AcDbArc
 50
193.0504130457771
 51
267.3171060685633
1001
QCAD
1000
reversed:1
  0
ARC
  5
32A
330
AC8
100
AcDbEntity
  8
0
100
AcDbCircle
 10
-6.838559711650324
 20
-92.87176922184884
 30
0.0
 40
0.5000000000000082
100
AcDbArc
 50
339.9999999999969
 51
69.99999999999987
  0
CIRCLE
  5
AA9
330
AC8
100
AcDbEntity
  8
0
100
AcDbCircle
 10
59.29689941852472
 20
-44.16249705553511
 30
0.0
 40
1.475000000000001
  0
CIRCLE
  5
89
330
AC8
100
AcDbEntity
  8
0
100
AcDbCircle
 10
-36.31556612495538
 20
-24.87886876493893
 30
0.0
 40
1.475000000000001
  0
CIRCLE
  5
AAA
330
AC8
100
AcDbEntity
  8
0
100
AcDbCircle
 10
45.15557200542086
 20
-61.01547480415267
 30
0.0
 40
1.475000000000001
  0
LINE
  5
32B
330
AC8
100
AcDbEntity
  8
0
100
AcDbLine
 10
-9.01678119195226
 20
-91.54687255314171
 30
0.0
 11
-6.667549639987498
 21
-92.4019229114559
 31
0.0
  0
CIRCLE
  5
8A
330
AC8
100
AcDbEntity
  8
0
100
AcDbCircle
 10
36.31556612495538
 20
-24.87886876493893
 30
0.0
 40
1.475000000000001
  0
ARC
  5
32C
330
AC8
100
AcDbEntity
  8
0
100
AcDbCircle
 10
-9.187791263615097
 20
-92.01671886353469
 30
0.0
 40
0.5000000000000241
100
AcDbArc
 50
70.0000000000018
 51
159.9999999999974
  0
CIRCLE
  5
AA0
330
AC8
100
AcDbEntity
  8
0
100
AcDbCircle
 10
-59.29689941852472
 20
-44.16249705553511
 30
0.0
 40
1.475000000000001
  0
CIRCLE
  5
8B
330
AC8
100
AcDbEntity
  8
0
100
AcDbCircle
 10
-22.17423871185152
 20
-41.73184651355648
 30
0.0
 40
1.475000000000001
  0
CIRCLE
  5
AA1
330
AC8
100
AcDbEntity
  8
0
100
AcDbCircle
 10
-45.15557200542085
 20
-61.01547480415265
 30
0.0
 40
1.475000000000001
  0
LINE
  5
32D
330
AC8
100
AcDbEntity
  8
0
100
AcDbLine
 10
-9.828647645670893
 20
-92.31555510226482
 30
0.0
 11
-9.657637574008058
 21
-91.84570879187183
 31
0.0
  0
CIRCLE
  5
8C
330
AC8
100
AcDbEntity
  8
0
100
AcDbCircle
 10
22.17423871185153
 20
-41.73184651355648
 30
0.0
 40
1.475000000000001
  0
ARC
  5
32E
330
AC8
100
AcDbEntity
  8
0
100
AcDbCircle
 10
-9.358801335277958
 20
-92.48656517392763
 30
0.0
 40
0.4999999999999764
100
AcDbArc
 50
160.0000000000024
 51
250.0000000000007
  0
LINE
  5
32F
330
AC8
100
AcDbEntity
  8
0
100
AcDbLine
 10
-7.180579854976001
 20
-93.81146184263474
 30
0.0
 11
-9.529811406940766
 21
-92.95641148432054
 31
0.0
  0
ARC
  5
330
330
AC8
100
AcDbEntity
  8
0
100
AcDbCircle
 10
-7.009569783313172
 20
-93.3416155322418
 30
0.0
 40
0.499999999999993
100
AcDbArc
 50
249.9999999999995
 51
340.0000000000031
  0
LINE
  5
331
330
AC8
100
AcDbEntity
  8
0
100
AcDbLine
 10
-6.368713401257375
 20
-93.0427792935117
 30
0.0
 11
-6.539723472920214
 21
-93.51262560390461
 31
0.0
  0
LINE
  5
3EC
330
AC8
100
AcDbEntity
  8
0
100
AcDbLine
 10
-7.258699704625466
 20
-11.66098059104435
 30
0.0
 11
-3.612177406008421
 21
-12.66956900246296
 31
0.0
  0
ARC
  5
3ED
330
AC8
100
AcDbEntity
  8
0
100
AcDbCircle
 10
-7.498621819568387
 20
-12.52841207465634
 30
0.0
 40
0.9000000000000024
100
AcDbArc
 50
74.53913459178108
 51
180.8635486253582
  0
ELLIPSE
  5
3EE
330
AC8
100
AcDbEntity
  8
0
100
AcDbEllipse
 10
-0.0000000020093657
 20
0.9999999999999858
 30
0.0
 11
5.382281496410216E-15
 21
87.89932738414979
 31
0.0
210
0.0
220
0.0
230
1.0
 40
0.096701536324698
 41
1.725474720943993
 42
1.805337406586172
  0
LINE
  5
AB
330
AC8
100
AcDbEntity
  8
0
100
AcDbLine
 10
-19.24999999999972
 20
-91.57324681161606
 30
0.0
 11
-19.24999999999972
 21
-60.57324681161606
 31
0.0
  0
ARC
  5
3EF
330
AC8
100
AcDbEntity
  8
0
100
AcDbCircle
 10
-7.367519458988865
 20
-19.40672002237726
 30
0.0
 40
0.8999999999999951
100
AcDbArc
 50
181.3236245575601
 51
328.0065006541989
  0
LINE
  5
AC
330
AC8
100
AcDbEntity
  8
0
100
AcDbLine
 10
19.24999999999971
 20
-91.57324681161607
 30
0.0
 11
19.24999999999972
 21
-60.57324681161607
 31
0.0
  0
LINE
  5
3F0
330
AC8
100
AcDbEntity
  8
0
100
AcDbLine
 10
-3.030649319540605
 20
-14.16320480516686
 30
0.0
 11
-6.604222066225031
 21
-19.88356076119879
 31
0.0
  0
ARC
  5
AD
330
AC8
100
AcDbEntity
  8
0
100
AcDbCircle
 10
-27.2041405704596
 20
-61.42861093604731
 30
0.0
 40
8.0
100
AcDbArc
 50
6.137826991326561
 51
119.0912407022456
1001
QCAD
1000
reversed:1
  0
ARC
  5
3F1
330
AC8
100
AcDbEntity
  8
0
100
AcDbCircle
 10
-3.878757533722796
 20
-13.63338176203186
 30
0.0
 40
1.000000000000002
100
AcDbArc
 50
328.0065006541996
 51
74.53913459178146
  0
ARC
  5
AE
330
AC8
100
AcDbEntity
  8
0
100
AcDbCircle
 10
27.20414057045961
 20
-61.42861093604729
 30
0.0
 40
8.0
100
AcDbArc
 50
60.90875929775458
 51
173.8621730086736
  0
LINE
  5
332
330
AC8
100
AcDbEntity
  8
0
100
AcDbLine
 10
9.65763757400805
 20
-91.84570879187187
 30
0.0
 11
9.82864764567087
 21
-92.31555510226482
 31
0.0
  0
ARC
  5
333
330
AC8
100
AcDbEntity
  8
0
100
AcDbCircle
 10
9.35880133527792
 20
-92.48656517392764
 30
0.0
 40
0.5000000000000024
100
AcDbArc
 50
290.0000000000003
 51
19.99999999999988
  0
LINE
  5
334
330
AC8
100
AcDbEntity
  8
0
100
AcDbLine
 10
9.529811406940754
 20
-92.9564114843206
 30
0.0
 11
7.180579854975984
 21
-93.81146184263477
 31
0.0
  0
ARC
  5
1EF
330
AC8
100
AcDbEntity
  8
0
100
AcDbCircle
 10
16.25000000000055
 20
60.94464086660297
 30
0.0
 40
0.4999999999999893
100
AcDbArc
 50
270.0
 51
90.0
  0
ARC
  5
335
330
AC8
100
AcDbEntity
  8
0
100
AcDbCircle
 10
7.00956978331316
 20
-93.3416155322418
 30
0.0
 40
0.5000000000000021
100
AcDbArc
 50
200.0000000000001
 51
289.9999999999994
  0
LINE
  5
1F0
330
AC8
100
AcDbEntity
  8
0
100
AcDbLine
 10
14.25000000000042
 20
61.44464086660287
 30
0.0
 11
16.25000000000061
 21
61.44464086660297
 31
0.0
  0
LINE
  5
336
330
AC8
100
AcDbEntity
  8
0
100
AcDbLine
 10
6.539723472920201
 20
-93.51262560390464
 30
0.0
 11
6.368713401257386
 21
-93.0427792935117
 31
0.0
  0
ARC
  5
1F1
330
AC8
100
AcDbEntity
  8
0
100
AcDbCircle
 10
14.25000000000056
 20
60.94464086660295
 30
0.0
 40
0.4999999999999893
100
AcDbArc
 50
90.0
 51
270.0
  0
ARC
  5
337
330
AC8
100
AcDbEntity
  8
0
100
AcDbCircle
 10
6.838559711650305
 20
-92.87176922184884
 30
0.0
 40
0.4999999999999808
100
AcDbArc
 50
109.9999999999992
 51
200.0000000000044
  0
LINE
  5
1F2
330
AC8
100
AcDbEntity
  8
0
100
AcDbLine
 10
14.25000000000056
 20
56.44464086660292
 30
0.0
 11
14.25000000000052
 21
60.44464086660297
 31
0.0
  0
LINE
  5
338
330
AC8
100
AcDbEntity
  8
0
100
AcDbLine
 10
6.66754963998748
 20
-92.4019229114559
 30
0.0
 11
9.016781191952266
 21
-91.54687255314174
 31
0.0
  0
ARC
  5
1F3
330
AC8
100
AcDbEntity
  8
0
100
AcDbCircle
 10
14.25000000000046
 20
55.94464086660292
 30
0.0
 40
0.4999999999999982
100
AcDbArc
 50
90.0
 51
270.0
  0
ARC
  5
339
330
AC8
100
AcDbEntity
  8
0
100
AcDbCircle
 10
9.187791263615082
 20
-92.01671886353472
 30
0.0
 40
0.5000000000000228
100
AcDbArc
 50
20.00000000000263
 51
109.9999999999975
  0
LINE
  5
1F4
330
AC8
100
AcDbEntity
  8
0
100
AcDbLine
 10
16.25000000000041
 20
55.44464086660292
 30
0.0
 11
14.25000000000043
 21
55.44464086660294
 31
0.0
  0
ARC
  5
1F5
330
AC8
100
AcDbEntity
  8
0
100
AcDbCircle
 10
16.25000000000055
 20
55.94464086660292
 30
0.0
 40
0.4999999999999982
100
AcDbArc
 50
270.0
 51
90.0
  0
LINE
  5
1F6
330
AC8
100
AcDbEntity
  8
0
100
AcDbLine
 10
16.25000000000049
 20
60.44464086660297
 30
0.0
 11
16.25000000000061
 21
56.44464086660291
 31
0.0
  0
LINE
  5
1F7
330
AC8
100
AcDbEntity
  8
0
100
AcDbLine
 10
16.2500000000005
 20
76.29464086660296
 30
0.0
 11
14.25000000000051
 21
76.29464086660296
 31
0.0
  0
ARC
  5
1F8
330
AC8
100
AcDbEntity
  8
0
100
AcDbCircle
 10
14.25000000000038
 20
76.79464086660296
 30
0.0
 40
0.5000000000000071
100
AcDbArc
 50
90.0
 51
269.9999999999998
  0
LINE
  5
1F9
330
AC8
100
AcDbEntity
  8
0
100
AcDbLine
 10
14.25000000000042
 20
77.29464086660296
 30
0.0
 11
14.25000000000045
 21
81.29464086660296
 31
0.0
  0
ARC
  5
1FA
330
AC8
100
AcDbEntity
  8
0
100
AcDbCircle
 10
14.25000000000055
 20
81.79464086660296
 30
0.0
 40
0.5000000000000071
100
AcDbArc
 50
90.0
 51
269.9999999999998
  0
LINE
  5
1FB
330
AC8
100
AcDbEntity
  8
0
100
AcDbLine
 10
14.25000000000064
 20
82.29464086660295
 30
0.0
 11
16.25000000000053
 21
82.29464086660296
 31
0.0
  0
ARC
  5
1FC
330
AC8
100
AcDbEntity
  8
0
100
AcDbCircle
 10
16.25000000000052
 20
81.79464086660295
 30
0.0
 40
0.4999999999999982
100
AcDbArc
 50
269.9999999999992
 51
90.0
  0
LINE
  5
3FA
330
AC8
100
AcDbEntity
  8
0
100
AcDbLine
 10
3.030649315523521
 20
16.16320480516698
 30
0.0
 11
6.604222062207736
 21
21.88356076119408
 31
0.0
  0
LINE
  5
1FD
330
AC8
100
AcDbEntity
  8
0
100
AcDbLine
 10
16.25000000000065
 20
81.29464086660295
 30
0.0
 11
16.25000000000042
 21
77.29464086660296
 31
0.0
  0
ARC
  5
3FB
330
AC8
100
AcDbEntity
  8
0
100
AcDbCircle
 10
7.36751945497174
 20
21.40672002237228
 30
0.0
 40
0.9000000000000004
100
AcDbArc
 50
1.323624557555712
 51
148.0065006541776
  0
ARC
  5
1FE
330
AC8
100
AcDbEntity
  8
0
100
AcDbCircle
 10
16.25000000000057
 20
76.79464086660296
 30
0.0
 40
0.4999999999999982
100
AcDbArc
 50
269.9999999999992
 51
90.0
  0
ELLIPSE
  5
3FC
330
AC8
100
AcDbEntity
  8
0
100
AcDbEllipse
 10
-0.0000000020093657
 20
0.9999999999999858
 30
0.0
 11
2.691140748205108E-14
 21
87.89932738414979
 31
0.0
210
0.0
220
0.0
230
1.0
 40
0.096701536324698
 41
4.867067428123363
 42
4.946930060175907
  0
ARC
  5
1FF
330
AC8
100
AcDbEntity
  8
0
100
AcDbCircle
 10
-16.24999999999958
 20
76.79464086660296
 30
0.0
 40
0.5000000000000071
100
AcDbArc
 50
90.0
 51
270.0
  0
ARC
  5
3FD
330
AC8
100
AcDbEntity
  8
0
100
AcDbCircle
 10
7.498621815550793
 20
14.52841207465626
 30
0.0
 40
0.9000000000000006
100
AcDbArc
 50
254.5391345917815
 51
0.8638449589743153
  0
LINE
  5
200
330
AC8
100
AcDbEntity
  8
0
100
AcDbLine
 10
-14.24999999999964
 20
76.29464086660296
 30
0.0
 11
-16.24999999999955
 21
76.29464086660296
 31
0.0
  0
LINE
  5
3FE
330
AC8
100
AcDbEntity
  8
0
100
AcDbLine
 10
7.258699700607933
 20
13.66098059104424
 30
0.0
 11
3.612177401991093
 21
14.66956900246279
 31
0.0
  0
ARC
  5
201
330
AC8
100
AcDbEntity
  8
0
100
AcDbCircle
 10
-14.2499999999995
 20
76.79464086660296
 30
0.0
 40
0.4999999999999982
100
AcDbArc
 50
269.9999999999992
 51
90.0
  0
ARC
  5
3FF
330
AC8
100
AcDbEntity
  8
0
100
AcDbCircle
 10
3.878757529705469
 20
15.63338176203168
 30
0.0
 40
1.000000000000002
100
AcDbArc
 50
148.0065006541779
 51
254.5391345917816
  0
LINE
  5
202
330
AC8
100
AcDbEntity
  8
0
100
AcDbLine
 10
-14.24999999999954
 20
81.29464086660296
 30
0.0
 11
-14.24999999999942
 21
77.29464086660296
 31
0.0
  0
LINE
  5
400
330
AC8
100
AcDbEntity
  8
0
100
AcDbLine
 10
-4.052453216262528
 20
0.4701769568646199
 30
0.0
 11
-6.825584775542864
 21
-3.968881866464528
 31
0.0
  0
ARC
  5
203
330
AC8
100
AcDbEntity
  8
0
100
AcDbCircle
 10
-14.24999999999955
 20
81.79464086660296
 30
0.0
 40
0.4999999999999982
100
AcDbArc
 50
269.9999999999992
 51
90.0
  0
ARC
  5
401
330
AC8
100
AcDbEntity
  8
0
100
AcDbCircle
 10
-4.900561430444403
 20
0.9999999999999005
 30
0.0
 40
1.000000000000006
100
AcDbArc
 50
328.0065006541805
 51
31.99349934581948
  0
LINE
  5
204
330
AC8
100
AcDbEntity
  8
0
100
AcDbLine
 10
-16.24999999999955
 20
82.29464086660296
 30
0.0
 11
-14.24999999999947
 21
82.29464086660296
 31
0.0
  0
LINE
  5
402
330
AC8
100
AcDbEntity
  8
0
100
AcDbLine
 10
-6.825584775542961
 20
5.968881866464557
 30
0.0
 11
-4.05245321626245
 21
1.529823043135195
 31
0.0
  0
ARC
  5
205
330
AC8
100
AcDbEntity
  8
0
100
AcDbCircle
 10
-16.24999999999949
 20
81.79464086660296
 30
0.0
 40
0.5000000000000071
100
AcDbArc
 50
90.0
 51
270.0
  0
ARC
  5
403
330
AC8
100
AcDbEntity
  8
0
100
AcDbCircle
 10
-7.588882168306698
 20
5.492041127642835
 30
0.0
 40
0.899999999999997
100
AcDbArc
 50
31.99349934581899
 51
179.7162013219332
  0
LINE
  5
206
330
AC8
100
AcDbEntity
  8
0
100
AcDbLine
 10
-16.24999999999948
 20
77.29464086660296
 30
0.0
 11
-16.24999999999963
 21
81.29464086660296
 31
0.0
  0
ELLIPSE
  5
404
330
AC8
100
AcDbEntity
  8
0
100
AcDbEllipse
 10
-0.0000000020093657
 20
0.9999999999999858
 30
0.0
 11
5.382281496410216E-15
 21
87.89932738414979
 31
0.0
210
0.0
220
0.0
230
1.0
 40
0.096701536324698
 41
1.519618888220132
 42
1.621973765369658
  0
LINE
  5
207
330
AC8
100
AcDbEntity
  8
0
100
AcDbLine
 10
19.25000000000058
 20
69.8819849421552
 30
0.0
 11
19.2500000000006
 21
89.71964085023016
 31
0.0
  0
ARC
  5
405
330
AC8
100
AcDbEntity
  8
0
100
AcDbCircle
 10
-7.588882168306604
 20
-3.492041127642764
 30
0.0
 40
0.899999999999999
100
AcDbArc
 50
180.2837986780656
 51
328.006500654181
  0
ARC
  5
208
330
AC8
100
AcDbEntity
  8
0
100
AcDbCircle
 10
15.25000000000066
 20
89.71964085023016
 30
0.0
 40
3.999999999999988
100
AcDbArc
 50
0.0
 51
175.0000000000005
  0
LINE
  5
209
330
AC8
100
AcDbEntity
  8
0
100
AcDbLine
 10
11.26522120763348
 20
90.06826382122075
 30
0.0
 11
9.863305536651284
 21
74.04429437783276
 31
0.0
  0
ARC
  5
20A
330
AC8
100
AcDbEntity
  8
0
100
AcDbCircle
 10
5.87852674428333
 20
74.39291734882346
 30
0.0
 40
4.000000000000878
100
AcDbArc
 50
283.0674048198873
 51
355.0000000000002
  0
ARC
  5
20B
330
AC8
100
AcDbEntity
  8
0
100
AcDbCircle
 10
0.0000000000000325
 20
99.71964085023028
 30
0.0
 40
30.00000000000009
100
AcDbArc
 50
256.9325951801133
 51
283.067404819887
  0
ARC
  5
20C
330
AC8
100
AcDbEntity
  8
0
100
AcDbCircle
 10
-5.878526744282556
 20
74.39291734882346
 30
0.0
 40
4.000000000000862
100
AcDbArc
 50
184.9999999999994
 51
256.9325951801133
  0
LINE
  5
20D
330
AC8
100
AcDbEntity
  8
0
100
AcDbLine
 10
-9.8633055366503
 20
74.04429437783277
 30
0.0
 11
-11.26522120763244
 21
90.06826382122075
 31
0.0
  0
ARC
  5
20E
330
AC8
100
AcDbEntity
  8
0
100
AcDbCircle
 10
-15.24999999999968
 20
89.71964085023016
 30
0.0
 40
3.999999999999999
100
AcDbArc
 50
4.999999999999994
 51
180.0
  0
LINE
  5
20F
330
AC8
100
AcDbEntity
  8
0
100
AcDbLine
 10
-19.24999999999952
 20
89.71964085023016
 30
0.0
 11
-19.25000000000099
 21
69.88198494201313
 31
0.0
  0
LINE
  5
33A
330
AC8
100
AcDbEntity
  8
0
100
AcDbLine
 10
-14.49999999995492
 20
-57.67258689874048
 30
0.0
 11
-14.49999999995472
 21
-82.67258689874049
 31
0.0
  0
LINE
  5
5FF
330
AC8
100
AcDbEntity
  8
0
100
AcDbLine
 10
-14.49999999995492
 20
19.50000000000001
 30
0.0
 11
-14.49999999995473
 21
-5.5
 31
0.0
  0
ARC
  5
33B
330
AC8
100
AcDbEntity
  8
0
100
AcDbCircle
 10
-15.49999999995472
 20
-82.67258689874048
 30
0.0
 40
1.000000000000001
100
AcDbArc
 50
180.0
 51
0.0
  0
ARC
  5
600
330
AC8
100
AcDbEntity
  8
0
100
AcDbCircle
 10
-15.49999999995473
 20
-5.499999999999986
 30
0.0
 40
1.000000000000001
100
AcDbArc
 50
180.0
 51
0.0
  0
LINE
  5
33C
330
AC8
100
AcDbEntity
  8
0
100
AcDbLine
 10
-16.49999999995472
 20
-82.67258689874048
 30
0.0
 11
-16.49999999995492
 21
-57.67258689874048
 31
0.0
  0
LINE
  5
601
330
AC8
100
AcDbEntity
  8
0
100
AcDbLine
 10
-16.49999999995472
 20
-5.499999999999986
 30
0.0
 11
-16.49999999995492
 21
19.50000000000001
 31
0.0
  0
ARC
  5
33D
330
AC8
100
AcDbEntity
  8
0
100
AcDbCircle
 10
-15.49999999995494
 20
-57.67258689874048
 30
0.0
 40
1.000000000000001
100
AcDbArc
 50
0.0
 51
180.0
  0
ARC
  5
602
330
AC8
100
AcDbEntity
  8
0
100
AcDbCircle
 10
-15.49999999995494
 20
19.50000000000001
 30
0.0
 40
1.000000000000001
100
AcDbArc
 50
0.0
 51
180.0
  0
ARC
  5
406
330
AC8
100
AcDbEntity
  8
0
100
AcDbCircle
 10
-7.498621819568669
 20
14.52841207465625
 30
0.0
 40
0.8999999999999873
100
AcDbArc
 50
179.136155041024
 51
285.4608654082185
  0
ELLIPSE
  5
407
330
AC8
100
AcDbEntity
  8
0
100
AcDbEllipse
 10
-0.0000000020093657
 20
0.9999999999999858
 30
0.0
 11
5.382281496410216E-15
 21
87.89932738414979
 31
0.0
210
0.0
220
0.0
230
1.0
 40
0.096701536324698
 41
1.336255247003677
 42
1.416117879056223
  0
ARC
  5
408
330
AC8
100
AcDbEntity
  8
0
100
AcDbCircle
 10
-7.367519458989372
 20
21.40672002237228
 30
0.0
 40
0.8999999999999958
100
AcDbArc
 50
31.99349934582228
 51
178.6763754424427
  0
LINE
  5
409
330
AC8
100
AcDbEntity
  8
0
100
AcDbLine
 10
-6.604222066225566
 20
21.88356076119408
 30
0.0
 11
-3.030649319541387
 21
16.16320480516701
 31
0.0
  0
ARC
  5
40A
330
AC8
100
AcDbEntity
  8
0
100
AcDbCircle
 10
-3.878757533723374
 20
15.63338176203169
 30
0.0
 40
1.000000000000011
100
AcDbArc
 50
285.4608654082183
 51
31.99349934582172
  0
LINE
  5
40B
330
AC8
100
AcDbEntity
  8
0
100
AcDbLine
 10
-3.612177406008924
 20
14.66956900246279
 30
0.0
 11
-7.258699704625674
 21
13.66098059104428
 31
0.0
  0
LINE
  5
40C
330
AC8
100
AcDbEntity
  8
0
100
AcDbLine
 10
-3.336039644962067
 20
10.35754791050434
 30
0.0
 11
-0.2664123494947977
 21
11.20599824027131
 31
0.0
  0
LINE
  5
6F9
330
AC8
100
AcDbEntity
  8
0
100
AcDbLine
 10
-3.336039642953229
 20
25.99646948663848
 30
0.0
 11
-0.2664123474859597
 21
26.84491981640545
 31
0.0
  0
ARC
  5
40D
330
AC8
100
AcDbEntity
  8
0
100
AcDbCircle
 10
-0.0000000020093628
 20
10.24213909023626
 30
0.0
 40
0.9999999999999964
100
AcDbArc
 50
74.5491083832988
 51
105.4508916167007
  0
ARC
  5
6FA
330
AC8
100
AcDbEntity
  8
0
100
AcDbCircle
 10
-0.0000000000005248
 20
25.8810606663704
 30
0.0
 40
0.9999999999999964
100
AcDbArc
 50
74.5491083832988
 51
105.4508916167007
  0
LINE
  5
40E
330
AC8
100
AcDbEntity
  8
0
100
AcDbLine
 10
0.2664123454782211
 20
11.20599824027131
 30
0.0
 11
3.336039640943847
 21
10.35754791050432
 31
0.0
  0
LINE
  5
6FB
330
AC8
100
AcDbEntity
  8
0
100
AcDbLine
 10
0.2664123474870591
 20
26.84491981640545
 30
0.0
 11
3.336039642952685
 21
25.99646948663846
 31
0.0
  0
ARC
  5
40F
330
AC8
100
AcDbEntity
  8
0
100
AcDbCircle
 10
3.069627293457021
 20
9.393688760469274
 30
0.0
 40
1.000000000000002
100
AcDbArc
 50
328.006500654178
 51
74.54910838329906
  0
ARC
  5
6FC
330
AC8
100
AcDbEntity
  8
0
100
AcDbCircle
 10
3.069627295465859
 20
25.03261033660342
 30
0.0
 40
1.000000000000002
100
AcDbArc
 50
328.006500654178
 51
74.54910838329906
  0
LINE
  5
410
330
AC8
100
AcDbEntity
  8
0
100
AcDbLine
 10
3.917735507638731
 20
8.863865717333951
 30
0.0
 11
0.8481082121732674
 21
3.950194714360137
 31
0.0
  0
LINE
  5
6FD
330
AC8
100
AcDbEntity
  8
0
100
AcDbLine
 10
3.917735509647569
 20
24.5027872934681
 30
0.0
 11
0.8481082141821054
 21
19.58911629049428
 31
0.0
  0
ARC
  5
411
330
AC8
100
AcDbEntity
  8
0
100
AcDbCircle
 10
-0.0000000020093646
 20
4.48001775749546
 30
0.0
 40
1.000000000000001
100
AcDbArc
 50
211.9934993458224
 51
328.0065006541777
  0
ARC
  5
6FE
330
AC8
100
AcDbEntity
  8
0
100
AcDbCircle
 10
-0.0000000000005266
 20
20.1189393336296
 30
0.0
 40
1.000000000000001
100
AcDbArc
 50
211.9934993458224
 51
328.0065006541777
  0
LINE
  5
412
330
AC8
100
AcDbEntity
  8
0
100
AcDbLine
 10
-0.8481082161909012
 20
3.950194714360137
 30
0.0
 11
-3.917735511656385
 21
8.863865717333951
 31
0.0
  0
LINE
  5
6FF
330
AC8
100
AcDbEntity
  8
0
100
AcDbLine
 10
-0.8481082141820632
 20
19.58911629049428
 30
0.0
 11
-3.917735509647547
 21
24.5027872934681
 31
0.0
  0
ARC
  5
413
330
AC8
100
AcDbEntity
  8
0
100
AcDbCircle
 10
-3.069627297474699
 20
9.393688760469288
 30
0.0
 40
0.9999999999999999
100
AcDbArc
 50
105.4508916167012
 51
211.9934993458223
  0
ARC
  5
700
330
AC8
100
AcDbEntity
  8
0
100
AcDbCircle
 10
-3.069627295465861
 20
25.03261033660343
 30
0.0
 40
0.9999999999999999
100
AcDbArc
 50
105.4508916167012
 51
211.9934993458223
  0
ARC
  5
414
330
AC8
100
AcDbEntity
  8
0
100
AcDbCircle
 10
6.554441417683043
 20
-30.3289712170186
 30
0.0
 40
1.000000000000008
100
AcDbArc
 50
351.0633898611149
 51
105.9644464190642
  0
LINE
  5
415
330
AC8
100
AcDbEntity
  8
0
100
AcDbLine
 10
7.542302226874242
 20
-30.48431284590171
 30
0.0
 11
6.516253827643058
 21
-37.00924121971497
 31
0.0
  0
ARC
  5
416
330
AC8
100
AcDbEntity
  8
0
100
AcDbCircle
 10
5.528393018451828
 20
-36.85389959083184
 30
0.0
 40
1.000000000000002
100
AcDbArc
 50
211.9934993458006
 51
351.0633898611135
  0
LINE
  5
417
330
AC8
100
AcDbEntity
  8
0
100
AcDbLine
 10
4.680284804269735
 20
-37.38372263396684
 30
0.0
 11
1.377676648716458
 21
-32.09711016732909
 31
0.0
  0
ARC
  5
418
330
AC8
100
AcDbEntity
  8
0
100
AcDbCircle
 10
2.22578486289863
 20
-31.56728712419408
 30
0.0
 40
1.000000000000005
100
AcDbArc
 50
105.9644464190649
 51
211.9934993458005
  0
LINE
  5
419
330
AC8
100
AcDbEntity
  8
0
100
AcDbLine
 10
1.950744048993583
 20
-30.60585457290069
 30
0.0
 11
6.279400603778075
 21
-29.36753866572521
 31
0.0
  0
LINE
  5
41A
330
AC8
100
AcDbEntity
  8
0
100
AcDbLine
 10
-0.275040815913871
 20
-43.4090959360084
 30
0.0
 11
-2.928278860952045
 21
-42.65007363079404
 31
0.0
  0
LINE
  5
6F1
330
AC8
100
AcDbEntity
  8
0
100
AcDbLine
 10
-0.2750408139049495
 20
-23.46451402547677
 30
0.0
 11
-2.928278858943123
 21
-22.70549172026241
 31
0.0
  0
ARC
  5
41B
330
AC8
100
AcDbEntity
  8
0
100
AcDbCircle
 10
-2.65323804704714
 20
-41.68864107950066
 30
0.0
 40
1.000000000000001
100
AcDbArc
 50
148.0065006541984
 51
254.0355535809367
  0
ARC
  5
6F2
330
AC8
100
AcDbEntity
  8
0
100
AcDbCircle
 10
-2.653238045038218
 20
-21.74405916896903
 30
0.0
 40
1.000000000000001
100
AcDbArc
 50
148.0065006541984
 51
254.0355535809367
  0
LINE
  5
41C
330
AC8
100
AcDbEntity
  8
0
100
AcDbLine
 10
-3.50134626122922
 20
-41.15881803636563
 30
0.0
 11
-0.8481082161909724
 21
-36.91167739321327
 31
0.0
  0
LINE
  5
6F3
330
AC8
100
AcDbEntity
  8
0
100
AcDbLine
 10
-3.501346259220298
 20
-21.214236125834
 30
0.0
 11
-0.848108214182051
 21
-16.96709548268164
 31
0.0
  0
ARC
  5
41D
330
AC8
100
AcDbEntity
  8
0
100
AcDbCircle
 10
-0.0000000020093774
 20
-37.44150043634826
 30
0.0
 40
1.000000000000001
100
AcDbArc
 50
31.99349934580111
 51
148.0065006541998
  0
ARC
  5
6F4
330
AC8
100
AcDbEntity
  8
0
100
AcDbCircle
 10
-0.0000000000004559
 20
-17.49691852581662
 30
0.0
 40
1.000000000000001
100
AcDbArc
 50
31.99349934580111
 51
148.0065006541998
  0
LINE
  5
41E
330
AC8
100
AcDbEntity
  8
0
100
AcDbLine
 10
0.8481082121732001
 20
-36.91167739321325
 30
0.0
 11
3.501346257211397
 21
-41.15881803636564
 31
0.0
  0
LINE
  5
6F5
330
AC8
100
AcDbEntity
  8
0
100
AcDbLine
 10
0.8481082141821216
 20
-16.96709548268162
 30
0.0
 11
3.501346259220318
 21
-21.21423612583401
 31
0.0
  0
ARC
  5
41F
330
AC8
100
AcDbEntity
  8
0
100
AcDbCircle
 10
2.653238043029312
 20
-41.68864107950065
 30
0.0
 40
0.9999999999999865
100
AcDbArc
 50
285.9644464190631
 51
31.9934993458003
  0
ARC
  5
6F6
330
AC8
100
AcDbEntity
  8
0
100
AcDbCircle
 10
2.653238045038234
 20
-21.74405916896902
 30
0.0
 40
0.9999999999999865
100
AcDbArc
 50
285.9644464190631
 51
31.9934993458003
  0
LINE
  5
420
330
AC8
100
AcDbEntity
  8
0
100
AcDbLine
 10
2.928278856934231
 20
-42.65007363079403
 30
0.0
 11
0.2750408118961117
 21
-43.4090959360084
 31
0.0
  0
LINE
  5
6F7
330
AC8
100
AcDbEntity
  8
0
100
AcDbLine
 10
2.928278858943152
 20
-22.7054917202624
 30
0.0
 11
0.2750408139050332
 21
-23.46451402547677
 31
0.0
  0
ARC
  5
421
330
AC8
100
AcDbEntity
  8
0
100
AcDbCircle
 10
-0.000000002009379
 20
-42.44766338471496
 30
0.0
 40
1.00000000000005
100
AcDbArc
 50
254.0355535809372
 51
285.9644464190628
  0
ARC
  5
6F8
330
AC8
100
AcDbEntity
  8
0
100
AcDbCircle
 10
-0.0000000000004575
 20
-22.50308147418333
 30
0.0
 40
1.00000000000005
100
AcDbArc
 50
254.0355535809372
 51
285.9644464190628
  0
ARC
  5
422
330
AC8
100
AcDbEntity
  8
0
100
AcDbCircle
 10
3.878757529704883
 20
-13.63338176203185
 30
0.0
 40
1.000000000000004
100
AcDbArc
 50
105.4608654082187
 51
211.9934993458004
  0
LINE
  5
423
330
AC8
100
AcDbEntity
  8
0
100
AcDbLine
 10
3.612177401990611
 20
-12.66956900246295
 30
0.0
 11
7.258699700607654
 21
-11.66098059104437
 31
0.0
  0
ARC
  5
424
330
AC8
100
AcDbEntity
  8
0
100
AcDbCircle
 10
7.498621815550548
 20
-12.52841207465637
 30
0.0
 40
0.8999999999999998
100
AcDbArc
 50
359.1361550410186
 51
105.4608654082182
  0
ELLIPSE
  5
425
330
AC8
100
AcDbEntity
  8
0
100
AcDbEllipse
 10
-0.0000000020093657
 20
0.9999999999999858
 30
0.0
 11
2.691140748205108E-14
 21
87.89932738414979
 31
0.0
210
0.0
220
0.0
230
1.0
 40
0.096701536324698
 41
4.477847847002991
 42
4.557710532646015
  0
ARC
  5
426
330
AC8
100
AcDbEntity
  8
0
100
AcDbCircle
 10
7.36751945497111
 20
-19.40672002237727
 30
0.0
 40
0.900000000000002
100
AcDbArc
 50
211.993499345801
 51
358.6760836931011
  0
LINE
  5
427
330
AC8
100
AcDbEntity
  8
0
100
AcDbLine
 10
6.604222062207206
 20
-19.88356076119879
 30
0.0
 11
3.030649315522836
 21
-14.16320480516685
 31
0.0
  0
ARC
  5
33E
330
AC8
100
AcDbEntity
  8
0
100
AcDbCircle
 10
-12.50727450069387
 20
-93.82741310125955
 30
0.0
 40
1.499999999999959
100
AcDbArc
 50
269.9999999999989
 51
318.6041021556288
  0
ARC
  5
33F
330
AC8
100
AcDbEntity
  8
0
100
AcDbCircle
 10
-10.25679925547502
 20
-95.81118757701454
 30
0.0
 40
1.500000000000031
100
AcDbArc
 50
69.99999999999936
 51
138.6041021556264
  0
LINE
  5
340
330
AC8
100
AcDbEntity
  8
0
100
AcDbLine
 10
-9.743769040486475
 20
-94.40164864583565
 30
0.0
 11
-8.078425865347148
 21
-95.00778399142477
 31
0.0
  0
ARC
  5
341
330
AC8
100
AcDbEntity
  8
0
100
AcDbCircle
 10
-6.265719105721014
 20
-90.02741310125967
 30
0.0
 40
5.299999999999836
100
AcDbArc
 50
249.9999999999983
 51
270.0000000000002
  0
LINE
  5
342
330
AC8
100
AcDbEntity
  8
0
100
AcDbLine
 10
-6.265719105721001
 20
-95.3274131012595
 30
0.0
 11
-6.249999999999997
 21
-95.32741310125951
 31
0.0
  0
ARC
  5
343
330
AC8
100
AcDbEntity
  8
0
100
AcDbCircle
 10
-6.250000000000017
 20
-92.32741310125948
 30
0.0
 40
3.000000000000016
100
AcDbArc
 50
270.0000000000002
 51
0.0
  0
LINE
  5
344
330
AC8
100
AcDbEntity
  8
0
100
AcDbLine
 10
-3.249999999999989
 20
-92.3274131012595
 30
0.0
 11
-3.250000000000068
 21
-86.07641331740359
 31
0.0
  0
ARC
  5
345
330
AC8
100
AcDbEntity
  8
0
100
AcDbCircle
 10
-0.0000000000004642
 20
-86.07641331740359
 30
0.0
 40
3.249999999999602
100
AcDbArc
 50
0.0
 51
180.0
  0
LINE
  5
346
330
AC8
100
AcDbEntity
  8
0
100
AcDbLine
 10
3.249999999999135
 20
-86.07641331740359
 30
0.0
 11
3.249999999999988
 21
-92.32741310125951
 31
0.0
  0
ARC
  5
347
330
AC8
100
AcDbEntity
  8
0
100
AcDbCircle
 10
6.250000000000004
 20
-92.32741310125951
 30
0.0
 40
3.000000000000009
100
AcDbArc
 50
180.0
 51
269.9999999999998
  0
LINE
  5
348
330
AC8
100
AcDbEntity
  8
0
100
AcDbLine
 10
6.249999999999996
 20
-95.32741310125951
 30
0.0
 11
6.265719105720952
 21
-95.32741310125951
 31
0.0
  0
ARC
  5
349
330
AC8
100
AcDbEntity
  8
0
100
AcDbCircle
 10
6.265719105720891
 20
-90.02741310125924
 30
0.0
 40
5.300000000000269
100
AcDbArc
 50
270.0000000000007
 51
290.0000000000008
  0
LINE
  5
34A
330
AC8
100
AcDbEntity
  8
0
100
AcDbLine
 10
8.0784258653471
 20
-95.00778399142479
 30
0.0
 11
9.743769040486493
 21
-94.40164864583562
 31
0.0
  0
ARC
  5
34B
330
AC8
100
AcDbEntity
  8
0
100
AcDbCircle
 10
10.25679925547503
 20
-95.8111875770145
 30
0.0
 40
1.499999999999999
100
AcDbArc
 50
41.39589784437193
 51
110.0000000000009
  0
ARC
  5
34C
330
AC8
100
AcDbEntity
  8
0
100
AcDbCircle
 10
12.50727450069393
 20
-93.82741310125947
 30
0.0
 40
1.500000000000036
100
AcDbArc
 50
221.3958978443728
 51
269.9999999999993
  0
LINE
  5
34D
330
AC8
100
AcDbEntity
  8
0
100
AcDbLine
 10
12.50727450069392
 20
-95.32741310125951
 30
0.0
 11
15.25
 21
-95.32741310125951
 31
0.0
  0
ARC
  5
34E
330
AC8
100
AcDbEntity
  8
0
100
AcDbCircle
 10
15.25
 20
-91.32741310125952
 30
0.0
 40
3.999999999999995
100
AcDbArc
 50
270.0
 51
0.0
  0
ARC
  5
34F
330
AC8
100
AcDbEntity
  8
0
100
AcDbCircle
 10
-15.24999999999999
 20
-91.32741310125951
 30
0.0
 40
4.000000000000005
100
AcDbArc
 50
180.0
 51
269.9999999999999
  0
LINE
  5
350
330
AC8
100
AcDbEntity
  8
0
100
AcDbLine
 10
-15.25000000000002
 20
-95.32741310125951
 30
0.0
 11
-12.5072745006939
 21
-95.32741310125951
 31
0.0
  0
CIRCLE
  5
6EF
330
AC8
100
AcDbEntity
  8
0
100
AcDbCircle
 10
0.0
 20
37.0
 30
0.0
 40
1.474999999999994
  0
CIRCLE
  5
6F0
330
AC8
100
AcDbEntity
  8
0
100
AcDbCircle
 10
0.0
 20
-27.0
 30
0.0
 40
1.474999999999994
  0
ARC
  5
8BF
330
AC8
100
AcDbEntity
  8
0
100
AcDbCircle
 10
52.89813848471156
 20
4.193595690198794
 30
0.0
 40
29.0
100
AcDbArc
 50
119.2346018687866
 51
226.0145969815728
  0
ARC
  5
8C0
330
AC8
100
AcDbEntity
  8
0
100
AcDbCircle
 10
-52.89813848471762
 20
4.193595690192952
 30
0.0
 40
29.0
100
AcDbArc
 50
313.9854030184438
 51
60.76539813113888
1001
QCAD
1000
reversed:1
  0
CIRCLE
  5
A7F
330
AC8
100
AcDbEntity
  8
0
100
AcDbCircle
 10
-56.15379298050075
 20
63.50835943249403
 30
0.0
 40
1.475000000000001
  0
CIRCLE
  5
A80
330
AC8
100
AcDbEntity
  8
0
100
AcDbCircle
 10
-63.67823613366542
 20
42.83512177520402
 30
0.0
 40
1.474999999999998
  0
VIEWPORT
  5
B87
330
AC4
100
AcDbEntity
 67
     1
  8
0
 62
    18
420
        0
100
AcDbViewport
 10
128.5
 20
97.5
 30
0.0
 40
314.226
 41
222.18
 68
     1
 69
     1
 12
128.5
 22
97.5
 13
0.0
 23
0.0
 14
10.0
 24
10.0
 15
10.0
 25
10.0
 16
0.0
 26
0.0
 36
1.0
 17
0.0
 27
0.0
 37
0.0
 42
50.0
 43
0.0
 44
0.0
 45
222.18
 50
0.0
 51
0.0
 72
   100
 90
   557152
  1

281
     0
 71
     1
 74
     0
110
0.0
120
0.0
130
0.0
111
1.0
121
0.0
131
0.0
112
0.0
122
1.0
132
0.0
 79
     0
146
0.0
170
     0
 61
     5
348
AD8
292
     1
282
     1
141
0.0
142
0.0
 63
   256
361
B88
  0
ENDSEC
  0
SECTION
  2
OBJECTS
  0
DICTIONARY
  5
AB6
330
0
100
AcDbDictionary
281
     1
  3
ACAD_DETAILVIEWSTYLE
350
B90
  3
ACAD_GROUP
350
AB7
  3
ACAD_LAYOUT
350
AC3
  3
ACAD_MATERIAL
350
AEC
  3
ACAD_MLEADERSTYLE
350
B14
  3
ACAD_MLINESTYLE
350
AC0
  3
ACAD_PLOTSETTINGS
350
AC2
  3
ACAD_PLOTSTYLENAME
350
AB8
  3
ACAD_SCALELIST
350
AF0
  3
ACAD_SECTIONVIEWSTYLE
350
B91
  3
ACAD_TABLESTYLE
350
B12
  3
ACAD_VISUALSTYLE
350
AD3
  3
ACDB_RECOMPOSE_DATA
350
B8D
  3
AcDbVariableDictionary
350
B89
  3
QCAD_OBJECTS
350
B18
  0
SUN
  5
B16
330
AD2
100
AcDbSun
 90
        1
290
     0
 63
     7
421
 16777215
 40
1.0
291
     1
 91
  2455826
 92
 54000000
292
     0
 70
     2
 71
   256
280
     1
  0
SUN
  5
B88
330
B87
100
AcDbSun
 90
        1
290
     0
 63
     7
421
 16777215
 40
1.0
291
     1
 91
  2455826
 92
 54000000
292
     0
 70
     2
 71
   256
280
     1
  0
DICTIONARY
  5
B90
102
{ACAD_REACTORS
330
AB6
102
}
330
AB6
100
AcDbDictionary
281
     1
  0
DICTIONARY
  5
AB7
102
{ACAD_REACTORS
330
AB6
102
}
330
AB6
100
AcDbDictionary
281
     1
  0
DICTIONARY
  5
AC3
102
{ACAD_REACTORS
330
AB6
102
}
330
AB6
100
AcDbDictionary
281
     1
  3
Layout1
350
AC7
  3
Model
350
ACB
  0
DICTIONARY
  5
AEC
102
{ACAD_REACTORS
330
AB6
102
}
330
AB6
100
AcDbDictionary
281
     1
  3
ByBlock
350
AEE
  3
ByLayer
350
AED
  3
Global
350
AEF
  0
DICTIONARY
  5
B14
102
{ACAD_REACTORS
330
AB6
102
}
330
AB6
100
AcDbDictionary
281
     1
  3
Standard
350
B15
  0
DICTIONARY
  5
AC0
102
{ACAD_REACTORS
330
AB6
102
}
330
AB6
100
AcDbDictionary
281
     1
  3
Standard
350
AC1
  0
DICTIONARY
  5
AC2
102
{ACAD_REACTORS
330
AB6
102
}
330
AB6
100
AcDbDictionary
281
     1
  0
ACDBDICTIONARYWDFLT
  5
AB8
102
{ACAD_REACTORS
330
AB6
102
}
330
AB6
100
AcDbDictionary
281
     1
  3
Normal
350
AB9
100
AcDbDictionaryWithDefault
340
AB9
  0
DICTIONARY
  5
AF0
102
{ACAD_REACTORS
330
AB6
102
}
330
AB6
100
AcDbDictionary
281
     1
  3
A0
350
AF1
  3
A1
350
AF2
  3
A2
350
AF3
  3
A3
350
AF4
  3
A4
350
AF5
  3
A5
350
AF6
  3
A6
350
AF7
  3
A7
350
AF8
  3
A8
350
AF9
  3
A9
350
AFA
  3
B0
350
AFB
  3
B1
350
AFC
  3
B2
350
AFD
  3
B3
350
AFE
  3
B4
350
AFF
  3
B5
350
B00
  3
B6
350
B01
  3
B7
350
B02
  3
B8
350
B03
  3
B9
350
B04
  3
C0
350
B05
  3
C1
350
B06
  3
C2
350
B07
  3
C3
350
B08
  3
C4
350
B09
  3
C5
350
B0A
  3
C6
350
B0B
  3
C7
350
B0C
  3
C8
350
B0D
  3
C9
350
B0E
  3
D0
350
B0F
  3
D1
350
B10
  3
D2
350
B11
  0
DICTIONARY
  5
B91
102
{ACAD_REACTORS
330
AB6
102
}
330
AB6
100
AcDbDictionary
281
     1
  0
DICTIONARY
  5
B12
102
{ACAD_REACTORS
330
AB6
102
}
330
AB6
100
AcDbDictionary
281
     1
  3
Standard
350
B13
  0
DICTIONARY
  5
AD3
102
{ACAD_REACTORS
330
AB6
102
}
330
AB6
100
AcDbDictionary
281
     1
  3
2dWireframe
350
AD8
  3
Basic
350
ADB
  3
Brighten
350
ADF
  3
ColorChange
350
AE3
  3
Conceptual
350
ADD
  3
Dim
350
ADE
  3
EdgeColorOff
350
AE6
  3
Facepattern
350
AE2
  3
Flat
350
AD4
  3
FlatWithEdges
350
AD5
  3
Gouraud
350
AD6
  3
GouraudWithEdges
350
AD7
  3
Hidden
350
ADA
  3
JitterOff
350
AE4
  3
Linepattern
350
AE1
  3
OverhangOff
350
AE5
  3
Realistic
350
ADC
  3
Shaded
350
AEB
  3
Shaded with edges
350
AEA
  3
Shades of Gray
350
AE7
  3
Sketchy
350
AE8
  3
Thicken
350
AE0
  3
Wireframe
350
AD9
  3
X-Ray
350
AE9
  0
XRECORD
  5
B8D
102
{ACAD_REACTORS
330
AB6
102
}
330
AB6
100
AcDbXrecord
280
     1
 90
        1
330
B13
  0
DICTIONARY
  5
B89
102
{ACAD_REACTORS
330
AB6
102
}
330
AB6
100
AcDbDictionary
281
     1
  3
CANNOSCALE
350
B8A
  3
CMLEADERSTYLE
350
B8F
  3
CTABLESTYLE
350
B8E
  0
DICTIONARY
  5
B18
102
{ACAD_REACTORS
330
AB6
102
}
330
AB6
100
AcDbDictionary
281
     1
  3
ColorSettings/BackgroundColor
350
B1A
  3
ColorSettings/ColorMode
350
B1B
  3
Grid/DisplayGrid00
350
B1C
  3
Grid/DisplayGrid01
350
B1D
  3
Grid/DisplayGrid02
350
B1E
  3
Grid/DisplayGrid03
350
B1F
  3
Grid/GridSpacingX00
350
B20
  3
Grid/GridSpacingX01
350
B21
  3
Grid/GridSpacingX02
350
B22
  3
Grid/GridSpacingX03
350
B23
  3
Grid/GridSpacingY00
350
B24
  3
Grid/GridSpacingY01
350
B25
  3
Grid/GridSpacingY02
350
B26
  3
Grid/GridSpacingY03
350
B27
  3
Grid/IsometricGrid00
350
B28
  3
Grid/IsometricGrid01
350
B29
  3
Grid/IsometricGrid02
350
B2A
  3
Grid/IsometricGrid03
350
B2B
  3
Grid/IsometricProjection00
350
B2C
  3
Grid/IsometricProjection01
350
B2D
  3
Grid/IsometricProjection02
350
B2E
  3
Grid/IsometricProjection03
350
B2F
  3
Grid/MetaGridSpacingX00
350
B30
  3
Grid/MetaGridSpacingX01
350
B31
  3
Grid/MetaGridSpacingX02
350
B32
  3
Grid/MetaGridSpacingX03
350
B33
  3
Grid/MetaGridSpacingY00
350
B34
  3
Grid/MetaGridSpacingY01
350
B35
  3
Grid/MetaGridSpacingY02
350
B36
  3
Grid/MetaGridSpacingY03
350
B37
  3
MultiPageSettings/Columns
350
B38
  3
MultiPageSettings/GlueMarginsBottom
350
B39
  3
MultiPageSettings/GlueMarginsLeft
350
B3A
  3
MultiPageSettings/GlueMarginsRight
350
B3B
  3
MultiPageSettings/GlueMarginsTop
350
B3C
  3
MultiPageSettings/PrintCropMarks
350
B3D
  3
MultiPageSettings/Rows
350
B3E
  3
PageSettings/OffsetX
350
B3F
  3
PageSettings/OffsetY
350
B40
  3
PageSettings/PageOrientation
350
B41
  3
PageSettings/PaperHeight
350
B42
  3
PageSettings/PaperWidth
350
B43
  3
PageSettings/Scale
350
B44
  3
PageSettings/ShowPaperBorders
350
B45
  3
QCADVersion
350
B46
  3
UnitSettings/PaperUnit
350
B47
  3
ViewportCenter
350
B48
  3
ViewportHeight
350
B49
  3
ViewportWidth
350
B4A
  0
LAYOUT
  5
AC7
102
{ACAD_REACTORS
330
AC3
102
}
330
AC3
100
AcDbPlotSettings
  1

  2
none_device
  4
ISO_A4_(210.00_x_297.00_MM)
  6

 40
7.5
 41
20.0
 42
7.5
 43
20.0
 44
210.0
 45
297.0
 46
0.0
 47
0.0
 48
0.0
 49
0.0
140
0.0
141
0.0
142
1.0
143
1536.0
 70
   688
 72
     1
 73
     1
 74
     5
  7

 75
     1
 76
     0
 77
     2
 78
   300
147
0.0006510416666667
148
0.0
149
0.0
100
AcDbLayout
  1
Layout1
 70
     1
 71
     0
 10
-20.0
 20
-7.5
 11
277.0
 21
202.5
 12
0.0
 22
0.0
 32
0.0
 14
0.0
 24
0.0
 34
0.0
 15
0.0
 25
0.0
 35
0.0
146
0.0
 13
0.0
 23
0.0
 33
0.0
 16
1.0
 26
0.0
 36
0.0
 17
0.0
 27
1.0
 37
0.0
 76
     0
330
AC4
331
B87
  0
LAYOUT
  5
ACB
102
{ACAD_REACTORS
330
AC3
102
}
330
AC3
100
AcDbPlotSettings
  1

  2
none_device
  4
Letter_(8.50_x_11.00_Inches)
  6

 40
6.35
 41
6.35
 42
6.35000508
 43
6.35000508
 44
215.9
 45
279.4
 46
0.0
 47
0.0
 48
0.0
 49
0.0
140
0.0
141
0.0
142
1.0
143
1.0
 70
  1712
 72
     0
 73
     0
 74
     0
  7

 75
     0
 76
     0
 77
     2
 78
   300
147
1.0
148
0.0
149
0.0
100
AcDbLayout
  1
Model
 70
     1
 71
     0
 10
0.0
 20
0.0
 11
12.0
 21
9.0
 12
0.0
 22
0.0
 32
0.0
 14
-68.66307460868671
 24
-95.32741310125952
 34
0.0
 15
68.66307425176322
 25
93.71964085023016
 35
0.0
146
0.0
 13
0.0
 23
0.0
 33
0.0
 16
1.0
 26
0.0
 36
0.0
 17
0.0
 27
1.0
 37
0.0
 76
     0
330
AC8
331
AD2
  0
MATERIAL
  5
AEE
102
{ACAD_REACTORS
330
AEC
102
}
330
AEC
100
AcDbMaterial
  1
ByBlock
 72
     1
 94
      127
  0
MATERIAL
  5
AED
102
{ACAD_REACTORS
330
AEC
102
}
330
AEC
100
AcDbMaterial
  1
ByLayer
 72
     1
 94
      127
  0
MATERIAL
  5
AEF
102
{ACAD_REACTORS
330
AEC
102
}
330
AEC
100
AcDbMaterial
  1
Global
 72
     1
 94
      127
  0
MLEADERSTYLE
  5
B15
102
{ACAD_REACTORS
330
B14
102
}
330
B14
100
AcDbMLeaderStyle
179
     2
170
     2
171
     1
172
     0
 90
        2
 40
0.0
 41
0.0
173
     1
 91
-1056964608
340
ABD
 92
       -2
290
     1
 42
0.09
291
     1
 43
0.36
  3
Standard
341
0
 44
0.18
300

342
ABB
174
     1
178
     6
175
     1
176
     0
 93
-1056964608
 45
0.18
292
     0
297
     0
 46
0.18
343
0
 94
-1056964608
 47
1.0
 49
1.0
140
1.0
293
     1
141
0.0
294
     1
177
     0
142
1.0
295
     0
296
     0
143
0.125
271
     0
272
     9
273
     9
298
     0
  0
MLINESTYLE
  5
AC1
102
{ACAD_REACTORS
330
AC0
102
}
330
AC0
100
AcDbMlineStyle
  2
Standard
 70
     0
  3

 62
   256
 51
90.0
 52
90.0
 71
     2
 49
0.5
 62
   256
  6
BYLAYER
 49
-0.5
 62
   256
  6
BYLAYER
  0
ACDBPLACEHOLDER
  5
AB9
102
{ACAD_REACTORS
330
AB8
102
}
330
AB8
  0
SCALE
  5
AF1
102
{ACAD_REACTORS
330
AF0
102
}
330
AF0
100
AcDbScale
 70
     0
300
1:1
140
1.0
141
1.0
290
     1
  0
SCALE
  5
AF2
102
{ACAD_REACTORS
330
AF0
102
}
330
AF0
100
AcDbScale
 70
     0
300
1:2
140
1.0
141
2.0
290
     0
  0
SCALE
  5
AF3
102
{ACAD_REACTORS
330
AF0
102
}
330
AF0
100
AcDbScale
 70
     0
300
1:4
140
1.0
141
4.0
290
     0
  0
SCALE
  5
AF4
102
{ACAD_REACTORS
330
AF0
102
}
330
AF0
100
AcDbScale
 70
     0
300
1:5
140
1.0
141
5.0
290
     0
  0
SCALE
  5
AF5
102
{ACAD_REACTORS
330
AF0
102
}
330
AF0
100
AcDbScale
 70
     0
300
1:8
140
1.0
141
8.0
290
     0
  0
SCALE
  5
AF6
102
{ACAD_REACTORS
330
AF0
102
}
330
AF0
100
AcDbScale
 70
     0
300
1:10
140
1.0
141
10.0
290
     0
  0
SCALE
  5
AF7
102
{ACAD_REACTORS
330
AF0
102
}
330
AF0
100
AcDbScale
 70
     0
300
1:16
140
1.0
141
16.0
290
     0
  0
SCALE
  5
AF8
102
{ACAD_REACTORS
330
AF0
102
}
330
AF0
100
AcDbScale
 70
     0
300
1:20
140
1.0
141
20.0
290
     0
  0
SCALE
  5
AF9
102
{ACAD_REACTORS
330
AF0
102
}
330
AF0
100
AcDbScale
 70
     0
300
1:30
140
1.0
141
30.0
290
     0
  0
SCALE
  5
AFA
102
{ACAD_REACTORS
330
AF0
102
}
330
AF0
100
AcDbScale
 70
     0
300
1:40
140
1.0
141
40.0
290
     0
  0
SCALE
  5
AFB
102
{ACAD_REACTORS
330
AF0
102
}
330
AF0
100
AcDbScale
 70
     0
300
1:50
140
1.0
141
50.0
290
     0
  0
SCALE
  5
AFC
102
{ACAD_REACTORS
330
AF0
102
}
330
AF0
100
AcDbScale
 70
     0
300
1:100
140
1.0
141
100.0
290
     0
  0
SCALE
  5
AFD
102
{ACAD_REACTORS
330
AF0
102
}
330
AF0
100
AcDbScale
 70
     0
300
2:1
140
2.0
141
1.0
290
     0
  0
SCALE
  5
AFE
102
{ACAD_REACTORS
330
AF0
102
}
330
AF0
100
AcDbScale
 70
     0
300
4:1
140
4.0
141
1.0
290
     0
  0
SCALE
  5
AFF
102
{ACAD_REACTORS
330
AF0
102
}
330
AF0
100
AcDbScale
 70
     0
300
8:1
140
8.0
141
1.0
290
     0
  0
SCALE
  5
B00
102
{ACAD_REACTORS
330
AF0
102
}
330
AF0
100
AcDbScale
 70
     0
300
10:1
140
10.0
141
1.0
290
     0
  0
SCALE
  5
B01
102
{ACAD_REACTORS
330
AF0
102
}
330
AF0
100
AcDbScale
 70
     0
300
100:1
140
100.0
141
1.0
290
     0
  0
SCALE
  5
B02
102
{ACAD_REACTORS
330
AF0
102
}
330
AF0
100
AcDbScale
 70
     0
300
1/128" = 1'-0"
140
0.0078125
141
12.0
290
     0
  0
SCALE
  5
B03
102
{ACAD_REACTORS
330
AF0
102
}
330
AF0
100
AcDbScale
 70
     0
300
1/64" = 1'-0"
140
0.015625
141
12.0
290
     0
  0
SCALE
  5
B04
102
{ACAD_REACTORS
330
AF0
102
}
330
AF0
100
AcDbScale
 70
     0
300
1/32" = 1'-0"
140
0.03125
141
12.0
290
     0
  0
SCALE
  5
B05
102
{ACAD_REACTORS
330
AF0
102
}
330
AF0
100
AcDbScale
 70
     0
300
1/16" = 1'-0"
140
0.0625
141
12.0
290
     0
  0
SCALE
  5
B06
102
{ACAD_REACTORS
330
AF0
102
}
330
AF0
100
AcDbScale
 70
     0
300
3/32" = 1'-0"
140
0.09375
141
12.0
290
     0
  0
SCALE
  5
B07
102
{ACAD_REACTORS
330
AF0
102
}
330
AF0
100
AcDbScale
 70
     0
300
1/8" = 1'-0"
140
0.125
141
12.0
290
     0
  0
SCALE
  5
B08
102
{ACAD_REACTORS
330
AF0
102
}
330
AF0
100
AcDbScale
 70
     0
300
3/16" = 1'-0"
140
0.1875
141
12.0
290
     0
  0
SCALE
  5
B09
102
{ACAD_REACTORS
330
AF0
102
}
330
AF0
100
AcDbScale
 70
     0
300
1/4" = 1'-0"
140
0.25
141
12.0
290
     0
  0
SCALE
  5
B0A
102
{ACAD_REACTORS
330
AF0
102
}
330
AF0
100
AcDbScale
 70
     0
300
3/8" = 1'-0"
140
0.375
141
12.0
290
     0
  0
SCALE
  5
B0B
102
{ACAD_REACTORS
330
AF0
102
}
330
AF0
100
AcDbScale
 70
     0
300
1/2" = 1'-0"
140
0.5
141
12.0
290
     0
  0
SCALE
  5
B0C
102
{ACAD_REACTORS
330
AF0
102
}
330
AF0
100
AcDbScale
 70
     0
300
3/4" = 1'-0"
140
0.75
141
12.0
290
     0
  0
SCALE
  5
B0D
102
{ACAD_REACTORS
330
AF0
102
}
330
AF0
100
AcDbScale
 70
     0
300
1" = 1'-0"
140
1.0
141
12.0
290
     0
  0
SCALE
  5
B0E
102
{ACAD_REACTORS
330
AF0
102
}
330
AF0
100
AcDbScale
 70
     0
300
1-1/2" = 1'-0"
140
1.5
141
12.0
290
     0
  0
SCALE
  5
B0F
102
{ACAD_REACTORS
330
AF0
102
}
330
AF0
100
AcDbScale
 70
     0
300
3" = 1'-0"
140
3.0
141
12.0
290
     0
  0
SCALE
  5
B10
102
{ACAD_REACTORS
330
AF0
102
}
330
AF0
100
AcDbScale
 70
     0
300
6" = 1'-0"
140
6.0
141
12.0
290
     0
  0
SCALE
  5
B11
102
{ACAD_REACTORS
330
AF0
102
}
330
AF0
100
AcDbScale
 70
     0
300
1'-0" = 1'-0"
140
12.0
141
12.0
290
     0
  0
TABLESTYLE
  5
B13
102
{ACAD_REACTORS
330
B12
102
}
102
{ACAD_XDICTIONARY
360
B8B
102
}
330
B12
100
AcDbTableStyle
  3
Standard
 70
     0
 71
     0
 40
0.06
 41
0.06
280
     0
281
     0
  7
Standard
140
0.18
170
     2
 62
     0
 63
   257
283
     0
 90
        4
 91
        0
  1

274
    -2
284
     1
 64
     0
275
    -2
285
     1
 65
     0
276
    -2
286
     1
 66
     0
277
    -2
287
     1
 67
     0
278
    -2
288
     1
 68
     0
279
    -2
289
     1
 69
     0
  7
Standard
140
0.25
170
     5
 62
     0
 63
   257
283
     0
 90
        4
 91
        0
  1

274
    -2
284
     1
 64
     0
275
    -2
285
     1
 65
     0
276
    -2
286
     1
 66
     0
277
    -2
287
     1
 67
     0
278
    -2
288
     1
 68
     0
279
    -2
289
     1
 69
     0
  7
Standard
140
0.18
170
     5
 62
     0
 63
   257
283
     0
 90
        4
 91
        0
  1

274
    -2
284
     1
 64
     0
275
    -2
285
     1
 65
     0
276
    -2
286
     1
 66
     0
277
    -2
287
     1
 67
     0
278
    -2
288
     1
 68
     0
279
    -2
289
     1
 69
     0
  0
VISUALSTYLE
  5
AD8
102
{ACAD_REACTORS
330
AD3
102
}
330
AD3
100
AcDbVisualStyle
  2
2dWireframe
 70
     4
177
     3
291
     0
 70
    58
 90
        0
176
     1
 90
        2
176
     1
 90
        0
176
     1
 90
        0
176
     1
 40
0.6
176
     1
 40
30.0
176
     1
 62
     7
420
 16777215
176
     1
 90
        1
176
     1
 90
        4
176
     1
 62
     7
176
     1
 62
   257
176
     1
 90
        1
176
     1
 90
        1
176
     1
 40
1.0
176
     1
 90
        0
176
     1
 62
   257
176
     1
 40
1.0
176
     1
 90
        1
176
     1
 90
        6
176
     1
 90
        2
176
     1
 62
     7
176
     1
 90
        5
176
     1
 90
        0
176
     1
 90
        0
176
     1
290
     0
176
     1
 90
        1
176
     1
 40
0.0
176
     1
 90
        0
176
     1
290
     1
176
     1
290
     1
176
     1
290
     0
176
     1
290
     0
176
     1
290
     0
176
     1
290
     0
176
     1
290
     0
176
     1
290
     0
176
     1
290
     0
176
     1
 90
       50
176
     1
 40
0.0
176
     1
 40
1.0
176
     1
 90
        0
176
     1
 62
    18
420
        0
176
     1
 90
       50
176
     1
 90
        3
176
     1
 62
     5
420
      255
176
     1
290
     0
176
     1
 90
       50
176
     1
 90
       50
176
     1
 90
       50
176
     1
290
     0
176
     1
 90
       50
176
     1
 62
   256
176
     0
 40
1.0
176
     0
 90
        2
176
     1
  1
strokes_ogs.tif
176
     1
290
     0
176
     1
 40
1.0
176
     1
 40
1.0
176
     1
  0
VISUALSTYLE
  5
ADB
102
{ACAD_REACTORS
330
AD3
102
}
330
AD3
100
AcDbVisualStyle
  2
Basic
 70
     7
177
     3
291
     1
 70
    58
 90
        1
176
     1
 90
        0
176
     1
 90
        1
176
     1
 90
        0
176
     1
 40
0.6
176
     1
 40
30.0
176
     1
 62
     7
420
 16777215
176
     1
 90
        0
176
     1
 90
        4
176
     1
 62
     7
176
     1
 62
   257
176
     1
 90
        1
176
     1
 90
        1
176
     1
 40
1.0
176
     1
 90
        8
176
     1
 62
     7
176
     1
 40
1.0
176
     1
 90
        1
176
     1
 90
        6
176
     1
 90
        2
176
     1
 62
     7
176
     1
 90
        5
176
     1
 90
        0
176
     1
 90
        0
176
     1
290
     0
176
     1
 90
        1
176
     1
 40
0.0
176
     1
 90
        0
176
     1
290
     0
176
     1
290
     1
176
     1
290
     1
176
     1
290
     0
176
     1
290
     0
176
     1
290
     0
176
     1
290
     0
176
     1
290
     0
176
     1
290
     0
176
     1
 90
       50
176
     1
 40
0.0
176
     1
 40
1.0
176
     1
 90
        0
176
     1
 62
    18
420
        0
176
     1
 90
       50
176
     1
 90
        3
176
     1
 62
     5
420
      255
176
     1
290
     0
176
     1
 90
       50
176
     1
 90
       50
176
     1
 90
       50
176
     1
290
     0
176
     1
 90
       50
176
     1
 62
   256
176
     0
 40
1.0
176
     0
 90
        2
176
     1
  1
strokes_ogs.tif
176
     1
290
     0
176
     1
 40
1.0
176
     1
 40
1.0
176
     1
  0
VISUALSTYLE
  5
ADF
102
{ACAD_REACTORS
330
AD3
102
}
330
AD3
100
AcDbVisualStyle
  2
Brighten
 70
    12
177
     3
291
     1
 70
    58
 90
        2
176
     1
 90
        2
176
     1
 90
        0
176
     1
 90
        0
176
     1
 40
0.6
176
     1
 40
30.0
176
     1
 62
     7
420
 16777215
176
     1
 90
        1
176
     1
 90
        4
176
     1
 62
     7
176
     1
 62
   257
176
     1
 90
        1
176
     1
 90
        1
176
     1
 40
1.0
176
     1
 90
        8
176
     1
 62
     7
176
     1
 40
1.0
176
     1
 90
        1
176
     1
 90
        6
176
     1
 90
        2
176
     1
 62
     7
176
     1
 90
        5
176
     1
 90
        0
176
     1
 90
        0
176
     1
290
     0
176
     1
 90
        1
176
     1
 40
50.0
176
     1
 90
        0
176
     1
290
     0
176
     1
290
     1
176
     1
290
     1
176
     1
290
     0
176
     1
290
     0
176
     1
290
     0
176
     1
290
     0
176
     1
290
     0
176
     1
290
     0
176
     1
 90
       50
176
     1
 40
0.0
176
     1
 40
1.0
176
     1
 90
        0
176
     1
 62
    18
420
        0
176
     1
 90
       50
176
     1
 90
        3
176
     1
 62
     5
420
      255
176
     1
290
     0
176
     1
 90
       50
176
     1
 90
       50
176
     1
 90
       50
176
     1
290
     0
176
     1
 90
       50
176
     1
 62
   256
176
     0
 40
1.0
176
     0
 90
        2
176
     1
  1
strokes_ogs.tif
176
     1
290
     0
176
     1
 40
1.0
176
     1
 40
1.0
176
     1
  0
VISUALSTYLE
  5
AE3
102
{ACAD_REACTORS
330
AD3
102
}
330
AD3
100
AcDbVisualStyle
  2
ColorChange
 70
    16
177
     3
291
     1
 70
    58
 90
        2
176
     1
 90
        2
176
     1
 90
        3
176
     1
 90
        0
176
     1
 40
0.6
176
     1
 40
30.0
176
     1
 62
     8
420
  8421504
176
     1
 90
        1
176
     1
 90
        4
176
     1
 62
     7
176
     1
 62
   257
176
     1
 90
        1
176
     1
 90
        1
176
     1
 40
1.0
176
     1
 90
        8
176
     1
 62
     8
420
  8421504
176
     1
 40
1.0
176
     1
 90
        1
176
     1
 90
        6
176
     1
 90
        2
176
     1
 62
     7
176
     1
 90
        5
176
     1
 90
        0
176
     1
 90
        0
176
     1
290
     0
176
     1
 90
        1
176
     1
 40
0.0
176
     1
 90
        0
176
     1
290
     0
176
     1
290
     1
176
     1
290
     1
176
     1
290
     0
176
     1
290
     0
176
     1
290
     0
176
     1
290
     0
176
     1
290
     0
176
     1
290
     0
176
     1
 90
       50
176
     1
 40
0.0
176
     1
 40
1.0
176
     1
 90
        0
176
     1
 62
    18
420
        0
176
     1
 90
       50
176
     1
 90
        3
176
     1
 62
     5
420
      255
176
     1
290
     0
176
     1
 90
       50
176
     1
 90
       50
176
     1
 90
       50
176
     1
290
     0
176
     1
 90
       50
176
     1
 62
   256
176
     0
 40
1.0
176
     0
 90
        2
176
     1
  1
strokes_ogs.tif
176
     1
290
     0
176
     1
 40
1.0
176
     1
 40
1.0
176
     1
  0
VISUALSTYLE
  5
ADD
102
{ACAD_REACTORS
330
AD3
102
}
330
AD3
100
AcDbVisualStyle
  2
Conceptual
 70
     9
177
     3
291
     0
 70
    58
 90
        3
176
     1
 90
        2
176
     1
 90
        0
176
     1
 90
        0
176
     1
 40
0.6
176
     1
 40
30.0
176
     1
 62
     7
420
 16777215
176
     1
 90
        2
176
     1
 90
        2
176
     1
 62
     7
176
     1
 62
   257
176
     1
 90
        1
176
     1
 90
        1
176
     1
 40
179.0
176
     1
 90
        8
176
     1
 62
     7
176
     1
 40
1.0
176
     1
 90
        1
176
     1
 90
        6
176
     1
 90
        2
176
     1
 62
     7
176
     1
 90
        3
176
     1
 90
        0
176
     1
 90
        0
176
     1
290
     0
176
     1
 90
        1
176
     1
 40
0.0
176
     1
 90
        0
176
     1
290
     0
176
     1
290
     1
176
     1
290
     1
176
     1
290
     0
176
     1
290
     0
176
     1
290
     0
176
     1
290
     0
176
     1
290
     0
176
     1
290
     0
176
     1
 90
       50
176
     1
 40
0.0
176
     1
 40
1.0
176
     1
 90
        0
176
     1
 62
    18
420
        0
176
     1
 90
       50
176
     1
 90
        3
176
     1
 62
     5
420
      255
176
     1
290
     0
176
     1
 90
       50
176
     1
 90
       50
176
     1
 90
       50
176
     1
290
     0
176
     1
 90
       50
176
     1
 62
   256
176
     0
 40
1.0
176
     0
 90
        2
176
     1
  1
strokes_ogs.tif
176
     1
290
     0
176
     1
 40
1.0
176
     1
 40
1.0
176
     1
  0
VISUALSTYLE
  5
ADE
102
{ACAD_REACTORS
330
AD3
102
}
330
AD3
100
AcDbVisualStyle
  2
Dim
 70
    11
177
     3
291
     1
 70
    58
 90
        2
176
     1
 90
        2
176
     1
 90
        0
176
     1
 90
        0
176
     1
 40
0.6
176
     1
 40
30.0
176
     1
 62
     7
420
 16777215
176
     1
 90
        1
176
     1
 90
        4
176
     1
 62
     7
176
     1
 62
   257
176
     1
 90
        1
176
     1
 90
        1
176
     1
 40
1.0
176
     1
 90
        8
176
     1
 62
     7
176
     1
 40
1.0
176
     1
 90
        1
176
     1
 90
        6
176
     1
 90
        2
176
     1
 62
     7
176
     1
 90
        5
176
     1
 90
        0
176
     1
 90
        0
176
     1
290
     0
176
     1
 90
        1
176
     1
 40
-50.0
176
     1
 90
        0
176
     1
290
     0
176
     1
290
     1
176
     1
290
     1
176
     1
290
     0
176
     1
290
     0
176
     1
290
     0
176
     1
290
     0
176
     1
290
     0
176
     1
290
     0
176
     1
 90
       50
176
     1
 40
0.0
176
     1
 40
1.0
176
     1
 90
        0
176
     1
 62
    18
420
        0
176
     1
 90
       50
176
     1
 90
        3
176
     1
 62
     5
420
      255
176
     1
290
     0
176
     1
 90
       50
176
     1
 90
       50
176
     1
 90
       50
176
     1
290
     0
176
     1
 90
       50
176
     1
 62
   256
176
     0
 40
1.0
176
     0
 90
        2
176
     1
  1
strokes_ogs.tif
176
     1
290
     0
176
     1
 40
1.0
176
     1
 40
1.0
176
     1
  0
VISUALSTYLE
  5
AE6
102
{ACAD_REACTORS
330
AD3
102
}
330
AD3
100
AcDbVisualStyle
  2
EdgeColorOff
 70
    22
177
     3
291
     1
 70
    58
 90
        2
176
     0
 90
        2
176
     0
 90
        0
176
     0
 90
        0
176
     0
 40
0.6
176
     0
 40
30.0
176
     0
 62
     7
420
 16777215
176
     0
 90
        1
176
     0
 90
        4
176
     0
 62
     7
176
     0
 62
   257
176
     0
 90
        1
176
     0
 90
        1
176
     0
 40
1.0
176
     0
 90
        8
176
     2
 62
     7
176
     0
 40
1.0
176
     0
 90
        1
176
     0
 90
        6
176
     0
 90
        2
176
     0
 62
     7
176
     0
 90
        5
176
     0
 90
        0
176
     0
 90
        0
176
     0
290
     0
176
     0
 90
        1
176
     0
 40
0.0
176
     0
 90
        0
176
     0
290
     0
176
     0
290
     1
176
     0
290
     1
176
     0
290
     0
176
     0
290
     0
176
     0
290
     0
176
     0
290
     0
176
     0
290
     0
176
     0
290
     0
176
     0
 90
       50
176
     0
 40
0.0
176
     0
 40
1.0
176
     0
 90
        0
176
     0
 62
    18
420
        0
176
     0
 90
       50
176
     0
 90
        3
176
     0
 62
     5
420
      255
176
     0
290
     0
176
     0
 90
       50
176
     0
 90
       50
176
     0
 90
       50
176
     0
290
     0
176
     0
 90
       50
176
     0
 62
   256
176
     0
 40
1.0
176
     0
 90
        2
176
     0
  1
strokes_ogs.tif
176
     0
290
     0
176
     0
 40
1.0
176
     0
 40
1.0
176
     0
  0
VISUALSTYLE
  5
AE2
102
{ACAD_REACTORS
330
AD3
102
}
330
AD3
100
AcDbVisualStyle
  2
Facepattern
 70
    15
177
     3
291
     1
 70
    58
 90
        2
176
     1
 90
        2
176
     1
 90
        0
176
     1
 90
        0
176
     1
 40
0.6
176
     1
 40
30.0
176
     1
 62
     7
420
 16777215
176
     1
 90
        1
176
     1
 90
        4
176
     1
 62
     7
176
     1
 62
   257
176
     1
 90
        1
176
     1
 90
        1
176
     1
 40
1.0
176
     1
 90
        8
176
     1
 62
     7
176
     1
 40
1.0
176
     1
 90
        1
176
     1
 90
        6
176
     1
 90
        2
176
     1
 62
     7
176
     1
 90
        5
176
     1
 90
        0
176
     1
 90
        0
176
     1
290
     0
176
     1
 90
        1
176
     1
 40
0.0
176
     1
 90
        0
176
     1
290
     0
176
     1
290
     1
176
     1
290
     1
176
     1
290
     0
176
     1
290
     0
176
     1
290
     0
176
     1
290
     0
176
     1
290
     0
176
     1
290
     0
176
     1
 90
       50
176
     1
 40
0.0
176
     1
 40
1.0
176
     1
 90
        0
176
     1
 62
    18
420
        0
176
     1
 90
       50
176
     1
 90
        3
176
     1
 62
     5
420
      255
176
     1
290
     0
176
     1
 90
       50
176
     1
 90
       50
176
     1
 90
       50
176
     1
290
     0
176
     1
 90
       50
176
     1
 62
   256
176
     0
 40
1.0
176
     0
 90
        2
176
     1
  1
strokes_ogs.tif
176
     1
290
     0
176
     1
 40
1.0
176
     1
 40
1.0
176
     1
  0
VISUALSTYLE
  5
AD4
102
{ACAD_REACTORS
330
AD3
102
}
330
AD3
100
AcDbVisualStyle
  2
Flat
 70
     0
177
     3
291
     1
 70
    58
 90
        2
176
     1
 90
        1
176
     1
 90
        1
176
     1
 90
        2
176
     1
 40
0.6
176
     1
 40
30.0
176
     1
 62
     7
420
 16777215
176
     1
 90
        0
176
     1
 90
        0
176
     1
 62
     7
176
     1
 62
   257
176
     1
 90
        1
176
     1
 90
        1
176
     1
 40
1.0
176
     1
 90
        8
176
     1
 62
     7
176
     1
 40
1.0
176
     1
 90
        1
176
     1
 90
        6
176
     1
 90
        2
176
     1
 62
     7
176
     1
 90
        5
176
     1
 90
        0
176
     1
 90
        0
176
     1
290
     0
176
     1
 90
       13
176
     1
 40
0.0
176
     1
 90
        0
176
     1
290
     0
176
     1
290
     1
176
     1
290
     1
176
     1
290
     0
176
     1
290
     0
176
     1
290
     0
176
     1
290
     0
176
     1
290
     0
176
     1
290
     0
176
     1
 90
       50
176
     1
 40
0.0
176
     1
 40
1.0
176
     1
 90
        0
176
     1
 62
    18
420
        0
176
     1
 90
       50
176
     1
 90
        3
176
     1
 62
     5
420
      255
176
     1
290
     0
176
     1
 90
       50
176
     1
 90
       50
176
     1
 90
       50
176
     1
290
     0
176
     1
 90
       50
176
     1
 62
   256
176
     0
 40
1.0
176
     0
 90
        2
176
     1
  1
strokes_ogs.tif
176
     1
290
     0
176
     1
 40
1.0
176
     1
 40
1.0
176
     1
  0
VISUALSTYLE
  5
AD5
102
{ACAD_REACTORS
330
AD3
102
}
330
AD3
100
AcDbVisualStyle
  2
FlatWithEdges
 70
     1
177
     3
291
     1
 70
    58
 90
        2
176
     1
 90
        1
176
     1
 90
        1
176
     1
 90
        2
176
     1
 40
0.6
176
     1
 40
30.0
176
     1
 62
     7
420
 16777215
176
     1
 90
        1
176
     1
 90
        0
176
     1
 62
     7
176
     1
 62
   257
176
     1
 90
        1
176
     1
 90
        1
176
     1
 40
1.0
176
     1
 90
        0
176
     1
 62
   257
176
     1
 40
1.0
176
     1
 90
        1
176
     1
 90
        6
176
     1
 90
        2
176
     1
 62
     7
176
     1
 90
        5
176
     1
 90
        0
176
     1
 90
        0
176
     1
290
     0
176
     1
 90
       13
176
     1
 40
0.0
176
     1
 90
        0
176
     1
290
     0
176
     1
290
     1
176
     1
290
     1
176
     1
290
     0
176
     1
290
     0
176
     1
290
     0
176
     1
290
     0
176
     1
290
     0
176
     1
290
     0
176
     1
 90
       50
176
     1
 40
0.0
176
     1
 40
1.0
176
     1
 90
        0
176
     1
 62
    18
420
        0
176
     1
 90
       50
176
     1
 90
        3
176
     1
 62
     5
420
      255
176
     1
290
     0
176
     1
 90
       50
176
     1
 90
       50
176
     1
 90
       50
176
     1
290
     0
176
     1
 90
       50
176
     1
 62
   256
176
     0
 40
1.0
176
     0
 90
        2
176
     1
  1
strokes_ogs.tif
176
     1
290
     0
176
     1
 40
1.0
176
     1
 40
1.0
176
     1
  0
VISUALSTYLE
  5
AD6
102
{ACAD_REACTORS
330
AD3
102
}
330
AD3
100
AcDbVisualStyle
  2
Gouraud
 70
     2
177
     3
291
     1
 70
    58
 90
        2
176
     1
 90
        2
176
     1
 90
        1
176
     1
 90
        2
176
     1
 40
0.6
176
     1
 40
30.0
176
     1
 62
     7
420
 16777215
176
     1
 90
        0
176
     1
 90
        0
176
     1
 62
     7
176
     1
 62
   257
176
     1
 90
        1
176
     1
 90
        1
176
     1
 40
1.0
176
     1
 90
        0
176
     1
 62
     7
176
     1
 40
1.0
176
     1
 90
        1
176
     1
 90
        6
176
     1
 90
        2
176
     1
 62
     7
176
     1
 90
        5
176
     1
 90
        0
176
     1
 90
        0
176
     1
290
     0
176
     1
 90
       13
176
     1
 40
0.0
176
     1
 90
        0
176
     1
290
     0
176
     1
290
     1
176
     1
290
     1
176
     1
290
     0
176
     1
290
     0
176
     1
290
     0
176
     1
290
     0
176
     1
290
     0
176
     1
290
     0
176
     1
 90
       50
176
     1
 40
0.0
176
     1
 40
1.0
176
     1
 90
        0
176
     1
 62
    18
420
        0
176
     1
 90
       50
176
     1
 90
        3
176
     1
 62
     5
420
      255
176
     1
290
     0
176
     1
 90
       50
176
     1
 90
       50
176
     1
 90
       50
176
     1
290
     0
176
     1
 90
       50
176
     1
 62
   256
176
     0
 40
1.0
176
     0
 90
        2
176
     1
  1
strokes_ogs.tif
176
     1
290
     0
176
     1
 40
1.0
176
     1
 40
1.0
176
     1
  0
VISUALSTYLE
  5
AD7
102
{ACAD_REACTORS
330
AD3
102
}
330
AD3
100
AcDbVisualStyle
  2
GouraudWithEdges
 70
     3
177
     3
291
     1
 70
    58
 90
        2
176
     1
 90
        2
176
     1
 90
        1
176
     1
 90
        2
176
     1
 40
0.6
176
     1
 40
30.0
176
     1
 62
     7
420
 16777215
176
     1
 90
        1
176
     1
 90
        0
176
     1
 62
     7
176
     1
 62
   257
176
     1
 90
        1
176
     1
 90
        1
176
     1
 40
1.0
176
     1
 90
        0
176
     1
 62
   257
176
     1
 40
1.0
176
     1
 90
        1
176
     1
 90
        6
176
     1
 90
        2
176
     1
 62
     7
176
     1
 90
        5
176
     1
 90
        0
176
     1
 90
        0
176
     1
290
     0
176
     1
 90
       13
176
     1
 40
0.0
176
     1
 90
        0
176
     1
290
     0
176
     1
290
     1
176
     1
290
     1
176
     1
290
     0
176
     1
290
     0
176
     1
290
     0
176
     1
290
     0
176
     1
290
     0
176
     1
290
     0
176
     1
 90
       50
176
     1
 40
0.0
176
     1
 40
1.0
176
     1
 90
        0
176
     1
 62
    18
420
        0
176
     1
 90
       50
176
     1
 90
        3
176
     1
 62
     5
420
      255
176
     1
290
     0
176
     1
 90
       50
176
     1
 90
       50
176
     1
 90
       50
176
     1
290
     0
176
     1
 90
       50
176
     1
 62
   256
176
     0
 40
1.0
176
     0
 90
        2
176
     1
  1
strokes_ogs.tif
176
     1
290
     0
176
     1
 40
1.0
176
     1
 40
1.0
176
     1
  0
VISUALSTYLE
  5
ADA
102
{ACAD_REACTORS
330
AD3
102
}
330
AD3
100
AcDbVisualStyle
  2
Hidden
 70
     6
177
     3
291
     0
 70
    58
 90
        1
176
     1
 90
        2
176
     1
 90
        2
176
     1
 90
        0
176
     1
 40
0.6
176
     1
 40
30.0
176
     1
 62
     7
420
 16777215
176
     1
 90
        2
176
     1
 90
        2
176
     1
 62
     7
176
     1
 62
   257
176
     1
 90
        2
176
     1
 90
        1
176
     1
 40
40.0
176
     1
 90
        0
176
     1
 62
   257
176
     1
 40
1.0
176
     1
 90
        1
176
     1
 90
        6
176
     1
 90
        2
176
     1
 62
     7
176
     1
 90
        3
176
     1
 90
        0
176
     1
 90
        0
176
     1
290
     0
176
     1
 90
        1
176
     1
 40
0.0
176
     1
 90
        0
176
     1
290
     0
176
     1
290
     1
176
     1
290
     1
176
     1
290
     0
176
     1
290
     0
176
     1
290
     0
176
     1
290
     0
176
     1
290
     0
176
     1
290
     0
176
     1
 90
       50
176
     1
 40
0.0
176
     1
 40
1.0
176
     1
 90
        0
176
     1
 62
    18
420
        0
176
     1
 90
       50
176
     1
 90
        3
176
     1
 62
     5
420
      255
176
     1
290
     0
176
     1
 90
       50
176
     1
 90
       50
176
     1
 90
       50
176
     1
290
     0
176
     1
 90
       50
176
     1
 62
   256
176
     0
 40
1.0
176
     0
 90
        2
176
     1
  1
strokes_ogs.tif
176
     1
290
     0
176
     1
 40
1.0
176
     1
 40
1.0
176
     1
  0
VISUALSTYLE
  5
AE4
102
{ACAD_REACTORS
330
AD3
102
}
330
AD3
100
AcDbVisualStyle
  2
JitterOff
 70
    20
177
     3
291
     1
 70
    58
 90
        2
176
     0
 90
        2
176
     0
 90
        0
176
     0
 90
        0
176
     0
 40
0.6
176
     0
 40
30.0
176
     0
 62
     7
420
 16777215
176
     0
 90
        1
176
     0
 90
        4
176
     0
 62
     7
176
     0
 62
   257
176
     0
 90
        1
176
     0
 90
        1
176
     0
 40
1.0
176
     0
 90
       10
176
     2
 62
     7
176
     0
 40
1.0
176
     0
 90
        1
176
     0
 90
        6
176
     0
 90
        2
176
     0
 62
     7
176
     0
 90
        5
176
     0
 90
        0
176
     0
 90
        0
176
     0
290
     0
176
     0
 90
        1
176
     0
 40
0.0
176
     0
 90
        0
176
     0
290
     0
176
     0
290
     1
176
     0
290
     1
176
     0
290
     0
176
     0
290
     0
176
     0
290
     0
176
     0
290
     0
176
     0
290
     0
176
     0
290
     0
176
     0
 90
       50
176
     0
 40
0.0
176
     0
 40
1.0
176
     0
 90
        0
176
     0
 62
    18
420
        0
176
     0
 90
       50
176
     0
 90
        3
176
     0
 62
     5
420
      255
176
     0
290
     0
176
     0
 90
       50
176
     0
 90
       50
176
     0
 90
       50
176
     0
290
     0
176
     0
 90
       50
176
     0
 62
   256
176
     0
 40
1.0
176
     0
 90
        2
176
     0
  1
strokes_ogs.tif
176
     0
290
     0
176
     0
 40
1.0
176
     0
 40
1.0
176
     0
  0
VISUALSTYLE
  5
AE1
102
{ACAD_REACTORS
330
AD3
102
}
330
AD3
100
AcDbVisualStyle
  2
Linepattern
 70
    14
177
     3
291
     1
 70
    58
 90
        2
176
     1
 90
        2
176
     1
 90
        0
176
     1
 90
        0
176
     1
 40
0.6
176
     1
 40
30.0
176
     1
 62
     7
420
 16777215
176
     1
 90
        1
176
     1
 90
        4
176
     1
 62
     7
176
     1
 62
   257
176
     1
 90
        7
176
     1
 90
        7
176
     1
 40
1.0
176
     1
 90
        8
176
     1
 62
     7
176
     1
 40
1.0
176
     1
 90
        1
176
     1
 90
        6
176
     1
 90
        2
176
     1
 62
     7
176
     1
 90
        5
176
     1
 90
        0
176
     1
 90
        0
176
     1
290
     0
176
     1
 90
        1
176
     1
 40
0.0
176
     1
 90
        0
176
     1
290
     0
176
     1
290
     1
176
     1
290
     1
176
     1
290
     0
176
     1
290
     0
176
     1
290
     0
176
     1
290
     0
176
     1
290
     0
176
     1
290
     0
176
     1
 90
       50
176
     1
 40
0.0
176
     1
 40
1.0
176
     1
 90
        0
176
     1
 62
    18
420
        0
176
     1
 90
       50
176
     1
 90
        3
176
     1
 62
     5
420
      255
176
     1
290
     0
176
     1
 90
       50
176
     1
 90
       50
176
     1
 90
       50
176
     1
290
     0
176
     1
 90
       50
176
     1
 62
   256
176
     0
 40
1.0
176
     0
 90
        2
176
     1
  1
strokes_ogs.tif
176
     1
290
     0
176
     1
 40
1.0
176
     1
 40
1.0
176
     1
  0
VISUALSTYLE
  5
AE5
102
{ACAD_REACTORS
330
AD3
102
}
330
AD3
100
AcDbVisualStyle
  2
OverhangOff
 70
    21
177
     3
291
     1
 70
    58
 90
        2
176
     0
 90
        2
176
     0
 90
        0
176
     0
 90
        0
176
     0
 40
0.6
176
     0
 40
30.0
176
     0
 62
     7
420
 16777215
176
     0
 90
        1
176
     0
 90
        4
176
     0
 62
     7
176
     0
 62
   257
176
     0
 90
        1
176
     0
 90
        1
176
     0
 40
1.0
176
     0
 90
        9
176
     2
 62
     7
176
     0
 40
1.0
176
     0
 90
        1
176
     0
 90
        6
176
     0
 90
        2
176
     0
 62
     7
176
     0
 90
        5
176
     0
 90
        0
176
     0
 90
        0
176
     0
290
     0
176
     0
 90
        1
176
     0
 40
0.0
176
     0
 90
        0
176
     0
290
     0
176
     0
290
     1
176
     0
290
     1
176
     0
290
     0
176
     0
290
     0
176
     0
290
     0
176
     0
290
     0
176
     0
290
     0
176
     0
290
     0
176
     0
 90
       50
176
     0
 40
0.0
176
     0
 40
1.0
176
     0
 90
        0
176
     0
 62
    18
420
        0
176
     0
 90
       50
176
     0
 90
        3
176
     0
 62
     5
420
      255
176
     0
290
     0
176
     0
 90
       50
176
     0
 90
       50
176
     0
 90
       50
176
     0
290
     0
176
     0
 90
       50
176
     0
 62
   256
176
     0
 40
1.0
176
     0
 90
        2
176
     0
  1
strokes_ogs.tif
176
     0
290
     0
176
     0
 40
1.0
176
     0
 40
1.0
176
     0
  0
VISUALSTYLE
  5
ADC
102
{ACAD_REACTORS
330
AD3
102
}
330
AD3
100
AcDbVisualStyle
  2
Realistic
 70
     8
177
     3
291
     0
 70
    58
 90
        2
176
     1
 90
        3
176
     1
 90
        0
176
     1
 90
        2
176
     1
 40
0.6
176
     1
 40
30.0
176
     1
 62
     7
420
 16777215
176
     1
 90
        0
176
     1
 90
        0
176
     1
 62
     7
176
     1
 62
   257
176
     1
 90
        1
176
     1
 90
        1
176
     1
 40
1.0
176
     1
 90
        8
176
     1
 62
   257
176
     1
 40
1.0
176
     1
 90
        1
176
     1
 90
        6
176
     1
 90
        2
176
     1
 62
     7
176
     1
 90
        3
176
     1
 90
        0
176
     1
 90
        0
176
     1
290
     0
176
     1
 90
       13
176
     1
 40
0.0
176
     1
 90
        0
176
     1
290
     0
176
     1
290
     1
176
     1
290
     1
176
     1
290
     0
176
     1
290
     0
176
     1
290
     0
176
     1
290
     0
176
     1
290
     0
176
     1
290
     0
176
     1
 90
       50
176
     1
 40
0.0
176
     1
 40
1.0
176
     1
 90
        0
176
     1
 62
    18
420
        0
176
     1
 90
       50
176
     1
 90
        3
176
     1
 62
     5
420
      255
176
     1
290
     0
176
     1
 90
       50
176
     1
 90
       50
176
     1
 90
       50
176
     1
290
     0
176
     1
 90
       50
176
     1
 62
   256
176
     0
 40
1.0
176
     0
 90
        2
176
     1
  1
strokes_ogs.tif
176
     1
290
     0
176
     1
 40
1.0
176
     1
 40
1.0
176
     1
  0
VISUALSTYLE
  5
AEB
102
{ACAD_REACTORS
330
AD3
102
}
330
AD3
100
AcDbVisualStyle
  2
Shaded
 70
    27
177
     3
291
     0
 70
    58
 90
        2
176
     1
 90
        2
176
     1
 90
        1
176
     1
 90
        2
176
     1
 40
0.6
176
     1
 40
30.0
176
     1
 62
     7
420
 16777215
176
     1
 90
        0
176
     1
 90
        4
176
     1
 62
     7
176
     1
 62
   257
176
     1
 90
        1
176
     1
 90
        1
176
     1
 40
1.0
176
     1
 90
        8
176
     1
 62
   257
176
     1
 40
1.0
176
     1
 90
        1
176
     1
 90
        6
176
     1
 90
        2
176
     1
 62
     8
420
  7895160
176
     1
 90
        3
176
     1
 90
        0
176
     1
 90
        0
176
     1
290
     0
176
     1
 90
        5
176
     1
 40
0.0
176
     1
 90
        0
176
     1
290
     0
176
     1
290
     1
176
     1
290
     1
176
     1
290
     0
176
     1
290
     0
176
     1
290
     0
176
     1
290
     0
176
     1
290
     0
176
     1
290
     0
176
     1
 90
       50
176
     1
 40
0.0
176
     1
 40
1.0
176
     1
 90
        0
176
     1
 62
    18
420
        0
176
     1
 90
       50
176
     1
 90
        3
176
     1
 62
     5
420
      255
176
     1
290
     0
176
     1
 90
       50
176
     1
 90
       50
176
     1
 90
       50
176
     1
290
     0
176
     1
 90
       50
176
     1
 62
   256
176
     0
 40
1.0
176
     0
 90
        2
176
     1
  1
strokes_ogs.tif
176
     1
290
     0
176
     1
 40
1.0
176
     1
 40
1.0
176
     1
  0
VISUALSTYLE
  5
AEA
102
{ACAD_REACTORS
330
AD3
102
}
330
AD3
100
AcDbVisualStyle
  2
Shaded with edges
 70
    26
177
     3
291
     0
 70
    58
 90
        2
176
     1
 90
        2
176
     1
 90
        1
176
     1
 90
        2
176
     1
 40
0.6
176
     1
 40
30.0
176
     1
 62
     7
420
 16777215
176
     1
 90
        1
176
     1
 90
       10
176
     1
 62
     7
176
     1
 62
   257
176
     1
 90
        2
176
     1
 90
        1
176
     1
 40
1.0
176
     1
 90
        8
176
     1
 62
   257
176
     1
 40
1.0
176
     1
 90
        1
176
     1
 90
        6
176
     1
 90
        2
176
     1
 62
     7
176
     1
 90
        3
176
     1
 90
        0
176
     1
 90
        0
176
     1
290
     0
176
     1
 90
        5
176
     1
 40
0.0
176
     1
 90
        0
176
     1
290
     0
176
     1
290
     1
176
     1
290
     1
176
     1
290
     0
176
     1
290
     0
176
     1
290
     0
176
     1
290
     0
176
     1
290
     0
176
     1
290
     0
176
     1
 90
       50
176
     1
 40
0.0
176
     1
 40
1.0
176
     1
 90
        0
176
     1
 62
    18
420
        0
176
     1
 90
       50
176
     1
 90
        3
176
     1
 62
     5
420
      255
176
     1
290
     0
176
     1
 90
       50
176
     1
 90
       50
176
     1
 90
       50
176
     1
290
     0
176
     1
 90
       50
176
     1
 62
   256
176
     0
 40
1.0
176
     0
 90
        2
176
     1
  1
strokes_ogs.tif
176
     1
290
     0
176
     1
 40
1.0
176
     1
 40
1.0
176
     1
  0
VISUALSTYLE
  5
AE7
102
{ACAD_REACTORS
330
AD3
102
}
330
AD3
100
AcDbVisualStyle
  2
Shades of Gray
 70
    23
177
     3
291
     0
 70
    58
 90
        2
176
     1
 90
        2
176
     1
 90
        3
176
     1
 90
        0
176
     1
 40
0.6
176
     1
 40
30.0
176
     1
 62
     7
420
 16777215
176
     1
 90
        2
176
     1
 90
        2
176
     1
 62
     7
176
     1
 62
     7
176
     1
 90
        1
176
     1
 90
        1
176
     1
 40
40.0
176
     1
 90
        8
176
     1
 62
     7
176
     1
 40
1.0
176
     1
 90
        1
176
     1
 90
        6
176
     1
 90
        2
176
     1
 62
     7
176
     1
 90
        3
176
     1
 90
        0
176
     1
 90
        0
176
     1
290
     0
176
     1
 90
        1
176
     1
 40
0.0
176
     1
 90
        0
176
     1
290
     0
176
     1
290
     1
176
     1
290
     1
176
     1
290
     0
176
     1
290
     0
176
     1
290
     0
176
     1
290
     0
176
     1
290
     0
176
     1
290
     0
176
     1
 90
       50
176
     1
 40
0.0
176
     1
 40
1.0
176
     1
 90
        0
176
     1
 62
    18
420
        0
176
     1
 90
       50
176
     1
 90
        3
176
     1
 62
     5
420
      255
176
     1
290
     0
176
     1
 90
       50
176
     1
 90
       50
176
     1
 90
       50
176
     1
290
     0
176
     1
 90
       50
176
     1
 62
   256
176
     0
 40
1.0
176
     0
 90
        2
176
     1
  1
strokes_ogs.tif
176
     1
290
     0
176
     1
 40
1.0
176
     1
 40
1.0
176
     1
  0
VISUALSTYLE
  5
AE8
102
{ACAD_REACTORS
330
AD3
102
}
330
AD3
100
AcDbVisualStyle
  2
Sketchy
 70
    24
177
     3
291
     0
 70
    58
 90
        1
176
     1
 90
        2
176
     1
 90
        2
176
     1
 90
        0
176
     1
 40
0.6
176
     1
 40
30.0
176
     1
 62
     7
420
 16777215
176
     1
 90
        2
176
     1
 90
        2
176
     1
 62
     7
176
     1
 62
     7
176
     1
 90
        1
176
     1
 90
        1
176
     1
 40
40.0
176
     1
 90
       11
176
     1
 62
     7
176
     1
 40
1.0
176
     1
 90
        1
176
     1
 90
        6
176
     1
 90
        2
176
     1
 62
     7
176
     1
 90
        6
176
     1
 90
        0
176
     1
 90
        0
176
     1
290
     0
176
     1
 90
        1
176
     1
 40
0.0
176
     1
 90
        0
176
     1
290
     0
176
     1
290
     1
176
     1
290
     1
176
     1
290
     0
176
     1
290
     0
176
     1
290
     0
176
     1
290
     0
176
     1
290
     0
176
     1
290
     0
176
     1
 90
       50
176
     1
 40
0.0
176
     1
 40
1.0
176
     1
 90
        0
176
     1
 62
    18
420
        0
176
     1
 90
       50
176
     1
 90
        3
176
     1
 62
     5
420
      255
176
     1
290
     0
176
     1
 90
       50
176
     1
 90
       50
176
     1
 90
       50
176
     1
290
     0
176
     1
 90
       50
176
     1
 62
   256
176
     0
 40
1.0
176
     0
 90
        2
176
     1
  1
strokes_ogs.tif
176
     1
290
     0
176
     1
 40
1.0
176
     1
 40
1.0
176
     1
  0
VISUALSTYLE
  5
AE0
102
{ACAD_REACTORS
330
AD3
102
}
330
AD3
100
AcDbVisualStyle
  2
Thicken
 70
    13
177
     3
291
     1
 70
    58
 90
        2
176
     1
 90
        2
176
     1
 90
        0
176
     1
 90
        0
176
     1
 40
0.6
176
     1
 40
30.0
176
     1
 62
     7
420
 16777215
176
     1
 90
        1
176
     1
 90
        4
176
     1
 62
     7
176
     1
 62
   257
176
     1
 90
        1
176
     1
 90
        1
176
     1
 40
1.0
176
     1
 90
       12
176
     1
 62
     7
176
     1
 40
1.0
176
     1
 90
        1
176
     1
 90
        6
176
     1
 90
        2
176
     1
 62
     7
176
     1
 90
        5
176
     1
 90
        0
176
     1
 90
        0
176
     1
290
     0
176
     1
 90
        1
176
     1
 40
0.0
176
     1
 90
        0
176
     1
290
     0
176
     1
290
     1
176
     1
290
     1
176
     1
290
     0
176
     1
290
     0
176
     1
290
     0
176
     1
290
     0
176
     1
290
     0
176
     1
290
     0
176
     1
 90
       50
176
     1
 40
0.0
176
     1
 40
1.0
176
     1
 90
        0
176
     1
 62
    18
420
        0
176
     1
 90
       50
176
     1
 90
        3
176
     1
 62
     5
420
      255
176
     1
290
     0
176
     1
 90
       50
176
     1
 90
       50
176
     1
 90
       50
176
     1
290
     0
176
     1
 90
       50
176
     1
 62
   256
176
     0
 40
1.0
176
     0
 90
        2
176
     1
  1
strokes_ogs.tif
176
     1
290
     0
176
     1
 40
1.0
176
     1
 40
1.0
176
     1
  0
VISUALSTYLE
  5
AD9
102
{ACAD_REACTORS
330
AD3
102
}
330
AD3
100
AcDbVisualStyle
  2
Wireframe
 70
     5
177
     3
291
     0
 70
    58
 90
        0
176
     1
 90
        2
176
     1
 90
        0
176
     1
 90
        0
176
     1
 40
0.6
176
     1
 40
30.0
176
     1
 62
     7
420
 16777215
176
     1
 90
        1
176
     1
 90
        4
176
     1
 62
     7
176
     1
 62
   257
176
     1
 90
        1
176
     1
 90
        1
176
     1
 40
1.0
176
     1
 90
        0
176
     1
 62
   257
176
     1
 40
1.0
176
     1
 90
        1
176
     1
 90
        6
176
     1
 90
        2
176
     1
 62
     7
176
     1
 90
        3
176
     1
 90
        0
176
     1
 90
        0
176
     1
290
     0
176
     1
 90
        1
176
     1
 40
0.0
176
     1
 90
        0
176
     1
290
     0
176
     1
290
     1
176
     1
290
     1
176
     1
290
     0
176
     1
290
     0
176
     1
290
     0
176
     1
290
     0
176
     1
290
     0
176
     1
290
     0
176
     1
 90
       50
176
     1
 40
0.0
176
     1
 40
1.0
176
     1
 90
        0
176
     1
 62
    18
420
        0
176
     1
 90
       50
176
     1
 90
        3
176
     1
 62
     5
420
      255
176
     1
290
     0
176
     1
 90
       50
176
     1
 90
       50
176
     1
 90
       50
176
     1
290
     0
176
     1
 90
       50
176
     1
 62
   256
176
     0
 40
1.0
176
     0
 90
        2
176
     1
  1
strokes_ogs.tif
176
     1
290
     0
176
     1
 40
1.0
176
     1
 40
1.0
176
     1
  0
VISUALSTYLE
  5
AE9
102
{ACAD_REACTORS
330
AD3
102
}
330
AD3
100
AcDbVisualStyle
  2
X-Ray
 70
    25
177
     3
291
     0
 70
    58
 90
        2
176
     1
 90
        2
176
     1
 90
        1
176
     1
 90
        1
176
     1
 40
0.5
176
     1
 40
30.0
176
     1
 62
     7
420
 16777215
176
     1
 90
        1
176
     1
 90
        0
176
     1
 62
     7
176
     1
 62
   257
176
     1
 90
        1
176
     1
 90
        1
176
     1
 40
1.0
176
     1
 90
        8
176
     1
 62
     7
176
     1
 40
1.0
176
     1
 90
        1
176
     1
 90
        6
176
     1
 90
        2
176
     1
 62
     7
176
     1
 90
        3
176
     1
 90
        0
176
     1
 90
        0
176
     1
290
     0
176
     1
 90
       13
176
     1
 40
0.0
176
     1
 90
        0
176
     1
290
     0
176
     1
290
     1
176
     1
290
     1
176
     1
290
     0
176
     1
290
     0
176
     1
290
     0
176
     1
290
     0
176
     1
290
     0
176
     1
290
     0
176
     1
 90
       50
176
     1
 40
0.0
176
     1
 40
1.0
176
     1
 90
        0
176
     1
 62
    18
420
        0
176
     1
 90
       50
176
     1
 90
        3
176
     1
 62
     5
420
      255
176
     1
290
     0
176
     1
 90
       50
176
     1
 90
       50
176
     1
 90
       50
176
     1
290
     0
176
     1
 90
       50
176
     1
 62
   256
176
     0
 40
1.0
176
     0
 90
        2
176
     1
  1
strokes_ogs.tif
176
     1
290
     0
176
     1
 40
1.0
176
     1
 40
1.0
176
     1
  0
DICTIONARYVAR
  5
B8A
102
{ACAD_REACTORS
330
B89
102
}
330
B89
100
DictionaryVariables
280
     0
  1
1:1
  0
DICTIONARYVAR
  5
B8F
102
{ACAD_REACTORS
330
B89
102
}
330
B89
100
DictionaryVariables
280
     0
  1
Standard
  0
DICTIONARYVAR
  5
B8E
102
{ACAD_REACTORS
330
B89
102
}
330
B89
100
DictionaryVariables
280
     0
  1
Standard
  0
XRECORD
  5
B1A
102
{ACAD_REACTORS
330
B18
102
}
330
B18
100
AcDbXrecord
280
     1
1000
#ffffff
  0
XRECORD
  5
B1B
102
{ACAD_REACTORS
330
B18
102
}
330
B18
100
AcDbXrecord
280
     1
1000
FullColor
  0
XRECORD
  5
B1C
102
{ACAD_REACTORS
330
B18
102
}
330
B18
100
AcDbXrecord
280
     1
290
     1
  0
XRECORD
  5
B1D
102
{ACAD_REACTORS
330
B18
102
}
330
B18
100
AcDbXrecord
280
     1
290
     1
  0
XRECORD
  5
B1E
102
{ACAD_REACTORS
330
B18
102
}
330
B18
100
AcDbXrecord
280
     1
290
     1
  0
XRECORD
  5
B1F
102
{ACAD_REACTORS
330
B18
102
}
330
B18
100
AcDbXrecord
280
     1
290
     1
  0
XRECORD
  5
B20
102
{ACAD_REACTORS
330
B18
102
}
330
B18
100
AcDbXrecord
280
     1
1000
auto
  0
XRECORD
  5
B21
102
{ACAD_REACTORS
330
B18
102
}
330
B18
100
AcDbXrecord
280
     1
1000
auto
  0
XRECORD
  5
B22
102
{ACAD_REACTORS
330
B18
102
}
330
B18
100
AcDbXrecord
280
     1
1000
auto
  0
XRECORD
  5
B23
102
{ACAD_REACTORS
330
B18
102
}
330
B18
100
AcDbXrecord
280
     1
1000
auto
  0
XRECORD
  5
B24
102
{ACAD_REACTORS
330
B18
102
}
330
B18
100
AcDbXrecord
280
     1
1000
auto
  0
XRECORD
  5
B25
102
{ACAD_REACTORS
330
B18
102
}
330
B18
100
AcDbXrecord
280
     1
1000
auto
  0
XRECORD
  5
B26
102
{ACAD_REACTORS
330
B18
102
}
330
B18
100
AcDbXrecord
280
     1
1000
auto
  0
XRECORD
  5
B27
102
{ACAD_REACTORS
330
B18
102
}
330
B18
100
AcDbXrecord
280
     1
1000
auto
  0
XRECORD
  5
B28
102
{ACAD_REACTORS
330
B18
102
}
330
B18
100
AcDbXrecord
280
     1
290
     0
  0
XRECORD
  5
B29
102
{ACAD_REACTORS
330
B18
102
}
330
B18
100
AcDbXrecord
280
     1
290
     0
  0
XRECORD
  5
B2A
102
{ACAD_REACTORS
330
B18
102
}
330
B18
100
AcDbXrecord
280
     1
290
     0
  0
XRECORD
  5
B2B
102
{ACAD_REACTORS
330
B18
102
}
330
B18
100
AcDbXrecord
280
     1
290
     0
  0
XRECORD
  5
B2C
102
{ACAD_REACTORS
330
B18
102
}
330
B18
100
AcDbXrecord
280
     1
 90
    65537
  0
XRECORD
  5
B2D
102
{ACAD_REACTORS
330
B18
102
}
330
B18
100
AcDbXrecord
280
     1
 90
    65537
  0
XRECORD
  5
B2E
102
{ACAD_REACTORS
330
B18
102
}
330
B18
100
AcDbXrecord
280
     1
 90
    65537
  0
XRECORD
  5
B2F
102
{ACAD_REACTORS
330
B18
102
}
330
B18
100
AcDbXrecord
280
     1
 90
    65537
  0
XRECORD
  5
B30
102
{ACAD_REACTORS
330
B18
102
}
330
B18
100
AcDbXrecord
280
     1
1000
auto
  0
XRECORD
  5
B31
102
{ACAD_REACTORS
330
B18
102
}
330
B18
100
AcDbXrecord
280
     1
1000
auto
  0
XRECORD
  5
B32
102
{ACAD_REACTORS
330
B18
102
}
330
B18
100
AcDbXrecord
280
     1
1000
auto
  0
XRECORD
  5
B33
102
{ACAD_REACTORS
330
B18
102
}
330
B18
100
AcDbXrecord
280
     1
1000
auto
  0
XRECORD
  5
B34
102
{ACAD_REACTORS
330
B18
102
}
330
B18
100
AcDbXrecord
280
     1
1000
auto
  0
XRECORD
  5
B35
102
{ACAD_REACTORS
330
B18
102
}
330
B18
100
AcDbXrecord
280
     1
1000
auto
  0
XRECORD
  5
B36
102
{ACAD_REACTORS
330
B18
102
}
330
B18
100
AcDbXrecord
280
     1
1000
auto
  0
XRECORD
  5
B37
102
{ACAD_REACTORS
330
B18
102
}
330
B18
100
AcDbXrecord
280
     1
1000
auto
  0
XRECORD
  5
B38
102
{ACAD_REACTORS
330
B18
102
}
330
B18
100
AcDbXrecord
280
     1
 90
        1
  0
XRECORD
  5
B39
102
{ACAD_REACTORS
330
B18
102
}
330
B18
100
AcDbXrecord
280
     1
 40
10.0
  0
XRECORD
  5
B3A
102
{ACAD_REACTORS
330
B18
102
}
330
B18
100
AcDbXrecord
280
     1
 40
10.0
  0
XRECORD
  5
B3B
102
{ACAD_REACTORS
330
B18
102
}
330
B18
100
AcDbXrecord
280
     1
 40
10.0
  0
XRECORD
  5
B3C
102
{ACAD_REACTORS
330
B18
102
}
330
B18
100
AcDbXrecord
280
     1
 40
10.0
  0
XRECORD
  5
B3D
102
{ACAD_REACTORS
330
B18
102
}
330
B18
100
AcDbXrecord
280
     1
290
     0
  0
XRECORD
  5
B3E
102
{ACAD_REACTORS
330
B18
102
}
330
B18
100
AcDbXrecord
280
     1
 90
        1
  0
XRECORD
  5
B3F
102
{ACAD_REACTORS
330
B18
102
}
330
B18
100
AcDbXrecord
280
     1
 40
0.0
  0
XRECORD
  5
B40
102
{ACAD_REACTORS
330
B18
102
}
330
B18
100
AcDbXrecord
280
     1
 40
0.0
  0
XRECORD
  5
B41
102
{ACAD_REACTORS
330
B18
102
}
330
B18
100
AcDbXrecord
280
     1
1000
Portrait
  0
XRECORD
  5
B42
102
{ACAD_REACTORS
330
B18
102
}
330
B18
100
AcDbXrecord
280
     1
 40
279.4
  0
XRECORD
  5
B43
102
{ACAD_REACTORS
330
B18
102
}
330
B18
100
AcDbXrecord
280
     1
 40
215.9
  0
XRECORD
  5
B44
102
{ACAD_REACTORS
330
B18
102
}
330
B18
100
AcDbXrecord
280
     1
1000
1:1
  0
XRECORD
  5
B45
102
{ACAD_REACTORS
330
B18
102
}
330
B18
100
AcDbXrecord
280
     1
290
     1
  0
XRECORD
  5
B46
102
{ACAD_REACTORS
330
B18
102
}
330
B18
100
AcDbXrecord
280
     1
1000
3.23.0
  0
XRECORD
  5
B47
102
{ACAD_REACTORS
330
B18
102
}
330
B18
100
AcDbXrecord
280
     1
 90
        4
  0
XRECORD
  5
B48
102
{ACAD_REACTORS
330
B18
102
}
330
B18
100
AcDbXrecord
280
     1
  0
XRECORD
  5
B49
102
{ACAD_REACTORS
330
B18
102
}
330
B18
100
AcDbXrecord
280
     1
 40
67.97577842059864
  0
XRECORD
  5
B4A
102
{ACAD_REACTORS
330
B18
102
}
330
B18
100
AcDbXrecord
280
     1
 40
76.22081892983567
  0
DICTIONARY
  5
B8B
330
B13
100
AcDbDictionary
280
     1
281
     1
  3
ACAD_ROUNDTRIP_2008_TABLESTYLE_CELLSTYLEMAP
360
B8C
  0
CELLSTYLEMAP
  5
B8C
102
{ACAD_REACTORS
330
B8B
102
}
330
B8B
100
AcDbCellStyleMap
 90
        3
300
CELLSTYLE
  1
TABLEFORMAT_BEGIN
 90
        5
170
     1
 91
        0
 92
    32768
 62
   257
 93
        1
300
CONTENTFORMAT
  1
CONTENTFORMAT_BEGIN
 90
        0
 91
        0
 92
        4
 93
        0
300

 40
0.0
140
1.0
 94
        5
 62
     0
340
ABB
144
0.25
309
CONTENTFORMAT_END
171
     1
301
MARGIN
  1
CELLMARGIN_BEGIN
 40
0.06
 40
0.06
 40
0.06
 40
0.06
 40
0.06
 40
0.06
309
CELLMARGIN_END
 94
        6
 95
        1
302
GRIDFORMAT
  1
GRIDFORMAT_BEGIN
 90
        0
 91
        1
 62
     0
 92
       -2
340
ABD
 93
        0
 40
0.045
309
GRIDFORMAT_END
 95
        2
302
GRIDFORMAT
  1
GRIDFORMAT_BEGIN
 90
        0
 91
        1
 62
     0
 92
       -2
340
ABD
 93
        0
 40
0.045
309
GRIDFORMAT_END
 95
        4
302
GRIDFORMAT
  1
GRIDFORMAT_BEGIN
 90
        0
 91
        1
 62
     0
 92
       -2
340
ABD
 93
        0
 40
0.045
309
GRIDFORMAT_END
 95
        8
302
GRIDFORMAT
  1
GRIDFORMAT_BEGIN
 90
        0
 91
        1
 62
     0
 92
       -2
340
ABD
 93
        0
 40
0.045
309
GRIDFORMAT_END
 95
       16
302
GRIDFORMAT
  1
GRIDFORMAT_BEGIN
 90
        0
 91
        1
 62
     0
 92
       -2
340
ABD
 93
        0
 40
0.045
309
GRIDFORMAT_END
 95
       32
302
GRIDFORMAT
  1
GRIDFORMAT_BEGIN
 90
        0
 91
        1
 62
     0
 92
       -2
340
ABD
 93
        0
 40
0.045
309
GRIDFORMAT_END
309
TABLEFORMAT_END
  1
CELLSTYLE_BEGIN
 90
        1
 91
        1
300
_TITLE
309
CELLSTYLE_END
300
CELLSTYLE
  1
TABLEFORMAT_BEGIN
 90
        5
170
     1
 91
        0
 92
        0
 62
   257
 93
        1
300
CONTENTFORMAT
  1
CONTENTFORMAT_BEGIN
 90
        0
 91
        0
 92
        4
 93
        0
300

 40
0.0
140
1.0
 94
        5
 62
     0
340
ABB
144
0.18
309
CONTENTFORMAT_END
171
     1
301
MARGIN
  1
CELLMARGIN_BEGIN
 40
0.06
 40
0.06
 40
0.06
 40
0.06
 40
0.06
 40
0.06
309
CELLMARGIN_END
 94
        6
 95
        1
302
GRIDFORMAT
  1
GRIDFORMAT_BEGIN
 90
        0
 91
        1
 62
     0
 92
       -2
340
ABD
 93
        0
 40
0.045
309
GRIDFORMAT_END
 95
        2
302
GRIDFORMAT
  1
GRIDFORMAT_BEGIN
 90
        0
 91
        1
 62
     0
 92
       -2
340
ABD
 93
        0
 40
0.045
309
GRIDFORMAT_END
 95
        4
302
GRIDFORMAT
  1
GRIDFORMAT_BEGIN
 90
        0
 91
        1
 62
     0
 92
       -2
340
ABD
 93
        0
 40
0.045
309
GRIDFORMAT_END
 95
        8
302
GRIDFORMAT
  1
GRIDFORMAT_BEGIN
 90
        0
 91
        1
 62
     0
 92
       -2
340
ABD
 93
        0
 40
0.045
309
GRIDFORMAT_END
 95
       16
302
GRIDFORMAT
  1
GRIDFORMAT_BEGIN
 90
        0
 91
        1
 62
     0
 92
       -2
340
ABD
 93
        0
 40
0.045
309
GRIDFORMAT_END
 95
       32
302
GRIDFORMAT
  1
GRIDFORMAT_BEGIN
 90
        0
 91
        1
 62
     0
 92
       -2
340
ABD
 93
        0
 40
0.045
309
GRIDFORMAT_END
309
TABLEFORMAT_END
  1
CELLSTYLE_BEGIN
 90
        2
 91
        1
300
_HEADER
309
CELLSTYLE_END
300
CELLSTYLE
  1
TABLEFORMAT_BEGIN
 90
        5
170
     1
 91
        0
 92
        0
 62
   257
 93
        1
300
CONTENTFORMAT
  1
CONTENTFORMAT_BEGIN
 90
        0
 91
        0
 92
        4
 93
        0
300

 40
0.0
140
1.0
 94
        2
 62
     0
340
ABB
144
0.18
309
CONTENTFORMAT_END
171
     1
301
MARGIN
  1
CELLMARGIN_BEGIN
 40
0.06
 40
0.06
 40
0.06
 40
0.06
 40
0.06
 40
0.06
309
CELLMARGIN_END
 94
        6
 95
        1
302
GRIDFORMAT
  1
GRIDFORMAT_BEGIN
 90
        0
 91
        1
 62
     0
 92
       -2
340
ABD
 93
        0
 40
0.045
309
GRIDFORMAT_END
 95
        2
302
GRIDFORMAT
  1
GRIDFORMAT_BEGIN
 90
        0
 91
        1
 62
     0
 92
       -2
340
ABD
 93
        0
 40
0.045
309
GRIDFORMAT_END
 95
        4
302
GRIDFORMAT
  1
GRIDFORMAT_BEGIN
 90
        0
 91
        1
 62
     0
 92
       -2
340
ABD
 93
        0
 40
0.045
309
GRIDFORMAT_END
 95
        8
302
GRIDFORMAT
  1
GRIDFORMAT_BEGIN
 90
        0
 91
        1
 62
     0
 92
       -2
340
ABD
 93
        0
 40
0.045
309
GRIDFORMAT_END
 95
       16
302
GRIDFORMAT
  1
GRIDFORMAT_BEGIN
 90
        0
 91
        1
 62
     0
 92
       -2
340
ABD
 93
        0
 40
0.045
309
GRIDFORMAT_END
 95
       32
302
GRIDFORMAT
  1
GRIDFORMAT_BEGIN
 90
        0
 91
        1
 62
     0
 92
       -2
340
ABD
 93
        0
 40
0.045
309
GRIDFORMAT_END
309
TABLEFORMAT_END
  1
CELLSTYLE_BEGIN
 90
        3
 91
        2
300
_DATA
309
CELLSTYLE_END
  0
ENDSEC
  0
EOF
