  0
SECTION
  2
BLOCKS
  0
ENDSEC
  0
SECTION
  2
ENTITIES
  0
LINE
  8
0
 10
69.6396
 20
-67.0396
 11
70.5196
 21
-66.9238
  0
LINE
  8
0
 10
70.5196
 20
-66.9238
 11
71.3396
 21
-66.5841
  0
LINE
  8
0
 10
71.3396
 20
-66.5841
 11
72.0438
 21
-66.0438
  0
LINE
  8
0
 10
72.0438
 20
-66.0438
 11
72.5841
 21
-65.3396
  0
LINE
  8
0
 10
72.5841
 20
-65.3396
 11
72.9238
 21
-64.5196
  0
LINE
  8
0
 10
72.9238
 20
-64.5196
 11
73.0396
 21
-63.6396
  0
LINE
  8
0
 10
73.0396
 20
-63.6396
 11
72.9238
 21
-62.7596
  0
LINE
  8
0
 10
72.9238
 20
-62.7596
 11
72.5841
 21
-61.9396
  0
LINE
  8
0
 10
72.5841
 20
-61.9396
 11
72.0438
 21
-61.2354
  0
LINE
  8
0
 10
72.0438
 20
-61.2354
 11
71.3396
 21
-60.6951
  0
LINE
  8
0
 10
71.3396
 20
-60.6951
 11
70.5196
 21
-60.3555
  0
LINE
  8
0
 10
70.5196
 20
-60.3555
 11
64.7267
 21
-58.916
  0
LINE
  8
0
 10
64.7267
 20
-58.916
 11
64.3493
 21
-58.8664
  0
LINE
  8
0
 10
64.3493
 20
-58.8664
 11
63.2571
 21
-58.6212
  0
LINE
  8
0
 10
63.2571
 20
-58.6212
 11
61.625
 21
-58.0308
  0
LINE
  8
0
 10
61.625
 20
-58.0308
 11
60.5453
 21
-57.4395
  0
LINE
  8
0
 10
60.5453
 20
-57.4395
 11
59.494
 21
-56.6517
  0
LINE
  8
0
 10
59.494
 20
-56.6517
 11
58.9453
 21
-56.1169
  0
LINE
  8
0
 10
58.9453
 20
-56.1169
 11
24.428
 21
-21.5996
  0
LINE
  8
0
 10
24.428
 20
-21.5996
 11
23.6634
 21
-20.6221
  0
LINE
  8
0
 10
23.6634
 20
-20.6221
 11
23.0053
 21
-19.5381
  0
LINE
  8
0
 10
23.0053
 20
-19.5381
 11
22.4364
 21
-18.3105
  0
LINE
  8
0
 10
22.4364
 20
-18.3105
 11
21.8406
 21
-16.5683
  0
LINE
  8
0
 10
21.8406
 20
-16.5683
 11
21.4749
 21
-14.9095
  0
LINE
  8
0
 10
21.4749
 20
-14.9095
 11
21.3
 21
-13.253
  0
LINE
  8
0
 10
21.3
 20
-13.253
 11
21.3
 21
-9.36569
  0
LINE
  8
0
 10
21.3
 20
-9.36569
 11
21.4888
 21
-8.10919
  0
LINE
  8
0
 10
21.4888
 20
-8.10919
 11
22.2509
 21
-5.52324
  0
LINE
  8
0
 10
22.2509
 20
-5.52324
 11
22.8881
 21
-3.77386
  0
LINE
  8
0
 10
22.8881
 20
-3.77386
 11
22.99
 21
-3
  0
LINE
  8
0
 10
22.99
 20
-3
 11
22.8881
 21
-2.22612
  0
LINE
  8
0
 10
22.8881
 20
-2.22612
 11
22.2509
 21
-0.476746
  0
LINE
  8
0
 10
22.2509
 20
-0.476746
 11
22.1104
 21
0
  0
LINE
  8
0
 10
22.1104
 20
0
 11
22.2509
 21
0.476746
  0
LINE
  8
0
 10
22.2509
 20
0.476746
 11
22.8881
 21
2.22612
  0
LINE
  8
0
 10
22.8881
 20
2.22612
 11
22.99
 21
3
  0
LINE
  8
0
 10
22.99
 20
3
 11
22.8881
 21
3.77386
  0
LINE
  8
0
 10
22.8881
 20
3.77386
 11
22.2509
 21
5.52324
  0
LINE
  8
0
 10
22.2509
 20
5.52324
 11
21.4888
 21
8.10919
  0
LINE
  8
0
 10
21.4888
 20
8.10919
 11
21.3
 21
9.36569
  0
LINE
  8
0
 10
21.3
 20
9.36569
 11
21.3
 21
13.253
  0
LINE
  8
0
 10
21.3
 20
13.253
 11
21.4749
 21
14.9095
  0
LINE
  8
0
 10
21.4749
 20
14.9095
 11
21.8406
 21
16.5683
  0
LINE
  8
0
 10
21.8406
 20
16.5683
 11
22.4364
 21
18.3105
  0
LINE
  8
0
 10
22.4364
 20
18.3105
 11
23.0053
 21
19.5381
  0
LINE
  8
0
 10
23.0053
 20
19.5381
 11
23.6634
 21
20.6221
  0
LINE
  8
0
 10
23.6634
 20
20.6221
 11
24.428
 21
21.5996
  0
LINE
  8
0
 10
24.428
 20
21.5996
 11
58.9453
 21
56.1169
  0
LINE
  8
0
 10
58.9453
 20
56.1169
 11
59.494
 21
56.6517
  0
LINE
  8
0
 10
59.494
 20
56.6517
 11
60.5453
 21
57.4395
  0
LINE
  8
0
 10
60.5453
 20
57.4395
 11
61.625
 21
58.0308
  0
LINE
  8
0
 10
61.625
 20
58.0308
 11
63.2571
 21
58.6212
  0
LINE
  8
0
 10
63.2571
 20
58.6212
 11
64.3493
 21
58.8664
  0
LINE
  8
0
 10
64.3493
 20
58.8664
 11
64.7267
 21
58.916
  0
LINE
  8
0
 10
64.7267
 20
58.916
 11
70.5196
 21
60.3555
  0
LINE
  8
0
 10
70.5196
 20
60.3555
 11
71.3396
 21
60.6951
  0
LINE
  8
0
 10
71.3396
 20
60.6951
 11
72.0438
 21
61.2354
  0
LINE
  8
0
 10
72.0438
 20
61.2354
 11
72.5841
 21
61.9396
  0
LINE
  8
0
 10
72.5841
 20
61.9396
 11
72.9238
 21
62.7596
  0
LINE
  8
0
 10
72.9238
 20
62.7596
 11
73.0396
 21
63.6396
  0
LINE
  8
0
 10
73.0396
 20
63.6396
 11
72.9238
 21
64.5196
  0
LINE
  8
0
 10
72.9238
 20
64.5196
 11
72.5841
 21
65.3396
  0
LINE
  8
0
 10
72.5841
 20
65.3396
 11
72.0438
 21
66.0438
  0
LINE
  8
0
 10
72.0438
 20
66.0438
 11
71.3396
 21
66.5841
  0
LINE
  8
0
 10
71.3396
 20
66.5841
 11
70.5196
 21
66.9238
  0
LINE
  8
0
 10
70.5196
 20
66.9238
 11
69.6396
 21
67.0396
  0
LINE
  8
0
 10
69.6396
 20
67.0396
 11
63.6396
 21
67.1729
  0
LINE
  8
0
 10
63.6396
 20
67.1729
 11
57.6396
 21
67.0396
  0
LINE
  8
0
 10
57.6396
 20
67.0396
 11
56.7596
 21
66.9238
  0
LINE
  8
0
 10
56.7596
 20
66.9238
 11
55.9396
 21
66.5841
  0
LINE
  8
0
 10
55.9396
 20
66.5841
 11
55.2354
 21
66.0438
  0
LINE
  8
0
 10
55.2354
 20
66.0438
 11
54.6951
 21
65.3396
  0
LINE
  8
0
 10
54.6951
 20
65.3396
 11
54.3555
 21
64.5196
  0
LINE
  8
0
 10
54.3555
 20
64.5196
 11
54.2396
 21
63.6396
  0
LINE
  8
0
 10
54.2396
 20
63.6396
 11
54.3555
 21
62.7596
  0
LINE
  8
0
 10
54.3555
 20
62.7596
 11
54.6951
 21
61.9396
  0
LINE
  8
0
 10
54.6951
 20
61.9396
 11
54.9023
 21
61.6696
  0
LINE
  8
0
 10
54.9023
 20
61.6696
 11
55.3817
 21
60.9695
  0
LINE
  8
0
 10
55.3817
 20
60.9695
 11
55.7251
 21
59.9318
  0
LINE
  8
0
 10
55.7251
 20
59.9318
 11
55.6752
 21
59.1416
  0
LINE
  8
0
 10
55.6752
 20
59.1416
 11
55.3833
 21
58.4606
  0
LINE
  8
0
 10
55.3833
 20
58.4606
 11
54.7612
 21
57.5896
  0
LINE
  8
0
 10
54.7612
 20
57.5896
 11
18.6404
 21
21.4688
  0
LINE
  8
0
 10
18.6404
 20
21.4688
 11
17.5789
 21
20.6765
  0
LINE
  8
0
 10
17.5789
 20
20.6765
 11
15.0678
 21
19.2449
  0
LINE
  8
0
 10
15.0678
 20
19.2449
 11
13.42
 21
18.4196
  0
LINE
  8
0
 10
13.42
 20
18.4196
 11
13.2783
 21
18.3538
  0
LINE
  8
0
 10
13.2783
 20
18.3538
 11
10.1695
 21
17.146
  0
LINE
  8
0
 10
10.1695
 20
17.146
 11
8.54974
 21
16.7256
  0
LINE
  8
0
 10
8.54974
 20
16.7256
 11
7.11589
 21
16.55
  0
LINE
  8
0
 10
7.11589
 20
16.55
 11
-7.11589
 21
16.55
  0
LINE
  8
0
 10
-7.11589
 20
16.55
 11
-8.54974
 21
16.7256
  0
LINE
  8
0
 10
-8.54974
 20
16.7256
 11
-10.1695
 21
17.146
  0
LINE
  8
0
 10
-10.1695
 20
17.146
 11
-13.2783
 21
18.3538
  0
LINE
  8
0
 10
-13.2783
 20
18.3538
 11
-13.42
 21
18.4196
  0
LINE
  8
0
 10
-13.42
 20
18.4196
 11
-15.0678
 21
19.2449
  0
LINE
  8
0
 10
-15.0678
 20
19.2449
 11
-17.5789
 21
20.6765
  0
LINE
  8
0
 10
-17.5789
 20
20.6765
 11
-18.6404
 21
21.4688
  0
LINE
  8
0
 10
-18.6404
 20
21.4688
 11
-54.7612
 21
57.5896
  0
LINE
  8
0
 10
-54.7612
 20
57.5896
 11
-55.3833
 21
58.4606
  0
LINE
  8
0
 10
-55.3833
 20
58.4606
 11
-55.6752
 21
59.1416
  0
LINE
  8
0
 10
-55.6752
 20
59.1416
 11
-55.7251
 21
59.9318
  0
LINE
  8
0
 10
-55.7251
 20
59.9318
 11
-55.3817
 21
60.9695
  0
LINE
  8
0
 10
-55.3817
 20
60.9695
 11
-54.9023
 21
61.6696
  0
LINE
  8
0
 10
-54.9023
 20
61.6696
 11
-54.6951
 21
61.9396
  0
LINE
  8
0
 10
-54.6951
 20
61.9396
 11
-54.3555
 21
62.7596
  0
LINE
  8
0
 10
-54.3555
 20
62.7596
 11
-54.2396
 21
63.6396
  0
LINE
  8
0
 10
-54.2396
 20
63.6396
 11
-54.3555
 21
64.5196
  0
LINE
  8
0
 10
-54.3555
 20
64.5196
 11
-54.6951
 21
65.3396
  0
LINE
  8
0
 10
-54.6951
 20
65.3396
 11
-55.2354
 21
66.0438
  0
LINE
  8
0
 10
-55.2354
 20
66.0438
 11
-55.9396
 21
66.5841
  0
LINE
  8
0
 10
-55.9396
 20
66.5841
 11
-56.7596
 21
66.9238
  0
LINE
  8
0
 10
-56.7596
 20
66.9238
 11
-57.6396
 21
67.0396
  0
LINE
  8
0
 10
-57.6396
 20
67.0396
 11
-63.6396
 21
67.1729
  0
LINE
  8
0
 10
-63.6396
 20
67.1729
 11
-69.6396
 21
67.0396
  0
LINE
  8
0
 10
-69.6396
 20
67.0396
 11
-70.5196
 21
66.9238
  0
LINE
  8
0
 10
-70.5196
 20
66.9238
 11
-71.3396
 21
66.5841
  0
LINE
  8
0
 10
-71.3396
 20
66.5841
 11
-72.0438
 21
66.0438
  0
LINE
  8
0
 10
-72.0438
 20
66.0438
 11
-72.5841
 21
65.3396
  0
LINE
  8
0
 10
-72.5841
 20
65.3396
 11
-72.9238
 21
64.5196
  0
LINE
  8
0
 10
-72.9238
 20
64.5196
 11
-73.0396
 21
63.6396
  0
LINE
  8
0
 10
-73.0396
 20
63.6396
 11
-72.9238
 21
62.7596
  0
LINE
  8
0
 10
-72.9238
 20
62.7596
 11
-72.5841
 21
61.9396
  0
LINE
  8
0
 10
-72.5841
 20
61.9396
 11
-72.0438
 21
61.2354
  0
LINE
  8
0
 10
-72.0438
 20
61.2354
 11
-71.3396
 21
60.6951
  0
LINE
  8
0
 10
-71.3396
 20
60.6951
 11
-70.5196
 21
60.3555
  0
LINE
  8
0
 10
-70.5196
 20
60.3555
 11
-64.7267
 21
58.916
  0
LINE
  8
0
 10
-64.7267
 20
58.916
 11
-64.3493
 21
58.8664
  0
LINE
  8
0
 10
-64.3493
 20
58.8664
 11
-63.2571
 21
58.6212
  0
LINE
  8
0
 10
-63.2571
 20
58.6212
 11
-61.625
 21
58.0308
  0
LINE
  8
0
 10
-61.625
 20
58.0308
 11
-60.5453
 21
57.4395
  0
LINE
  8
0
 10
-60.5453
 20
57.4395
 11
-59.494
 21
56.6517
  0
LINE
  8
0
 10
-59.494
 20
56.6517
 11
-58.9453
 21
56.1169
  0
LINE
  8
0
 10
-58.9453
 20
56.1169
 11
-24.428
 21
21.5996
  0
LINE
  8
0
 10
-24.428
 20
21.5996
 11
-23.6634
 21
20.6221
  0
LINE
  8
0
 10
-23.6634
 20
20.6221
 11
-23.0053
 21
19.5381
  0
LINE
  8
0
 10
-23.0053
 20
19.5381
 11
-22.4364
 21
18.3105
  0
LINE
  8
0
 10
-22.4364
 20
18.3105
 11
-21.8406
 21
16.5683
  0
LINE
  8
0
 10
-21.8406
 20
16.5683
 11
-21.4749
 21
14.9095
  0
LINE
  8
0
 10
-21.4749
 20
14.9095
 11
-21.3
 21
13.253
  0
LINE
  8
0
 10
-21.3
 20
13.253
 11
-21.3
 21
9.36569
  0
LINE
  8
0
 10
-21.3
 20
9.36569
 11
-21.4888
 21
8.10919
  0
LINE
  8
0
 10
-21.4888
 20
8.10919
 11
-22.2509
 21
5.52324
  0
LINE
  8
0
 10
-22.2509
 20
5.52324
 11
-22.8881
 21
3.77386
  0
LINE
  8
0
 10
-22.8881
 20
3.77386
 11
-22.99
 21
3
  0
LINE
  8
0
 10
-22.99
 20
3
 11
-22.8881
 21
2.22612
  0
LINE
  8
0
 10
-22.8881
 20
2.22612
 11
-22.2509
 21
0.476746
  0
LINE
  8
0
 10
-22.2509
 20
0.476746
 11
-22.1104
 21
0
  0
LINE
  8
0
 10
-22.1104
 20
0
 11
-22.2509
 21
-0.476746
  0
LINE
  8
0
 10
-22.2509
 20
-0.476746
 11
-22.8881
 21
-2.22612
  0
LINE
  8
0
 10
-22.8881
 20
-2.22612
 11
-22.99
 21
-3
  0
LINE
  8
0
 10
-22.99
 20
-3
 11
-22.8881
 21
-3.77386
  0
LINE
  8
0
 10
-22.8881
 20
-3.77386
 11
-22.2509
 21
-5.52324
  0
LINE
  8
0
 10
-22.2509
 20
-5.52324
 11
-21.4888
 21
-8.10919
  0
LINE
  8
0
 10
-21.4888
 20
-8.10919
 11
-21.3
 21
-9.36569
  0
LINE
  8
0
 10
-21.3
 20
-9.36569
 11
-21.3
 21
-13.253
  0
LINE
  8
0
 10
-21.3
 20
-13.253
 11
-21.4749
 21
-14.9095
  0
LINE
  8
0
 10
-21.4749
 20
-14.9095
 11
-21.8406
 21
-16.5683
  0
LINE
  8
0
 10
-21.8406
 20
-16.5683
 11
-22.4364
 21
-18.3105
  0
LINE
  8
0
 10
-22.4364
 20
-18.3105
 11
-23.0053
 21
-19.5381
  0
LINE
  8
0
 10
-23.0053
 20
-19.5381
 11
-23.6634
 21
-20.6221
  0
LINE
  8
0
 10
-23.6634
 20
-20.6221
 11
-24.428
 21
-21.5996
  0
LINE
  8
0
 10
-24.428
 20
-21.5996
 11
-58.9453
 21
-56.1169
  0
LINE
  8
0
 10
-58.9453
 20
-56.1169
 11
-59.494
 21
-56.6517
  0
LINE
  8
0
 10
-59.494
 20
-56.6517
 11
-60.5453
 21
-57.4395
  0
LINE
  8
0
 10
-60.5453
 20
-57.4395
 11
-61.625
 21
-58.0308
  0
LINE
  8
0
 10
-61.625
 20
-58.0308
 11
-63.2571
 21
-58.6212
  0
LINE
  8
0
 10
-63.2571
 20
-58.6212
 11
-64.3493
 21
-58.8664
  0
LINE
  8
0
 10
-64.3493
 20
-58.8664
 11
-64.7267
 21
-58.916
  0
LINE
  8
0
 10
-64.7267
 20
-58.916
 11
-70.5196
 21
-60.3555
  0
LINE
  8
0
 10
-70.5196
 20
-60.3555
 11
-71.3396
 21
-60.6951
  0
LINE
  8
0
 10
-71.3396
 20
-60.6951
 11
-72.0438
 21
-61.2354
  0
LINE
  8
0
 10
-72.0438
 20
-61.2354
 11
-72.5841
 21
-61.9396
  0
LINE
  8
0
 10
-72.5841
 20
-61.9396
 11
-72.9238
 21
-62.7596
  0
LINE
  8
0
 10
-72.9238
 20
-62.7596
 11
-73.0396
 21
-63.6396
  0
LINE
  8
0
 10
-73.0396
 20
-63.6396
 11
-72.9238
 21
-64.5196
  0
LINE
  8
0
 10
-72.9238
 20
-64.5196
 11
-72.5841
 21
-65.3396
  0
LINE
  8
0
 10
-72.5841
 20
-65.3396
 11
-72.0438
 21
-66.0438
  0
LINE
  8
0
 10
-72.0438
 20
-66.0438
 11
-71.3396
 21
-66.5841
  0
LINE
  8
0
 10
-71.3396
 20
-66.5841
 11
-70.5196
 21
-66.9238
  0
LINE
  8
0
 10
-70.5196
 20
-66.9238
 11
-69.6396
 21
-67.0396
  0
LINE
  8
0
 10
-69.6396
 20
-67.0396
 11
-63.6396
 21
-67.1729
  0
LINE
  8
0
 10
-63.6396
 20
-67.1729
 11
-57.6396
 21
-67.0396
  0
LINE
  8
0
 10
-57.6396
 20
-67.0396
 11
-56.7596
 21
-66.9238
  0
LINE
  8
0
 10
-56.7596
 20
-66.9238
 11
-55.9396
 21
-66.5841
  0
LINE
  8
0
 10
-55.9396
 20
-66.5841
 11
-55.2354
 21
-66.0438
  0
LINE
  8
0
 10
-55.2354
 20
-66.0438
 11
-54.6951
 21
-65.3396
  0
LINE
  8
0
 10
-54.6951
 20
-65.3396
 11
-54.3555
 21
-64.5196
  0
LINE
  8
0
 10
-54.3555
 20
-64.5196
 11
-54.2396
 21
-63.6396
  0
LINE
  8
0
 10
-54.2396
 20
-63.6396
 11
-54.3555
 21
-62.7596
  0
LINE
  8
0
 10
-54.3555
 20
-62.7596
 11
-54.6951
 21
-61.9396
  0
LINE
  8
0
 10
-54.6951
 20
-61.9396
 11
-54.9023
 21
-61.6696
  0
LINE
  8
0
 10
-54.9023
 20
-61.6696
 11
-55.3817
 21
-60.9695
  0
LINE
  8
0
 10
-55.3817
 20
-60.9695
 11
-55.7251
 21
-59.9318
  0
LINE
  8
0
 10
-55.7251
 20
-59.9318
 11
-55.6752
 21
-59.1416
  0
LINE
  8
0
 10
-55.6752
 20
-59.1416
 11
-55.3833
 21
-58.4606
  0
LINE
  8
0
 10
-55.3833
 20
-58.4606
 11
-54.7612
 21
-57.5896
  0
LINE
  8
0
 10
-54.7612
 20
-57.5896
 11
-18.6404
 21
-21.4688
  0
LINE
  8
0
 10
-18.6404
 20
-21.4688
 11
-17.5789
 21
-20.6765
  0
LINE
  8
0
 10
-17.5789
 20
-20.6765
 11
-15.0678
 21
-19.2449
  0
LINE
  8
0
 10
-15.0678
 20
-19.2449
 11
-13.42
 21
-18.4196
  0
LINE
  8
0
 10
-13.42
 20
-18.4196
 11
-13.2783
 21
-18.3538
  0
LINE
  8
0
 10
-13.2783
 20
-18.3538
 11
-10.1695
 21
-17.146
  0
LINE
  8
0
 10
-10.1695
 20
-17.146
 11
-8.54974
 21
-16.7256
  0
LINE
  8
0
 10
-8.54974
 20
-16.7256
 11
-7.11589
 21
-16.55
  0
LINE
  8
0
 10
-7.11589
 20
-16.55
 11
7.11589
 21
-16.55
  0
LINE
  8
0
 10
7.11589
 20
-16.55
 11
8.54974
 21
-16.7256
  0
LINE
  8
0
 10
8.54974
 20
-16.7256
 11
10.1695
 21
-17.146
  0
LINE
  8
0
 10
10.1695
 20
-17.146
 11
13.2783
 21
-18.3538
  0
LINE
  8
0
 10
13.2783
 20
-18.3538
 11
13.42
 21
-18.4196
  0
LINE
  8
0
 10
13.42
 20
-18.4196
 11
15.0678
 21
-19.2449
  0
LINE
  8
0
 10
15.0678
 20
-19.2449
 11
17.5789
 21
-20.6765
  0
LINE
  8
0
 10
17.5789
 20
-20.6765
 11
18.6404
 21
-21.4688
  0
LINE
  8
0
 10
18.6404
 20
-21.4688
 11
54.7612
 21
-57.5896
  0
LINE
  8
0
 10
54.7612
 20
-57.5896
 11
55.3833
 21
-58.4606
  0
LINE
  8
0
 10
55.3833
 20
-58.4606
 11
55.6752
 21
-59.1416
  0
LINE
  8
0
 10
55.6752
 20
-59.1416
 11
55.7251
 21
-59.9318
  0
LINE
  8
0
 10
55.7251
 20
-59.9318
 11
55.3817
 21
-60.9695
  0
LINE
  8
0
 10
55.3817
 20
-60.9695
 11
54.9023
 21
-61.6696
  0
LINE
  8
0
 10
54.9023
 20
-61.6696
 11
54.6951
 21
-61.9396
  0
LINE
  8
0
 10
54.6951
 20
-61.9396
 11
54.3555
 21
-62.7596
  0
LINE
  8
0
 10
54.3555
 20
-62.7596
 11
54.2396
 21
-63.6396
  0
LINE
  8
0
 10
54.2396
 20
-63.6396
 11
54.3555
 21
-64.5196
  0
LINE
  8
0
 10
54.3555
 20
-64.5196
 11
54.6951
 21
-65.3396
  0
LINE
  8
0
 10
54.6951
 20
-65.3396
 11
55.2354
 21
-66.0438
  0
LINE
  8
0
 10
55.2354
 20
-66.0438
 11
55.9396
 21
-66.5841
  0
LINE
  8
0
 10
55.9396
 20
-66.5841
 11
56.7596
 21
-66.9238
  0
LINE
  8
0
 10
56.7596
 20
-66.9238
 11
57.6396
 21
-67.0396
  0
LINE
  8
0
 10
57.6396
 20
-67.0396
 11
63.6396
 21
-67.1729
  0
LINE
  8
0
 10
63.6396
 20
-67.1729
 11
69.6396
 21
-67.0396
  0
LINE
  8
0
 10
-64.209
 20
61.5146
 11
-64.7396
 21
61.7343
  0
LINE
  8
0
 10
-64.7396
 20
61.7343
 11
-65.1952
 21
62.084
  0
LINE
  8
0
 10
-65.1952
 20
62.084
 11
-65.5449
 21
62.5396
  0
LINE
  8
0
 10
-65.5449
 20
62.5396
 11
-65.7646
 21
63.0702
  0
LINE
  8
0
 10
-65.7646
 20
63.0702
 11
-65.8396
 21
63.6396
  0
LINE
  8
0
 10
-65.8396
 20
63.6396
 11
-65.7646
 21
64.209
  0
LINE
  8
0
 10
-65.7646
 20
64.209
 11
-65.5449
 21
64.7396
  0
LINE
  8
0
 10
-65.5449
 20
64.7396
 11
-65.1952
 21
65.1952
  0
LINE
  8
0
 10
-65.1952
 20
65.1952
 11
-64.7396
 21
65.5449
  0
LINE
  8
0
 10
-64.7396
 20
65.5449
 11
-64.209
 21
65.7646
  0
LINE
  8
0
 10
-64.209
 20
65.7646
 11
-63.6396
 21
65.8396
  0
LINE
  8
0
 10
-63.6396
 20
65.8396
 11
-63.0702
 21
65.7646
  0
LINE
  8
0
 10
-63.0702
 20
65.7646
 11
-62.5396
 21
65.5449
  0
LINE
  8
0
 10
-62.5396
 20
65.5449
 11
-62.084
 21
65.1952
  0
LINE
  8
0
 10
-62.084
 20
65.1952
 11
-61.7343
 21
64.7396
  0
LINE
  8
0
 10
-61.7343
 20
64.7396
 11
-61.5146
 21
64.209
  0
LINE
  8
0
 10
-61.5146
 20
64.209
 11
-61.4396
 21
63.6396
  0
LINE
  8
0
 10
-61.4396
 20
63.6396
 11
-61.5146
 21
63.0702
  0
LINE
  8
0
 10
-61.5146
 20
63.0702
 11
-61.7343
 21
62.5396
  0
LINE
  8
0
 10
-61.7343
 20
62.5396
 11
-62.084
 21
62.084
  0
LINE
  8
0
 10
-62.084
 20
62.084
 11
-62.5396
 21
61.7343
  0
LINE
  8
0
 10
-62.5396
 20
61.7343
 11
-63.0702
 21
61.5146
  0
LINE
  8
0
 10
-63.0702
 20
61.5146
 11
-63.6396
 21
61.4396
  0
LINE
  8
0
 10
-63.6396
 20
61.4396
 11
-64.209
 21
61.5146
  0
LINE
  8
0
 10
63.0702
 20
61.5146
 11
62.5396
 21
61.7343
  0
LINE
  8
0
 10
62.5396
 20
61.7343
 11
62.084
 21
62.084
  0
LINE
  8
0
 10
62.084
 20
62.084
 11
61.7343
 21
62.5396
  0
LINE
  8
0
 10
61.7343
 20
62.5396
 11
61.5146
 21
63.0702
  0
LINE
  8
0
 10
61.5146
 20
63.0702
 11
61.4396
 21
63.6396
  0
LINE
  8
0
 10
61.4396
 20
63.6396
 11
61.5146
 21
64.209
  0
LINE
  8
0
 10
61.5146
 20
64.209
 11
61.7343
 21
64.7396
  0
LINE
  8
0
 10
61.7343
 20
64.7396
 11
62.084
 21
65.1952
  0
LINE
  8
0
 10
62.084
 20
65.1952
 11
62.5396
 21
65.5449
  0
LINE
  8
0
 10
62.5396
 20
65.5449
 11
63.0702
 21
65.7646
  0
LINE
  8
0
 10
63.0702
 20
65.7646
 11
63.6396
 21
65.8396
  0
LINE
  8
0
 10
63.6396
 20
65.8396
 11
64.209
 21
65.7646
  0
LINE
  8
0
 10
64.209
 20
65.7646
 11
64.7396
 21
65.5449
  0
LINE
  8
0
 10
64.7396
 20
65.5449
 11
65.1952
 21
65.1952
  0
LINE
  8
0
 10
65.1952
 20
65.1952
 11
65.5449
 21
64.7396
  0
LINE
  8
0
 10
65.5449
 20
64.7396
 11
65.7646
 21
64.209
  0
LINE
  8
0
 10
65.7646
 20
64.209
 11
65.8396
 21
63.6396
  0
LINE
  8
0
 10
65.8396
 20
63.6396
 11
65.7646
 21
63.0702
  0
LINE
  8
0
 10
65.7646
 20
63.0702
 11
65.5449
 21
62.5396
  0
LINE
  8
0
 10
65.5449
 20
62.5396
 11
65.1952
 21
62.084
  0
LINE
  8
0
 10
65.1952
 20
62.084
 11
64.7396
 21
61.7343
  0
LINE
  8
0
 10
64.7396
 20
61.7343
 11
64.209
 21
61.5146
  0
LINE
  8
0
 10
64.209
 20
61.5146
 11
63.6396
 21
61.4396
  0
LINE
  8
0
 10
63.6396
 20
61.4396
 11
63.0702
 21
61.5146
  0
LINE
  8
0
 10
-59.1396
 20
62.3396
 11
-59.4761
 21
62.3839
  0
LINE
  8
0
 10
-59.4761
 20
62.3839
 11
-59.7896
 21
62.5138
  0
LINE
  8
0
 10
-59.7896
 20
62.5138
 11
-60.0588
 21
62.7204
  0
LINE
  8
0
 10
-60.0588
 20
62.7204
 11
-60.2654
 21
62.9896
  0
LINE
  8
0
 10
-60.2654
 20
62.9896
 11
-60.3953
 21
63.3031
  0
LINE
  8
0
 10
-60.3953
 20
63.3031
 11
-60.4396
 21
63.6396
  0
LINE
  8
0
 10
-60.4396
 20
63.6396
 11
-60.3953
 21
63.9761
  0
LINE
  8
0
 10
-60.3953
 20
63.9761
 11
-60.2654
 21
64.2896
  0
LINE
  8
0
 10
-60.2654
 20
64.2896
 11
-60.0588
 21
64.5588
  0
LINE
  8
0
 10
-60.0588
 20
64.5588
 11
-59.7896
 21
64.7654
  0
LINE
  8
0
 10
-59.7896
 20
64.7654
 11
-59.4761
 21
64.8953
  0
LINE
  8
0
 10
-59.4761
 20
64.8953
 11
-59.1396
 21
64.9396
  0
LINE
  8
0
 10
-59.1396
 20
64.9396
 11
-57.6396
 21
64.9396
  0
LINE
  8
0
 10
-57.6396
 20
64.9396
 11
-57.3031
 21
64.8953
  0
LINE
  8
0
 10
-57.3031
 20
64.8953
 11
-56.9896
 21
64.7654
  0
LINE
  8
0
 10
-56.9896
 20
64.7654
 11
-56.7204
 21
64.5588
  0
LINE
  8
0
 10
-56.7204
 20
64.5588
 11
-56.5138
 21
64.2896
  0
LINE
  8
0
 10
-56.5138
 20
64.2896
 11
-56.3839
 21
63.9761
  0
LINE
  8
0
 10
-56.3839
 20
63.9761
 11
-56.3396
 21
63.6396
  0
LINE
  8
0
 10
-56.3396
 20
63.6396
 11
-56.3839
 21
63.3031
  0
LINE
  8
0
 10
-56.3839
 20
63.3031
 11
-56.5138
 21
62.9896
  0
LINE
  8
0
 10
-56.5138
 20
62.9896
 11
-56.7204
 21
62.7204
  0
LINE
  8
0
 10
-56.7204
 20
62.7204
 11
-56.9896
 21
62.5138
  0
LINE
  8
0
 10
-56.9896
 20
62.5138
 11
-57.3031
 21
62.3839
  0
LINE
  8
0
 10
-57.3031
 20
62.3839
 11
-57.6396
 21
62.3396
  0
LINE
  8
0
 10
-57.6396
 20
62.3396
 11
-59.1396
 21
62.3396
  0
LINE
  8
0
 10
-69.6396
 20
62.3396
 11
-69.9761
 21
62.3839
  0
LINE
  8
0
 10
-69.9761
 20
62.3839
 11
-70.2896
 21
62.5138
  0
LINE
  8
0
 10
-70.2896
 20
62.5138
 11
-70.5588
 21
62.7204
  0
LINE
  8
0
 10
-70.5588
 20
62.7204
 11
-70.7654
 21
62.9896
  0
LINE
  8
0
 10
-70.7654
 20
62.9896
 11
-70.8953
 21
63.3031
  0
LINE
  8
0
 10
-70.8953
 20
63.3031
 11
-70.9396
 21
63.6396
  0
LINE
  8
0
 10
-70.9396
 20
63.6396
 11
-70.8953
 21
63.9761
  0
LINE
  8
0
 10
-70.8953
 20
63.9761
 11
-70.7654
 21
64.2896
  0
LINE
  8
0
 10
-70.7654
 20
64.2896
 11
-70.5588
 21
64.5588
  0
LINE
  8
0
 10
-70.5588
 20
64.5588
 11
-70.2896
 21
64.7654
  0
LINE
  8
0
 10
-70.2896
 20
64.7654
 11
-69.9761
 21
64.8953
  0
LINE
  8
0
 10
-69.9761
 20
64.8953
 11
-69.6396
 21
64.9396
  0
LINE
  8
0
 10
-69.6396
 20
64.9396
 11
-68.1396
 21
64.9396
  0
LINE
  8
0
 10
-68.1396
 20
64.9396
 11
-67.8031
 21
64.8953
  0
LINE
  8
0
 10
-67.8031
 20
64.8953
 11
-67.4896
 21
64.7654
  0
LINE
  8
0
 10
-67.4896
 20
64.7654
 11
-67.2204
 21
64.5588
  0
LINE
  8
0
 10
-67.2204
 20
64.5588
 11
-67.0138
 21
64.2896
  0
LINE
  8
0
 10
-67.0138
 20
64.2896
 11
-66.8839
 21
63.9761
  0
LINE
  8
0
 10
-66.8839
 20
63.9761
 11
-66.8396
 21
63.6396
  0
LINE
  8
0
 10
-66.8396
 20
63.6396
 11
-66.8839
 21
63.3031
  0
LINE
  8
0
 10
-66.8839
 20
63.3031
 11
-67.0138
 21
62.9896
  0
LINE
  8
0
 10
-67.0138
 20
62.9896
 11
-67.2204
 21
62.7204
  0
LINE
  8
0
 10
-67.2204
 20
62.7204
 11
-67.4896
 21
62.5138
  0
LINE
  8
0
 10
-67.4896
 20
62.5138
 11
-67.8031
 21
62.3839
  0
LINE
  8
0
 10
-67.8031
 20
62.3839
 11
-68.1396
 21
62.3396
  0
LINE
  8
0
 10
-68.1396
 20
62.3396
 11
-69.6396
 21
62.3396
  0
LINE
  8
0
 10
57.6396
 20
62.3396
 11
57.3031
 21
62.3839
  0
LINE
  8
0
 10
57.3031
 20
62.3839
 11
56.9896
 21
62.5138
  0
LINE
  8
0
 10
56.9896
 20
62.5138
 11
56.7204
 21
62.7204
  0
LINE
  8
0
 10
56.7204
 20
62.7204
 11
56.5138
 21
62.9896
  0
LINE
  8
0
 10
56.5138
 20
62.9896
 11
56.3839
 21
63.3031
  0
LINE
  8
0
 10
56.3839
 20
63.3031
 11
56.3396
 21
63.6396
  0
LINE
  8
0
 10
56.3396
 20
63.6396
 11
56.3839
 21
63.9761
  0
LINE
  8
0
 10
56.3839
 20
63.9761
 11
56.5138
 21
64.2896
  0
LINE
  8
0
 10
56.5138
 20
64.2896
 11
56.7204
 21
64.5588
  0
LINE
  8
0
 10
56.7204
 20
64.5588
 11
56.9896
 21
64.7654
  0
LINE
  8
0
 10
56.9896
 20
64.7654
 11
57.3031
 21
64.8953
  0
LINE
  8
0
 10
57.3031
 20
64.8953
 11
57.6396
 21
64.9396
  0
LINE
  8
0
 10
57.6396
 20
64.9396
 11
59.1396
 21
64.9396
  0
LINE
  8
0
 10
59.1396
 20
64.9396
 11
59.4761
 21
64.8953
  0
LINE
  8
0
 10
59.4761
 20
64.8953
 11
59.7896
 21
64.7654
  0
LINE
  8
0
 10
59.7896
 20
64.7654
 11
60.0588
 21
64.5588
  0
LINE
  8
0
 10
60.0588
 20
64.5588
 11
60.2654
 21
64.2896
  0
LINE
  8
0
 10
60.2654
 20
64.2896
 11
60.3953
 21
63.9761
  0
LINE
  8
0
 10
60.3953
 20
63.9761
 11
60.4396
 21
63.6396
  0
LINE
  8
0
 10
60.4396
 20
63.6396
 11
60.3953
 21
63.3031
  0
LINE
  8
0
 10
60.3953
 20
63.3031
 11
60.2654
 21
62.9896
  0
LINE
  8
0
 10
60.2654
 20
62.9896
 11
60.0588
 21
62.7204
  0
LINE
  8
0
 10
60.0588
 20
62.7204
 11
59.7896
 21
62.5138
  0
LINE
  8
0
 10
59.7896
 20
62.5138
 11
59.4761
 21
62.3839
  0
LINE
  8
0
 10
59.4761
 20
62.3839
 11
59.1396
 21
62.3396
  0
LINE
  8
0
 10
59.1396
 20
62.3396
 11
57.6396
 21
62.3396
  0
LINE
  8
0
 10
68.1396
 20
62.3396
 11
67.8031
 21
62.3839
  0
LINE
  8
0
 10
67.8031
 20
62.3839
 11
67.4896
 21
62.5138
  0
LINE
  8
0
 10
67.4896
 20
62.5138
 11
67.2204
 21
62.7204
  0
LINE
  8
0
 10
67.2204
 20
62.7204
 11
67.0138
 21
62.9896
  0
LINE
  8
0
 10
67.0138
 20
62.9896
 11
66.8839
 21
63.3031
  0
LINE
  8
0
 10
66.8839
 20
63.3031
 11
66.8396
 21
63.6396
  0
LINE
  8
0
 10
66.8396
 20
63.6396
 11
66.8839
 21
63.9761
  0
LINE
  8
0
 10
66.8839
 20
63.9761
 11
67.0138
 21
64.2896
  0
LINE
  8
0
 10
67.0138
 20
64.2896
 11
67.2204
 21
64.5588
  0
LINE
  8
0
 10
67.2204
 20
64.5588
 11
67.4896
 21
64.7654
  0
LINE
  8
0
 10
67.4896
 20
64.7654
 11
67.8031
 21
64.8953
  0
LINE
  8
0
 10
67.8031
 20
64.8953
 11
68.1396
 21
64.9396
  0
LINE
  8
0
 10
68.1396
 20
64.9396
 11
69.6396
 21
64.9396
  0
LINE
  8
0
 10
69.6396
 20
64.9396
 11
69.9761
 21
64.8953
  0
LINE
  8
0
 10
69.9761
 20
64.8953
 11
70.2896
 21
64.7654
  0
LINE
  8
0
 10
70.2896
 20
64.7654
 11
70.5588
 21
64.5588
  0
LINE
  8
0
 10
70.5588
 20
64.5588
 11
70.7654
 21
64.2896
  0
LINE
  8
0
 10
70.7654
 20
64.2896
 11
70.8953
 21
63.9761
  0
LINE
  8
0
 10
70.8953
 20
63.9761
 11
70.9396
 21
63.6396
  0
LINE
  8
0
 10
70.9396
 20
63.6396
 11
70.8953
 21
63.3031
  0
LINE
  8
0
 10
70.8953
 20
63.3031
 11
70.7654
 21
62.9896
  0
LINE
  8
0
 10
70.7654
 20
62.9896
 11
70.5588
 21
62.7204
  0
LINE
  8
0
 10
70.5588
 20
62.7204
 11
70.2896
 21
62.5138
  0
LINE
  8
0
 10
70.2896
 20
62.5138
 11
69.9761
 21
62.3839
  0
LINE
  8
0
 10
69.9761
 20
62.3839
 11
69.6396
 21
62.3396
  0
LINE
  8
0
 10
69.6396
 20
62.3396
 11
68.1396
 21
62.3396
  0
LINE
  8
0
 10
14.8074
 20
13.5983
 11
14.395
 21
13.7691
  0
LINE
  8
0
 10
14.395
 20
13.7691
 11
14.0408
 21
14.0408
  0
LINE
  8
0
 10
14.0408
 20
14.0408
 11
13.7691
 21
14.395
  0
LINE
  8
0
 10
13.7691
 20
14.395
 11
13.5983
 21
14.8074
  0
LINE
  8
0
 10
13.5983
 20
14.8074
 11
13.54
 21
15.25
  0
LINE
  8
0
 10
13.54
 20
15.25
 11
13.5983
 21
15.6926
  0
LINE
  8
0
 10
13.5983
 20
15.6926
 11
13.7691
 21
16.105
  0
LINE
  8
0
 10
13.7691
 20
16.105
 11
14.0408
 21
16.4592
  0
LINE
  8
0
 10
14.0408
 20
16.4592
 11
14.395
 21
16.7309
  0
LINE
  8
0
 10
14.395
 20
16.7309
 11
14.8074
 21
16.9017
  0
LINE
  8
0
 10
14.8074
 20
16.9017
 11
15.25
 21
16.96
  0
LINE
  8
0
 10
15.25
 20
16.96
 11
15.6926
 21
16.9017
  0
LINE
  8
0
 10
15.6926
 20
16.9017
 11
16.105
 21
16.7309
  0
LINE
  8
0
 10
16.105
 20
16.7309
 11
16.4592
 21
16.4592
  0
LINE
  8
0
 10
16.4592
 20
16.4592
 11
16.7309
 21
16.105
  0
LINE
  8
0
 10
16.7309
 20
16.105
 11
16.9017
 21
15.6926
  0
LINE
  8
0
 10
16.9017
 20
15.6926
 11
16.96
 21
15.25
  0
LINE
  8
0
 10
16.96
 20
15.25
 11
16.9017
 21
14.8074
  0
LINE
  8
0
 10
16.9017
 20
14.8074
 11
16.7309
 21
14.395
  0
LINE
  8
0
 10
16.7309
 20
14.395
 11
16.4592
 21
14.0408
  0
LINE
  8
0
 10
16.4592
 20
14.0408
 11
16.105
 21
13.7691
  0
LINE
  8
0
 10
16.105
 20
13.7691
 11
15.6926
 21
13.5983
  0
LINE
  8
0
 10
15.6926
 20
13.5983
 11
15.25
 21
13.54
  0
LINE
  8
0
 10
15.25
 20
13.54
 11
14.8074
 21
13.5983
  0
LINE
  8
0
 10
-15.6926
 20
13.5983
 11
-16.105
 21
13.7691
  0
LINE
  8
0
 10
-16.105
 20
13.7691
 11
-16.4592
 21
14.0408
  0
LINE
  8
0
 10
-16.4592
 20
14.0408
 11
-16.7309
 21
14.395
  0
LINE
  8
0
 10
-16.7309
 20
14.395
 11
-16.9017
 21
14.8074
  0
LINE
  8
0
 10
-16.9017
 20
14.8074
 11
-16.96
 21
15.25
  0
LINE
  8
0
 10
-16.96
 20
15.25
 11
-16.9017
 21
15.6926
  0
LINE
  8
0
 10
-16.9017
 20
15.6926
 11
-16.7309
 21
16.105
  0
LINE
  8
0
 10
-16.7309
 20
16.105
 11
-16.4592
 21
16.4592
  0
LINE
  8
0
 10
-16.4592
 20
16.4592
 11
-16.105
 21
16.7309
  0
LINE
  8
0
 10
-16.105
 20
16.7309
 11
-15.6926
 21
16.9017
  0
LINE
  8
0
 10
-15.6926
 20
16.9017
 11
-15.25
 21
16.96
  0
LINE
  8
0
 10
-15.25
 20
16.96
 11
-14.8074
 21
16.9017
  0
LINE
  8
0
 10
-14.8074
 20
16.9017
 11
-14.395
 21
16.7309
  0
LINE
  8
0
 10
-14.395
 20
16.7309
 11
-14.0408
 21
16.4592
  0
LINE
  8
0
 10
-14.0408
 20
16.4592
 11
-13.7691
 21
16.105
  0
LINE
  8
0
 10
-13.7691
 20
16.105
 11
-13.5983
 21
15.6926
  0
LINE
  8
0
 10
-13.5983
 20
15.6926
 11
-13.54
 21
15.25
  0
LINE
  8
0
 10
-13.54
 20
15.25
 11
-13.5983
 21
14.8074
  0
LINE
  8
0
 10
-13.5983
 20
14.8074
 11
-13.7691
 21
14.395
  0
LINE
  8
0
 10
-13.7691
 20
14.395
 11
-14.0408
 21
14.0408
  0
LINE
  8
0
 10
-14.0408
 20
14.0408
 11
-14.395
 21
13.7691
  0
LINE
  8
0
 10
-14.395
 20
13.7691
 11
-14.8074
 21
13.5983
  0
LINE
  8
0
 10
-14.8074
 20
13.5983
 11
-15.25
 21
13.54
  0
LINE
  8
0
 10
-15.25
 20
13.54
 11
-15.6926
 21
13.5983
  0
LINE
  8
0
 10
-13.3365
 20
11.7443
 11
-13.65
 21
11.8742
  0
LINE
  8
0
 10
-13.65
 20
11.8742
 11
-13.9192
 21
12.0807
  0
LINE
  8
0
 10
-13.9192
 20
12.0807
 11
-14.1258
 21
12.35
  0
LINE
  8
0
 10
-14.1258
 20
12.35
 11
-14.2557
 21
12.6635
  0
LINE
  8
0
 10
-14.2557
 20
12.6635
 11
-14.3
 21
13
  0
LINE
  8
0
 10
-14.3
 20
13
 11
-14.2557
 21
13.3365
  0
LINE
  8
0
 10
-14.2557
 20
13.3365
 11
-14.1258
 21
13.65
  0
LINE
  8
0
 10
-14.1258
 20
13.65
 11
-13.9192
 21
13.9192
  0
LINE
  8
0
 10
-13.9192
 20
13.9192
 11
-13.65
 21
14.1258
  0
LINE
  8
0
 10
-13.65
 20
14.1258
 11
-13.3365
 21
14.2557
  0
LINE
  8
0
 10
-13.3365
 20
14.2557
 11
-13
 21
14.3
  0
LINE
  8
0
 10
-13
 20
14.3
 11
-12.6635
 21
14.2557
  0
LINE
  8
0
 10
-12.6635
 20
14.2557
 11
-12.35
 21
14.1258
  0
LINE
  8
0
 10
-12.35
 20
14.1258
 11
-12.0807
 21
13.9192
  0
LINE
  8
0
 10
-12.0807
 20
13.9192
 11
-11.8742
 21
13.65
  0
LINE
  8
0
 10
-11.8742
 20
13.65
 11
-11.7443
 21
13.3365
  0
LINE
  8
0
 10
-11.7443
 20
13.3365
 11
-11.7
 21
13
  0
LINE
  8
0
 10
-11.7
 20
13
 11
-11.7443
 21
12.6635
  0
LINE
  8
0
 10
-11.7443
 20
12.6635
 11
-11.8742
 21
12.35
  0
LINE
  8
0
 10
-11.8742
 20
12.35
 11
-12.0807
 21
12.0807
  0
LINE
  8
0
 10
-12.0807
 20
12.0807
 11
-12.35
 21
11.8742
  0
LINE
  8
0
 10
-12.35
 20
11.8742
 11
-12.6635
 21
11.7443
  0
LINE
  8
0
 10
-12.6635
 20
11.7443
 11
-13
 21
11.7
  0
LINE
  8
0
 10
-13
 20
11.7
 11
-13.3365
 21
11.7443
  0
LINE
  8
0
 10
12.6635
 20
11.7443
 11
12.35
 21
11.8742
  0
LINE
  8
0
 10
12.35
 20
11.8742
 11
12.0807
 21
12.0807
  0
LINE
  8
0
 10
12.0807
 20
12.0807
 11
11.8742
 21
12.35
  0
LINE
  8
0
 10
11.8742
 20
12.35
 11
11.7443
 21
12.6635
  0
LINE
  8
0
 10
11.7443
 20
12.6635
 11
11.7
 21
13
  0
LINE
  8
0
 10
11.7
 20
13
 11
11.7443
 21
13.3365
  0
LINE
  8
0
 10
11.7443
 20
13.3365
 11
11.8742
 21
13.65
  0
LINE
  8
0
 10
11.8742
 20
13.65
 11
12.0807
 21
13.9192
  0
LINE
  8
0
 10
12.0807
 20
13.9192
 11
12.35
 21
14.1258
  0
LINE
  8
0
 10
12.35
 20
14.1258
 11
12.6635
 21
14.2557
  0
LINE
  8
0
 10
12.6635
 20
14.2557
 11
13
 21
14.3
  0
LINE
  8
0
 10
13
 20
14.3
 11
13.3365
 21
14.2557
  0
LINE
  8
0
 10
13.3365
 20
14.2557
 11
13.65
 21
14.1258
  0
LINE
  8
0
 10
13.65
 20
14.1258
 11
13.9192
 21
13.9192
  0
LINE
  8
0
 10
13.9192
 20
13.9192
 11
14.1258
 21
13.65
  0
LINE
  8
0
 10
14.1258
 20
13.65
 11
14.2557
 21
13.3365
  0
LINE
  8
0
 10
14.2557
 20
13.3365
 11
14.3
 21
13
  0
LINE
  8
0
 10
14.3
 20
13
 11
14.2557
 21
12.6635
  0
LINE
  8
0
 10
14.2557
 20
12.6635
 11
14.1258
 21
12.35
  0
LINE
  8
0
 10
14.1258
 20
12.35
 11
13.9192
 21
12.0807
  0
LINE
  8
0
 10
13.9192
 20
12.0807
 11
13.65
 21
11.8742
  0
LINE
  8
0
 10
13.65
 20
11.8742
 11
13.3365
 21
11.7443
  0
LINE
  8
0
 10
13.3365
 20
11.7443
 11
13
 21
11.7
  0
LINE
  8
0
 10
13
 20
11.7
 11
12.6635
 21
11.7443
  0
LINE
  8
0
 10
-0.871033
 20
3.45612
 11
-1.74208
 21
3.82942
  0
LINE
  8
0
 10
-1.74208
 20
3.82942
 11
-2.61311
 21
4.4516
  0
LINE
  8
0
 10
-2.61311
 20
4.4516
 11
-4.87546
 21
6.71394
  0
LINE
  8
0
 10
-4.87546
 20
6.71394
 11
-5.72552
 21
7.85539
  0
LINE
  8
0
 10
-5.72552
 20
7.85539
 11
-7.74832
 21
11.3
  0
LINE
  8
0
 10
-7.74832
 20
11.3
 11
-8.03334
 21
11.8671
  0
LINE
  8
0
 10
-8.03334
 20
11.8671
 11
-8.20006
 21
12.6071
  0
LINE
  8
0
 10
-8.20006
 20
12.6071
 11
-8.07472
 21
13.1443
  0
LINE
  8
0
 10
-8.07472
 20
13.1443
 11
-7.67987
 21
13.54
  0
LINE
  8
0
 10
-7.67987
 20
13.54
 11
-7.0948
 21
13.774
  0
LINE
  8
0
 10
-7.0948
 20
13.774
 11
-6.03894
 21
13.95
  0
LINE
  8
0
 10
-6.03894
 20
13.95
 11
6.03894
 21
13.95
  0
LINE
  8
0
 10
6.03894
 20
13.95
 11
7.0948
 21
13.774
  0
LINE
  8
0
 10
7.0948
 20
13.774
 11
7.67987
 21
13.54
  0
LINE
  8
0
 10
7.67987
 20
13.54
 11
8.07472
 21
13.1443
  0
LINE
  8
0
 10
8.07472
 20
13.1443
 11
8.20006
 21
12.6071
  0
LINE
  8
0
 10
8.20006
 20
12.6071
 11
8.03334
 21
11.8671
  0
LINE
  8
0
 10
8.03334
 20
11.8671
 11
7.74832
 21
11.3
  0
LINE
  8
0
 10
7.74832
 20
11.3
 11
5.72552
 21
7.85539
  0
LINE
  8
0
 10
5.72552
 20
7.85539
 11
4.87546
 21
6.71394
  0
LINE
  8
0
 10
4.87546
 20
6.71394
 11
2.61311
 21
4.4516
  0
LINE
  8
0
 10
2.61311
 20
4.4516
 11
1.74208
 21
3.82942
  0
LINE
  8
0
 10
1.74208
 20
3.82942
 11
0.871033
 21
3.45612
  0
LINE
  8
0
 10
0.871033
 20
3.45612
 11
0
 21
3.33168
  0
LINE
  8
0
 10
0
 20
3.33168
 11
-0.871033
 21
3.45612
  0
LINE
  8
0
 10
-11.3
 20
10
 11
-11.2557
 21
10.3365
  0
LINE
  8
0
 10
-11.2557
 20
10.3365
 11
-11.1258
 21
10.65
  0
LINE
  8
0
 10
-11.1258
 20
10.65
 11
-10.9192
 21
10.9192
  0
LINE
  8
0
 10
-10.9192
 20
10.9192
 11
-10.65
 21
11.1258
  0
LINE
  8
0
 10
-10.65
 20
11.1258
 11
-10.3365
 21
11.2557
  0
LINE
  8
0
 10
-10.3365
 20
11.2557
 11
-10
 21
11.3
  0
LINE
  8
0
 10
-10
 20
11.3
 11
-9.66353
 21
11.2557
  0
LINE
  8
0
 10
-9.66353
 20
11.2557
 11
-9.34999
 21
11.1258
  0
LINE
  8
0
 10
-9.34999
 20
11.1258
 11
-9.08075
 21
10.9192
  0
LINE
  8
0
 10
-9.08075
 20
10.9192
 11
-8.87416
 21
10.65
  0
LINE
  8
0
 10
-8.87416
 20
10.65
 11
-8.74429
 21
10.3365
  0
LINE
  8
0
 10
-8.74429
 20
10.3365
 11
-8.7
 21
10
  0
LINE
  8
0
 10
-8.7
 20
10
 11
-8.74429
 21
9.66353
  0
LINE
  8
0
 10
-8.74429
 20
9.66353
 11
-8.87416
 21
9.34999
  0
LINE
  8
0
 10
-8.87416
 20
9.34999
 11
-9.08075
 21
9.08075
  0
LINE
  8
0
 10
-9.08075
 20
9.08075
 11
-9.34999
 21
8.87416
  0
LINE
  8
0
 10
-9.34999
 20
8.87416
 11
-9.66353
 21
8.74429
  0
LINE
  8
0
 10
-9.66353
 20
8.74429
 11
-10
 21
8.7
  0
LINE
  8
0
 10
-10
 20
8.7
 11
-10.3365
 21
8.74429
  0
LINE
  8
0
 10
-10.3365
 20
8.74429
 11
-10.65
 21
8.87416
  0
LINE
  8
0
 10
-10.65
 20
8.87416
 11
-10.9192
 21
9.08075
  0
LINE
  8
0
 10
-10.9192
 20
9.08075
 11
-11.1258
 21
9.34999
  0
LINE
  8
0
 10
-11.1258
 20
9.34999
 11
-11.2557
 21
9.66353
  0
LINE
  8
0
 10
-11.2557
 20
9.66353
 11
-11.3
 21
10
  0
LINE
  8
0
 10
17.5575
 20
-12.2304
 11
16.7431
 21
-11.8278
  0
LINE
  8
0
 10
16.7431
 20
-11.8278
 11
11.3
 21
-7.74832
  0
LINE
  8
0
 10
11.3
 20
-7.74832
 11
7.85539
 21
-5.72552
  0
LINE
  8
0
 10
7.85539
 20
-5.72552
 11
6.71394
 21
-4.87546
  0
LINE
  8
0
 10
6.71394
 20
-4.87546
 11
4.4516
 21
-2.61311
  0
LINE
  8
0
 10
4.4516
 20
-2.61311
 11
3.82942
 21
-1.74208
  0
LINE
  8
0
 10
3.82942
 20
-1.74208
 11
3.45612
 21
-0.871033
  0
LINE
  8
0
 10
3.45612
 20
-0.871033
 11
3.33168
 21
0
  0
LINE
  8
0
 10
3.33168
 20
0
 11
3.45612
 21
0.871033
  0
LINE
  8
0
 10
3.45612
 20
0.871033
 11
3.82942
 21
1.74208
  0
LINE
  8
0
 10
3.82942
 20
1.74208
 11
4.4516
 21
2.61311
  0
LINE
  8
0
 10
4.4516
 20
2.61311
 11
6.71394
 21
4.87546
  0
LINE
  8
0
 10
6.71394
 20
4.87546
 11
7.85539
 21
5.72552
  0
LINE
  8
0
 10
7.85539
 20
5.72552
 11
11.3
 21
7.74832
  0
LINE
  8
0
 10
11.3
 20
7.74832
 11
16.7431
 21
11.8278
  0
LINE
  8
0
 10
16.7431
 20
11.8278
 11
17.5575
 21
12.2304
  0
LINE
  8
0
 10
17.5575
 20
12.2304
 11
18.0171
 21
12.2379
  0
LINE
  8
0
 10
18.0171
 20
12.2379
 11
18.3185
 21
11.971
  0
LINE
  8
0
 10
18.3185
 20
11.971
 11
18.524
 21
11.4572
  0
LINE
  8
0
 10
18.524
 20
11.4572
 11
18.7
 21
10.4013
  0
LINE
  8
0
 10
18.7
 20
10.4013
 11
18.7
 21
9.36569
  0
LINE
  8
0
 10
18.7
 20
9.36569
 11
18.5112
 21
8.10919
  0
LINE
  8
0
 10
18.5112
 20
8.10919
 11
17.7491
 21
5.52322
  0
LINE
  8
0
 10
17.7491
 20
5.52322
 11
17.1119
 21
3.77386
  0
LINE
  8
0
 10
17.1119
 20
3.77386
 11
17.01
 21
3
  0
LINE
  8
0
 10
17.01
 20
3
 11
17.1119
 21
2.22612
  0
LINE
  8
0
 10
17.1119
 20
2.22612
 11
17.7491
 21
0.476761
  0
LINE
  8
0
 10
17.7491
 20
0.476761
 11
17.8896
 21
0
  0
LINE
  8
0
 10
17.8896
 20
0
 11
17.7491
 21
-0.476761
  0
LINE
  8
0
 10
17.7491
 20
-0.476761
 11
17.1119
 21
-2.22612
  0
LINE
  8
0
 10
17.1119
 20
-2.22612
 11
17.01
 21
-3
  0
LINE
  8
0
 10
17.01
 20
-3
 11
17.1119
 21
-3.77386
  0
LINE
  8
0
 10
17.1119
 20
-3.77386
 11
17.7491
 21
-5.52322
  0
LINE
  8
0
 10
17.7491
 20
-5.52322
 11
18.5112
 21
-8.10919
  0
LINE
  8
0
 10
18.5112
 20
-8.10919
 11
18.7
 21
-9.36569
  0
LINE
  8
0
 10
18.7
 20
-9.36569
 11
18.7
 21
-10.4013
  0
LINE
  8
0
 10
18.7
 20
-10.4013
 11
18.524
 21
-11.4572
  0
LINE
  8
0
 10
18.524
 20
-11.4572
 11
18.3185
 21
-11.971
  0
LINE
  8
0
 10
18.3185
 20
-11.971
 11
18.0171
 21
-12.2379
  0
LINE
  8
0
 10
18.0171
 20
-12.2379
 11
17.5575
 21
-12.2304
  0
LINE
  8
0
 10
9.66353
 20
8.74429
 11
9.34999
 21
8.87416
  0
LINE
  8
0
 10
9.34999
 20
8.87416
 11
9.08075
 21
9.08075
  0
LINE
  8
0
 10
9.08075
 20
9.08075
 11
8.87416
 21
9.34999
  0
LINE
  8
0
 10
8.87416
 20
9.34999
 11
8.74429
 21
9.66353
  0
LINE
  8
0
 10
8.74429
 20
9.66353
 11
8.7
 21
10
  0
LINE
  8
0
 10
8.7
 20
10
 11
8.74429
 21
10.3365
  0
LINE
  8
0
 10
8.74429
 20
10.3365
 11
8.87416
 21
10.65
  0
LINE
  8
0
 10
8.87416
 20
10.65
 11
9.08075
 21
10.9192
  0
LINE
  8
0
 10
9.08075
 20
10.9192
 11
9.34999
 21
11.1258
  0
LINE
  8
0
 10
9.34999
 20
11.1258
 11
9.66353
 21
11.2557
  0
LINE
  8
0
 10
9.66353
 20
11.2557
 11
10
 21
11.3
  0
LINE
  8
0
 10
10
 20
11.3
 11
10.3365
 21
11.2557
  0
LINE
  8
0
 10
10.3365
 20
11.2557
 11
10.65
 21
11.1258
  0
LINE
  8
0
 10
10.65
 20
11.1258
 11
10.9192
 21
10.9192
  0
LINE
  8
0
 10
10.9192
 20
10.9192
 11
11.1258
 21
10.65
  0
LINE
  8
0
 10
11.1258
 20
10.65
 11
11.2557
 21
10.3365
  0
LINE
  8
0
 10
11.2557
 20
10.3365
 11
11.3
 21
10
  0
LINE
  8
0
 10
11.3
 20
10
 11
11.2557
 21
9.66353
  0
LINE
  8
0
 10
11.2557
 20
9.66353
 11
11.1258
 21
9.34999
  0
LINE
  8
0
 10
11.1258
 20
9.34999
 11
10.9192
 21
9.08075
  0
LINE
  8
0
 10
10.9192
 20
9.08075
 11
10.65
 21
8.87416
  0
LINE
  8
0
 10
10.65
 20
8.87416
 11
10.3365
 21
8.74429
  0
LINE
  8
0
 10
10.3365
 20
8.74429
 11
10
 21
8.7
  0
LINE
  8
0
 10
10
 20
8.7
 11
9.66353
 21
8.74429
  0
LINE
  8
0
 10
-20.3365
 20
1.74429
 11
-20.65
 21
1.87416
  0
LINE
  8
0
 10
-20.65
 20
1.87416
 11
-20.9192
 21
2.08075
  0
LINE
  8
0
 10
-20.9192
 20
2.08075
 11
-21.1258
 21
2.34999
  0
LINE
  8
0
 10
-21.1258
 20
2.34999
 11
-21.2557
 21
2.66353
  0
LINE
  8
0
 10
-21.2557
 20
2.66353
 11
-21.3
 21
3
  0
LINE
  8
0
 10
-21.3
 20
3
 11
-21.2557
 21
3.33646
  0
LINE
  8
0
 10
-21.2557
 20
3.33646
 11
-21.1258
 21
3.64999
  0
LINE
  8
0
 10
-21.1258
 20
3.64999
 11
-20.9192
 21
3.91924
  0
LINE
  8
0
 10
-20.9192
 20
3.91924
 11
-20.65
 21
4.12582
  0
LINE
  8
0
 10
-20.65
 20
4.12582
 11
-20.3365
 21
4.25569
  0
LINE
  8
0
 10
-20.3365
 20
4.25569
 11
-20
 21
4.29999
  0
LINE
  8
0
 10
-20
 20
4.29999
 11
-19.6635
 21
4.25569
  0
LINE
  8
0
 10
-19.6635
 20
4.25569
 11
-19.35
 21
4.12582
  0
LINE
  8
0
 10
-19.35
 20
4.12582
 11
-19.0807
 21
3.91924
  0
LINE
  8
0
 10
-19.0807
 20
3.91924
 11
-18.8742
 21
3.64999
  0
LINE
  8
0
 10
-18.8742
 20
3.64999
 11
-18.7443
 21
3.33646
  0
LINE
  8
0
 10
-18.7443
 20
3.33646
 11
-18.7
 21
3
  0
LINE
  8
0
 10
-18.7
 20
3
 11
-18.7443
 21
2.66353
  0
LINE
  8
0
 10
-18.7443
 20
2.66353
 11
-18.8742
 21
2.34999
  0
LINE
  8
0
 10
-18.8742
 20
2.34999
 11
-19.0807
 21
2.08075
  0
LINE
  8
0
 10
-19.0807
 20
2.08075
 11
-19.35
 21
1.87416
  0
LINE
  8
0
 10
-19.35
 20
1.87416
 11
-19.6635
 21
1.74429
  0
LINE
  8
0
 10
-19.6635
 20
1.74429
 11
-20
 21
1.7
  0
LINE
  8
0
 10
-20
 20
1.7
 11
-20.3365
 21
1.74429
  0
LINE
  8
0
 10
19.6635
 20
1.74429
 11
19.35
 21
1.87416
  0
LINE
  8
0
 10
19.35
 20
1.87416
 11
19.0807
 21
2.08075
  0
LINE
  8
0
 10
19.0807
 20
2.08075
 11
18.8742
 21
2.34999
  0
LINE
  8
0
 10
18.8742
 20
2.34999
 11
18.7443
 21
2.66353
  0
LINE
  8
0
 10
18.7443
 20
2.66353
 11
18.7
 21
3
  0
LINE
  8
0
 10
18.7
 20
3
 11
18.7443
 21
3.33646
  0
LINE
  8
0
 10
18.7443
 20
3.33646
 11
18.8742
 21
3.64999
  0
LINE
  8
0
 10
18.8742
 20
3.64999
 11
19.0807
 21
3.91924
  0
LINE
  8
0
 10
19.0807
 20
3.91924
 11
19.35
 21
4.12582
  0
LINE
  8
0
 10
19.35
 20
4.12582
 11
19.6635
 21
4.25569
  0
LINE
  8
0
 10
19.6635
 20
4.25569
 11
20
 21
4.29999
  0
LINE
  8
0
 10
20
 20
4.29999
 11
20.3365
 21
4.25569
  0
LINE
  8
0
 10
20.3365
 20
4.25569
 11
20.65
 21
4.12582
  0
LINE
  8
0
 10
20.65
 20
4.12582
 11
20.9192
 21
3.91924
  0
LINE
  8
0
 10
20.9192
 20
3.91924
 11
21.1258
 21
3.64999
  0
LINE
  8
0
 10
21.1258
 20
3.64999
 11
21.2557
 21
3.33646
  0
LINE
  8
0
 10
21.2557
 20
3.33646
 11
21.3
 21
3
  0
LINE
  8
0
 10
21.3
 20
3
 11
21.2557
 21
2.66353
  0
LINE
  8
0
 10
21.2557
 20
2.66353
 11
21.1258
 21
2.34999
  0
LINE
  8
0
 10
21.1258
 20
2.34999
 11
20.9192
 21
2.08075
  0
LINE
  8
0
 10
20.9192
 20
2.08075
 11
20.65
 21
1.87416
  0
LINE
  8
0
 10
20.65
 20
1.87416
 11
20.3365
 21
1.74429
  0
LINE
  8
0
 10
20.3365
 20
1.74429
 11
20
 21
1.7
  0
LINE
  8
0
 10
20
 20
1.7
 11
19.6635
 21
1.74429
  0
LINE
  8
0
 10
-0.336456
 20
-1.25569
 11
-0.649994
 21
-1.12582
  0
LINE
  8
0
 10
-0.649994
 20
-1.12582
 11
-0.919235
 21
-0.919235
  0
LINE
  8
0
 10
-0.919235
 20
-0.919235
 11
-1.12582
 21
-0.649994
  0
LINE
  8
0
 10
-1.12582
 20
-0.649994
 11
-1.25569
 21
-0.336456
  0
LINE
  8
0
 10
-1.25569
 20
-0.336456
 11
-1.29999
 21
0
  0
LINE
  8
0
 10
-1.29999
 20
0
 11
-1.25569
 21
0.336456
  0
LINE
  8
0
 10
-1.25569
 20
0.336456
 11
-1.12582
 21
0.649994
  0
LINE
  8
0
 10
-1.12582
 20
0.649994
 11
-0.919235
 21
0.919235
  0
LINE
  8
0
 10
-0.919235
 20
0.919235
 11
-0.649994
 21
1.12582
  0
LINE
  8
0
 10
-0.649994
 20
1.12582
 11
-0.336456
 21
1.25569
  0
LINE
  8
0
 10
-0.336456
 20
1.25569
 11
0
 21
1.29999
  0
LINE
  8
0
 10
0
 20
1.29999
 11
0.336456
 21
1.25569
  0
LINE
  8
0
 10
0.336456
 20
1.25569
 11
0.649994
 21
1.12582
  0
LINE
  8
0
 10
0.649994
 20
1.12582
 11
0.919235
 21
0.919235
  0
LINE
  8
0
 10
0.919235
 20
0.919235
 11
1.12582
 21
0.649994
  0
LINE
  8
0
 10
1.12582
 20
0.649994
 11
1.25569
 21
0.336456
  0
LINE
  8
0
 10
1.25569
 20
0.336456
 11
1.29999
 21
0
  0
LINE
  8
0
 10
1.29999
 20
0
 11
1.25569
 21
-0.336456
  0
LINE
  8
0
 10
1.25569
 20
-0.336456
 11
1.12582
 21
-0.649994
  0
LINE
  8
0
 10
1.12582
 20
-0.649994
 11
0.919235
 21
-0.919235
  0
LINE
  8
0
 10
0.919235
 20
-0.919235
 11
0.649994
 21
-1.12582
  0
LINE
  8
0
 10
0.649994
 20
-1.12582
 11
0.336456
 21
-1.25569
  0
LINE
  8
0
 10
0.336456
 20
-1.25569
 11
0
 21
-1.29999
  0
LINE
  8
0
 10
0
 20
-1.29999
 11
-0.336456
 21
-1.25569
  0
LINE
  8
0
 10
19.6635
 20
-4.25569
 11
19.35
 21
-4.12582
  0
LINE
  8
0
 10
19.35
 20
-4.12582
 11
19.0807
 21
-3.91924
  0
LINE
  8
0
 10
19.0807
 20
-3.91924
 11
18.8742
 21
-3.64999
  0
LINE
  8
0
 10
18.8742
 20
-3.64999
 11
18.7443
 21
-3.33646
  0
LINE
  8
0
 10
18.7443
 20
-3.33646
 11
18.7
 21
-3
  0
LINE
  8
0
 10
18.7
 20
-3
 11
18.7443
 21
-2.66353
  0
LINE
  8
0
 10
18.7443
 20
-2.66353
 11
18.8742
 21
-2.34999
  0
LINE
  8
0
 10
18.8742
 20
-2.34999
 11
19.0807
 21
-2.08075
  0
LINE
  8
0
 10
19.0807
 20
-2.08075
 11
19.35
 21
-1.87416
  0
LINE
  8
0
 10
19.35
 20
-1.87416
 11
19.6635
 21
-1.74429
  0
LINE
  8
0
 10
19.6635
 20
-1.74429
 11
20
 21
-1.7
  0
LINE
  8
0
 10
20
 20
-1.7
 11
20.3365
 21
-1.74429
  0
LINE
  8
0
 10
20.3365
 20
-1.74429
 11
20.65
 21
-1.87416
  0
LINE
  8
0
 10
20.65
 20
-1.87416
 11
20.9192
 21
-2.08075
  0
LINE
  8
0
 10
20.9192
 20
-2.08075
 11
21.1258
 21
-2.34999
  0
LINE
  8
0
 10
21.1258
 20
-2.34999
 11
21.2557
 21
-2.66353
  0
LINE
  8
0
 10
21.2557
 20
-2.66353
 11
21.3
 21
-3
  0
LINE
  8
0
 10
21.3
 20
-3
 11
21.2557
 21
-3.33646
  0
LINE
  8
0
 10
21.2557
 20
-3.33646
 11
21.1258
 21
-3.64999
  0
LINE
  8
0
 10
21.1258
 20
-3.64999
 11
20.9192
 21
-3.91924
  0
LINE
  8
0
 10
20.9192
 20
-3.91924
 11
20.65
 21
-4.12582
  0
LINE
  8
0
 10
20.65
 20
-4.12582
 11
20.3365
 21
-4.25569
  0
LINE
  8
0
 10
20.3365
 20
-4.25569
 11
20
 21
-4.29999
  0
LINE
  8
0
 10
20
 20
-4.29999
 11
19.6635
 21
-4.25569
  0
LINE
  8
0
 10
-20.3365
 20
-4.25569
 11
-20.65
 21
-4.12582
  0
LINE
  8
0
 10
-20.65
 20
-4.12582
 11
-20.9192
 21
-3.91924
  0
LINE
  8
0
 10
-20.9192
 20
-3.91924
 11
-21.1258
 21
-3.64999
  0
LINE
  8
0
 10
-21.1258
 20
-3.64999
 11
-21.2557
 21
-3.33646
  0
LINE
  8
0
 10
-21.2557
 20
-3.33646
 11
-21.3
 21
-3
  0
LINE
  8
0
 10
-21.3
 20
-3
 11
-21.2557
 21
-2.66353
  0
LINE
  8
0
 10
-21.2557
 20
-2.66353
 11
-21.1258
 21
-2.34999
  0
LINE
  8
0
 10
-21.1258
 20
-2.34999
 11
-20.9192
 21
-2.08075
  0
LINE
  8
0
 10
-20.9192
 20
-2.08075
 11
-20.65
 21
-1.87416
  0
LINE
  8
0
 10
-20.65
 20
-1.87416
 11
-20.3365
 21
-1.74429
  0
LINE
  8
0
 10
-20.3365
 20
-1.74429
 11
-20
 21
-1.7
  0
LINE
  8
0
 10
-20
 20
-1.7
 11
-19.6635
 21
-1.74429
  0
LINE
  8
0
 10
-19.6635
 20
-1.74429
 11
-19.35
 21
-1.87416
  0
LINE
  8
0
 10
-19.35
 20
-1.87416
 11
-19.0807
 21
-2.08075
  0
LINE
  8
0
 10
-19.0807
 20
-2.08075
 11
-18.8742
 21
-2.34999
  0
LINE
  8
0
 10
-18.8742
 20
-2.34999
 11
-18.7443
 21
-2.66353
  0
LINE
  8
0
 10
-18.7443
 20
-2.66353
 11
-18.7
 21
-3
  0
LINE
  8
0
 10
-18.7
 20
-3
 11
-18.7443
 21
-3.33646
  0
LINE
  8
0
 10
-18.7443
 20
-3.33646
 11
-18.8742
 21
-3.64999
  0
LINE
  8
0
 10
-18.8742
 20
-3.64999
 11
-19.0807
 21
-3.91924
  0
LINE
  8
0
 10
-19.0807
 20
-3.91924
 11
-19.35
 21
-4.12582
  0
LINE
  8
0
 10
-19.35
 20
-4.12582
 11
-19.6635
 21
-4.25569
  0
LINE
  8
0
 10
-19.6635
 20
-4.25569
 11
-20
 21
-4.29999
  0
LINE
  8
0
 10
-20
 20
-4.29999
 11
-20.3365
 21
-4.25569
  0
LINE
  8
0
 10
-6.03894
 20
-13.95
 11
-7.0948
 21
-13.774
  0
LINE
  8
0
 10
-7.0948
 20
-13.774
 11
-7.67987
 21
-13.54
  0
LINE
  8
0
 10
-7.67987
 20
-13.54
 11
-8.07472
 21
-13.1443
  0
LINE
  8
0
 10
-8.07472
 20
-13.1443
 11
-8.20006
 21
-12.6071
  0
LINE
  8
0
 10
-8.20006
 20
-12.6071
 11
-8.03334
 21
-11.8671
  0
LINE
  8
0
 10
-8.03334
 20
-11.8671
 11
-7.74832
 21
-11.3
  0
LINE
  8
0
 10
-7.74832
 20
-11.3
 11
-5.72552
 21
-7.85539
  0
LINE
  8
0
 10
-5.72552
 20
-7.85539
 11
-4.87546
 21
-6.71394
  0
LINE
  8
0
 10
-4.87546
 20
-6.71394
 11
-2.61311
 21
-4.4516
  0
LINE
  8
0
 10
-2.61311
 20
-4.4516
 11
-1.74208
 21
-3.82942
  0
LINE
  8
0
 10
-1.74208
 20
-3.82942
 11
-0.871033
 21
-3.45612
  0
LINE
  8
0
 10
-0.871033
 20
-3.45612
 11
0
 21
-3.33168
  0
LINE
  8
0
 10
0
 20
-3.33168
 11
0.871033
 21
-3.45612
  0
LINE
  8
0
 10
0.871033
 20
-3.45612
 11
1.74208
 21
-3.82942
  0
LINE
  8
0
 10
1.74208
 20
-3.82942
 11
2.61311
 21
-4.4516
  0
LINE
  8
0
 10
2.61311
 20
-4.4516
 11
4.87546
 21
-6.71394
  0
LINE
  8
0
 10
4.87546
 20
-6.71394
 11
5.72552
 21
-7.85539
  0
LINE
  8
0
 10
5.72552
 20
-7.85539
 11
7.74832
 21
-11.3
  0
LINE
  8
0
 10
7.74832
 20
-11.3
 11
8.03334
 21
-11.8671
  0
LINE
  8
0
 10
8.03334
 20
-11.8671
 11
8.20006
 21
-12.6071
  0
LINE
  8
0
 10
8.20006
 20
-12.6071
 11
8.07472
 21
-13.1443
  0
LINE
  8
0
 10
8.07472
 20
-13.1443
 11
7.67987
 21
-13.54
  0
LINE
  8
0
 10
7.67987
 20
-13.54
 11
7.0948
 21
-13.774
  0
LINE
  8
0
 10
7.0948
 20
-13.774
 11
6.03894
 21
-13.95
  0
LINE
  8
0
 10
6.03894
 20
-13.95
 11
-6.03894
 21
-13.95
  0
LINE
  8
0
 10
9.66353
 20
-11.2557
 11
9.34999
 21
-11.1258
  0
LINE
  8
0
 10
9.34999
 20
-11.1258
 11
9.08075
 21
-10.9192
  0
LINE
  8
0
 10
9.08075
 20
-10.9192
 11
8.87416
 21
-10.65
  0
LINE
  8
0
 10
8.87416
 20
-10.65
 11
8.74429
 21
-10.3365
  0
LINE
  8
0
 10
8.74429
 20
-10.3365
 11
8.7
 21
-10
  0
LINE
  8
0
 10
8.7
 20
-10
 11
8.74429
 21
-9.66353
  0
LINE
  8
0
 10
8.74429
 20
-9.66353
 11
8.87416
 21
-9.34999
  0
LINE
  8
0
 10
8.87416
 20
-9.34999
 11
9.08075
 21
-9.08075
  0
LINE
  8
0
 10
9.08075
 20
-9.08075
 11
9.34999
 21
-8.87416
  0
LINE
  8
0
 10
9.34999
 20
-8.87416
 11
9.66353
 21
-8.74429
  0
LINE
  8
0
 10
9.66353
 20
-8.74429
 11
10
 21
-8.7
  0
LINE
  8
0
 10
10
 20
-8.7
 11
10.3365
 21
-8.74429
  0
LINE
  8
0
 10
10.3365
 20
-8.74429
 11
10.65
 21
-8.87416
  0
LINE
  8
0
 10
10.65
 20
-8.87416
 11
10.9192
 21
-9.08075
  0
LINE
  8
0
 10
10.9192
 20
-9.08075
 11
11.1258
 21
-9.34999
  0
LINE
  8
0
 10
11.1258
 20
-9.34999
 11
11.2557
 21
-9.66353
  0
LINE
  8
0
 10
11.2557
 20
-9.66353
 11
11.3
 21
-10
  0
LINE
  8
0
 10
11.3
 20
-10
 11
11.2557
 21
-10.3365
  0
LINE
  8
0
 10
11.2557
 20
-10.3365
 11
11.1258
 21
-10.65
  0
LINE
  8
0
 10
11.1258
 20
-10.65
 11
10.9192
 21
-10.9192
  0
LINE
  8
0
 10
10.9192
 20
-10.9192
 11
10.65
 21
-11.1258
  0
LINE
  8
0
 10
10.65
 20
-11.1258
 11
10.3365
 21
-11.2557
  0
LINE
  8
0
 10
10.3365
 20
-11.2557
 11
10
 21
-11.3
  0
LINE
  8
0
 10
10
 20
-11.3
 11
9.66353
 21
-11.2557
  0
LINE
  8
0
 10
-10.3365
 20
-11.2557
 11
-10.65
 21
-11.1258
  0
LINE
  8
0
 10
-10.65
 20
-11.1258
 11
-10.9192
 21
-10.9192
  0
LINE
  8
0
 10
-10.9192
 20
-10.9192
 11
-11.1258
 21
-10.65
  0
LINE
  8
0
 10
-11.1258
 20
-10.65
 11
-11.2557
 21
-10.3365
  0
LINE
  8
0
 10
-11.2557
 20
-10.3365
 11
-11.3
 21
-10
  0
LINE
  8
0
 10
-11.3
 20
-10
 11
-11.2557
 21
-9.66353
  0
LINE
  8
0
 10
-11.2557
 20
-9.66353
 11
-11.1258
 21
-9.34999
  0
LINE
  8
0
 10
-11.1258
 20
-9.34999
 11
-10.9192
 21
-9.08075
  0
LINE
  8
0
 10
-10.9192
 20
-9.08075
 11
-10.65
 21
-8.87416
  0
LINE
  8
0
 10
-10.65
 20
-8.87416
 11
-10.3365
 21
-8.74429
  0
LINE
  8
0
 10
-10.3365
 20
-8.74429
 11
-10
 21
-8.7
  0
LINE
  8
0
 10
-10
 20
-8.7
 11
-9.66353
 21
-8.74429
  0
LINE
  8
0
 10
-9.66353
 20
-8.74429
 11
-9.34999
 21
-8.87416
  0
LINE
  8
0
 10
-9.34999
 20
-8.87416
 11
-9.08075
 21
-9.08075
  0
LINE
  8
0
 10
-9.08075
 20
-9.08075
 11
-8.87416
 21
-9.34999
  0
LINE
  8
0
 10
-8.87416
 20
-9.34999
 11
-8.74429
 21
-9.66353
  0
LINE
  8
0
 10
-8.74429
 20
-9.66353
 11
-8.7
 21
-10
  0
LINE
  8
0
 10
-8.7
 20
-10
 11
-8.74429
 21
-10.3365
  0
LINE
  8
0
 10
-8.74429
 20
-10.3365
 11
-8.87416
 21
-10.65
  0
LINE
  8
0
 10
-8.87416
 20
-10.65
 11
-9.08075
 21
-10.9192
  0
LINE
  8
0
 10
-9.08075
 20
-10.9192
 11
-9.34999
 21
-11.1258
  0
LINE
  8
0
 10
-9.34999
 20
-11.1258
 11
-9.66353
 21
-11.2557
  0
LINE
  8
0
 10
-9.66353
 20
-11.2557
 11
-10
 21
-11.3
  0
LINE
  8
0
 10
-10
 20
-11.3
 11
-10.3365
 21
-11.2557
  0
LINE
  8
0
 10
-13.3365
 20
-14.2557
 11
-13.65
 21
-14.1258
  0
LINE
  8
0
 10
-13.65
 20
-14.1258
 11
-13.9192
 21
-13.9192
  0
LINE
  8
0
 10
-13.9192
 20
-13.9192
 11
-14.1258
 21
-13.65
  0
LINE
  8
0
 10
-14.1258
 20
-13.65
 11
-14.2557
 21
-13.3365
  0
LINE
  8
0
 10
-14.2557
 20
-13.3365
 11
-14.3
 21
-13
  0
LINE
  8
0
 10
-14.3
 20
-13
 11
-14.2557
 21
-12.6635
  0
LINE
  8
0
 10
-14.2557
 20
-12.6635
 11
-14.1258
 21
-12.35
  0
LINE
  8
0
 10
-14.1258
 20
-12.35
 11
-13.9192
 21
-12.0807
  0
LINE
  8
0
 10
-13.9192
 20
-12.0807
 11
-13.65
 21
-11.8742
  0
LINE
  8
0
 10
-13.65
 20
-11.8742
 11
-13.3365
 21
-11.7443
  0
LINE
  8
0
 10
-13.3365
 20
-11.7443
 11
-13
 21
-11.7
  0
LINE
  8
0
 10
-13
 20
-11.7
 11
-12.6635
 21
-11.7443
  0
LINE
  8
0
 10
-12.6635
 20
-11.7443
 11
-12.35
 21
-11.8742
  0
LINE
  8
0
 10
-12.35
 20
-11.8742
 11
-12.0807
 21
-12.0807
  0
LINE
  8
0
 10
-12.0807
 20
-12.0807
 11
-11.8742
 21
-12.35
  0
LINE
  8
0
 10
-11.8742
 20
-12.35
 11
-11.7443
 21
-12.6635
  0
LINE
  8
0
 10
-11.7443
 20
-12.6635
 11
-11.7
 21
-13
  0
LINE
  8
0
 10
-11.7
 20
-13
 11
-11.7443
 21
-13.3365
  0
LINE
  8
0
 10
-11.7443
 20
-13.3365
 11
-11.8742
 21
-13.65
  0
LINE
  8
0
 10
-11.8742
 20
-13.65
 11
-12.0807
 21
-13.9192
  0
LINE
  8
0
 10
-12.0807
 20
-13.9192
 11
-12.35
 21
-14.1258
  0
LINE
  8
0
 10
-12.35
 20
-14.1258
 11
-12.6635
 21
-14.2557
  0
LINE
  8
0
 10
-12.6635
 20
-14.2557
 11
-13
 21
-14.3
  0
LINE
  8
0
 10
-13
 20
-14.3
 11
-13.3365
 21
-14.2557
  0
LINE
  8
0
 10
12.6635
 20
-14.2557
 11
12.35
 21
-14.1258
  0
LINE
  8
0
 10
12.35
 20
-14.1258
 11
12.0807
 21
-13.9192
  0
LINE
  8
0
 10
12.0807
 20
-13.9192
 11
11.8742
 21
-13.65
  0
LINE
  8
0
 10
11.8742
 20
-13.65
 11
11.7443
 21
-13.3365
  0
LINE
  8
0
 10
11.7443
 20
-13.3365
 11
11.7
 21
-13
  0
LINE
  8
0
 10
11.7
 20
-13
 11
11.7443
 21
-12.6635
  0
LINE
  8
0
 10
11.7443
 20
-12.6635
 11
11.8742
 21
-12.35
  0
LINE
  8
0
 10
11.8742
 20
-12.35
 11
12.0807
 21
-12.0807
  0
LINE
  8
0
 10
12.0807
 20
-12.0807
 11
12.35
 21
-11.8742
  0
LINE
  8
0
 10
12.35
 20
-11.8742
 11
12.6635
 21
-11.7443
  0
LINE
  8
0
 10
12.6635
 20
-11.7443
 11
13
 21
-11.7
  0
LINE
  8
0
 10
13
 20
-11.7
 11
13.3365
 21
-11.7443
  0
LINE
  8
0
 10
13.3365
 20
-11.7443
 11
13.65
 21
-11.8742
  0
LINE
  8
0
 10
13.65
 20
-11.8742
 11
13.9192
 21
-12.0807
  0
LINE
  8
0
 10
13.9192
 20
-12.0807
 11
14.1258
 21
-12.35
  0
LINE
  8
0
 10
14.1258
 20
-12.35
 11
14.2557
 21
-12.6635
  0
LINE
  8
0
 10
14.2557
 20
-12.6635
 11
14.3
 21
-13
  0
LINE
  8
0
 10
14.3
 20
-13
 11
14.2557
 21
-13.3365
  0
LINE
  8
0
 10
14.2557
 20
-13.3365
 11
14.1258
 21
-13.65
  0
LINE
  8
0
 10
14.1258
 20
-13.65
 11
13.9192
 21
-13.9192
  0
LINE
  8
0
 10
13.9192
 20
-13.9192
 11
13.65
 21
-14.1258
  0
LINE
  8
0
 10
13.65
 20
-14.1258
 11
13.3365
 21
-14.2557
  0
LINE
  8
0
 10
13.3365
 20
-14.2557
 11
13
 21
-14.3
  0
LINE
  8
0
 10
13
 20
-14.3
 11
12.6635
 21
-14.2557
  0
LINE
  8
0
 10
-15.6926
 20
-16.9017
 11
-16.105
 21
-16.7309
  0
LINE
  8
0
 10
-16.105
 20
-16.7309
 11
-16.4592
 21
-16.4592
  0
LINE
  8
0
 10
-16.4592
 20
-16.4592
 11
-16.7309
 21
-16.105
  0
LINE
  8
0
 10
-16.7309
 20
-16.105
 11
-16.9017
 21
-15.6926
  0
LINE
  8
0
 10
-16.9017
 20
-15.6926
 11
-16.96
 21
-15.25
  0
LINE
  8
0
 10
-16.96
 20
-15.25
 11
-16.9017
 21
-14.8074
  0
LINE
  8
0
 10
-16.9017
 20
-14.8074
 11
-16.7309
 21
-14.395
  0
LINE
  8
0
 10
-16.7309
 20
-14.395
 11
-16.4592
 21
-14.0408
  0
LINE
  8
0
 10
-16.4592
 20
-14.0408
 11
-16.105
 21
-13.7691
  0
LINE
  8
0
 10
-16.105
 20
-13.7691
 11
-15.6926
 21
-13.5983
  0
LINE
  8
0
 10
-15.6926
 20
-13.5983
 11
-15.25
 21
-13.54
  0
LINE
  8
0
 10
-15.25
 20
-13.54
 11
-14.8074
 21
-13.5983
  0
LINE
  8
0
 10
-14.8074
 20
-13.5983
 11
-14.395
 21
-13.7691
  0
LINE
  8
0
 10
-14.395
 20
-13.7691
 11
-14.0408
 21
-14.0408
  0
LINE
  8
0
 10
-14.0408
 20
-14.0408
 11
-13.7691
 21
-14.395
  0
LINE
  8
0
 10
-13.7691
 20
-14.395
 11
-13.5983
 21
-14.8074
  0
LINE
  8
0
 10
-13.5983
 20
-14.8074
 11
-13.54
 21
-15.25
  0
LINE
  8
0
 10
-13.54
 20
-15.25
 11
-13.5983
 21
-15.6926
  0
LINE
  8
0
 10
-13.5983
 20
-15.6926
 11
-13.7691
 21
-16.105
  0
LINE
  8
0
 10
-13.7691
 20
-16.105
 11
-14.0408
 21
-16.4592
  0
LINE
  8
0
 10
-14.0408
 20
-16.4592
 11
-14.395
 21
-16.7309
  0
LINE
  8
0
 10
-14.395
 20
-16.7309
 11
-14.8074
 21
-16.9017
  0
LINE
  8
0
 10
-14.8074
 20
-16.9017
 11
-15.25
 21
-16.96
  0
LINE
  8
0
 10
-15.25
 20
-16.96
 11
-15.6926
 21
-16.9017
  0
LINE
  8
0
 10
14.8074
 20
-16.9017
 11
14.395
 21
-16.7309
  0
LINE
  8
0
 10
14.395
 20
-16.7309
 11
14.0408
 21
-16.4592
  0
LINE
  8
0
 10
14.0408
 20
-16.4592
 11
13.7691
 21
-16.105
  0
LINE
  8
0
 10
13.7691
 20
-16.105
 11
13.5983
 21
-15.6926
  0
LINE
  8
0
 10
13.5983
 20
-15.6926
 11
13.54
 21
-15.25
  0
LINE
  8
0
 10
13.54
 20
-15.25
 11
13.5983
 21
-14.8074
  0
LINE
  8
0
 10
13.5983
 20
-14.8074
 11
13.7691
 21
-14.395
  0
LINE
  8
0
 10
13.7691
 20
-14.395
 11
14.0408
 21
-14.0408
  0
LINE
  8
0
 10
14.0408
 20
-14.0408
 11
14.395
 21
-13.7691
  0
LINE
  8
0
 10
14.395
 20
-13.7691
 11
14.8074
 21
-13.5983
  0
LINE
  8
0
 10
14.8074
 20
-13.5983
 11
15.25
 21
-13.54
  0
LINE
  8
0
 10
15.25
 20
-13.54
 11
15.6926
 21
-13.5983
  0
LINE
  8
0
 10
15.6926
 20
-13.5983
 11
16.105
 21
-13.7691
  0
LINE
  8
0
 10
16.105
 20
-13.7691
 11
16.4592
 21
-14.0408
  0
LINE
  8
0
 10
16.4592
 20
-14.0408
 11
16.7309
 21
-14.395
  0
LINE
  8
0
 10
16.7309
 20
-14.395
 11
16.9017
 21
-14.8074
  0
LINE
  8
0
 10
16.9017
 20
-14.8074
 11
16.96
 21
-15.25
  0
LINE
  8
0
 10
16.96
 20
-15.25
 11
16.9017
 21
-15.6926
  0
LINE
  8
0
 10
16.9017
 20
-15.6926
 11
16.7309
 21
-16.105
  0
LINE
  8
0
 10
16.7309
 20
-16.105
 11
16.4592
 21
-16.4592
  0
LINE
  8
0
 10
16.4592
 20
-16.4592
 11
16.105
 21
-16.7309
  0
LINE
  8
0
 10
16.105
 20
-16.7309
 11
15.6926
 21
-16.9017
  0
LINE
  8
0
 10
15.6926
 20
-16.9017
 11
15.25
 21
-16.96
  0
LINE
  8
0
 10
15.25
 20
-16.96
 11
14.8074
 21
-16.9017
  0
LINE
  8
0
 10
63.0702
 20
-65.7646
 11
62.5396
 21
-65.5449
  0
LINE
  8
0
 10
62.5396
 20
-65.5449
 11
62.084
 21
-65.1952
  0
LINE
  8
0
 10
62.084
 20
-65.1952
 11
61.7343
 21
-64.7396
  0
LINE
  8
0
 10
61.7343
 20
-64.7396
 11
61.5146
 21
-64.209
  0
LINE
  8
0
 10
61.5146
 20
-64.209
 11
61.4396
 21
-63.6396
  0
LINE
  8
0
 10
61.4396
 20
-63.6396
 11
61.5146
 21
-63.0702
  0
LINE
  8
0
 10
61.5146
 20
-63.0702
 11
61.7343
 21
-62.5396
  0
LINE
  8
0
 10
61.7343
 20
-62.5396
 11
62.084
 21
-62.084
  0
LINE
  8
0
 10
62.084
 20
-62.084
 11
62.5396
 21
-61.7343
  0
LINE
  8
0
 10
62.5396
 20
-61.7343
 11
63.0702
 21
-61.5146
  0
LINE
  8
0
 10
63.0702
 20
-61.5146
 11
63.6396
 21
-61.4396
  0
LINE
  8
0
 10
63.6396
 20
-61.4396
 11
64.209
 21
-61.5146
  0
LINE
  8
0
 10
64.209
 20
-61.5146
 11
64.7396
 21
-61.7343
  0
LINE
  8
0
 10
64.7396
 20
-61.7343
 11
65.1952
 21
-62.084
  0
LINE
  8
0
 10
65.1952
 20
-62.084
 11
65.5449
 21
-62.5396
  0
LINE
  8
0
 10
65.5449
 20
-62.5396
 11
65.7646
 21
-63.0702
  0
LINE
  8
0
 10
65.7646
 20
-63.0702
 11
65.8396
 21
-63.6396
  0
LINE
  8
0
 10
65.8396
 20
-63.6396
 11
65.7646
 21
-64.209
  0
LINE
  8
0
 10
65.7646
 20
-64.209
 11
65.5449
 21
-64.7396
  0
LINE
  8
0
 10
65.5449
 20
-64.7396
 11
65.1952
 21
-65.1952
  0
LINE
  8
0
 10
65.1952
 20
-65.1952
 11
64.7396
 21
-65.5449
  0
LINE
  8
0
 10
64.7396
 20
-65.5449
 11
64.209
 21
-65.7646
  0
LINE
  8
0
 10
64.209
 20
-65.7646
 11
63.6396
 21
-65.8396
  0
LINE
  8
0
 10
63.6396
 20
-65.8396
 11
63.0702
 21
-65.7646
  0
LINE
  8
0
 10
-64.209
 20
-65.7646
 11
-64.7396
 21
-65.5449
  0
LINE
  8
0
 10
-64.7396
 20
-65.5449
 11
-65.1952
 21
-65.1952
  0
LINE
  8
0
 10
-65.1952
 20
-65.1952
 11
-65.5449
 21
-64.7396
  0
LINE
  8
0
 10
-65.5449
 20
-64.7396
 11
-65.7646
 21
-64.209
  0
LINE
  8
0
 10
-65.7646
 20
-64.209
 11
-65.8396
 21
-63.6396
  0
LINE
  8
0
 10
-65.8396
 20
-63.6396
 11
-65.7646
 21
-63.0702
  0
LINE
  8
0
 10
-65.7646
 20
-63.0702
 11
-65.5449
 21
-62.5396
  0
LINE
  8
0
 10
-65.5449
 20
-62.5396
 11
-65.1952
 21
-62.084
  0
LINE
  8
0
 10
-65.1952
 20
-62.084
 11
-64.7396
 21
-61.7343
  0
LINE
  8
0
 10
-64.7396
 20
-61.7343
 11
-64.209
 21
-61.5146
  0
LINE
  8
0
 10
-64.209
 20
-61.5146
 11
-63.6396
 21
-61.4396
  0
LINE
  8
0
 10
-63.6396
 20
-61.4396
 11
-63.0702
 21
-61.5146
  0
LINE
  8
0
 10
-63.0702
 20
-61.5146
 11
-62.5396
 21
-61.7343
  0
LINE
  8
0
 10
-62.5396
 20
-61.7343
 11
-62.084
 21
-62.084
  0
LINE
  8
0
 10
-62.084
 20
-62.084
 11
-61.7343
 21
-62.5396
  0
LINE
  8
0
 10
-61.7343
 20
-62.5396
 11
-61.5146
 21
-63.0702
  0
LINE
  8
0
 10
-61.5146
 20
-63.0702
 11
-61.4396
 21
-63.6396
  0
LINE
  8
0
 10
-61.4396
 20
-63.6396
 11
-61.5146
 21
-64.209
  0
LINE
  8
0
 10
-61.5146
 20
-64.209
 11
-61.7343
 21
-64.7396
  0
LINE
  8
0
 10
-61.7343
 20
-64.7396
 11
-62.084
 21
-65.1952
  0
LINE
  8
0
 10
-62.084
 20
-65.1952
 11
-62.5396
 21
-65.5449
  0
LINE
  8
0
 10
-62.5396
 20
-65.5449
 11
-63.0702
 21
-65.7646
  0
LINE
  8
0
 10
-63.0702
 20
-65.7646
 11
-63.6396
 21
-65.8396
  0
LINE
  8
0
 10
-63.6396
 20
-65.8396
 11
-64.209
 21
-65.7646
  0
LINE
  8
0
 10
-69.6396
 20
-64.9396
 11
-69.9761
 21
-64.8953
  0
LINE
  8
0
 10
-69.9761
 20
-64.8953
 11
-70.2896
 21
-64.7654
  0
LINE
  8
0
 10
-70.2896
 20
-64.7654
 11
-70.5588
 21
-64.5588
  0
LINE
  8
0
 10
-70.5588
 20
-64.5588
 11
-70.7654
 21
-64.2896
  0
LINE
  8
0
 10
-70.7654
 20
-64.2896
 11
-70.8953
 21
-63.9761
  0
LINE
  8
0
 10
-70.8953
 20
-63.9761
 11
-70.9396
 21
-63.6396
  0
LINE
  8
0
 10
-70.9396
 20
-63.6396
 11
-70.8953
 21
-63.3031
  0
LINE
  8
0
 10
-70.8953
 20
-63.3031
 11
-70.7654
 21
-62.9896
  0
LINE
  8
0
 10
-70.7654
 20
-62.9896
 11
-70.5588
 21
-62.7204
  0
LINE
  8
0
 10
-70.5588
 20
-62.7204
 11
-70.2896
 21
-62.5138
  0
LINE
  8
0
 10
-70.2896
 20
-62.5138
 11
-69.9761
 21
-62.3839
  0
LINE
  8
0
 10
-69.9761
 20
-62.3839
 11
-69.6396
 21
-62.3396
  0
LINE
  8
0
 10
-69.6396
 20
-62.3396
 11
-68.1396
 21
-62.3396
  0
LINE
  8
0
 10
-68.1396
 20
-62.3396
 11
-67.8031
 21
-62.3839
  0
LINE
  8
0
 10
-67.8031
 20
-62.3839
 11
-67.4896
 21
-62.5138
  0
LINE
  8
0
 10
-67.4896
 20
-62.5138
 11
-67.2204
 21
-62.7204
  0
LINE
  8
0
 10
-67.2204
 20
-62.7204
 11
-67.0138
 21
-62.9896
  0
LINE
  8
0
 10
-67.0138
 20
-62.9896
 11
-66.8839
 21
-63.3031
  0
LINE
  8
0
 10
-66.8839
 20
-63.3031
 11
-66.8396
 21
-63.6396
  0
LINE
  8
0
 10
-66.8396
 20
-63.6396
 11
-66.8839
 21
-63.9761
  0
LINE
  8
0
 10
-66.8839
 20
-63.9761
 11
-67.0138
 21
-64.2896
  0
LINE
  8
0
 10
-67.0138
 20
-64.2896
 11
-67.2204
 21
-64.5588
  0
LINE
  8
0
 10
-67.2204
 20
-64.5588
 11
-67.4896
 21
-64.7654
  0
LINE
  8
0
 10
-67.4896
 20
-64.7654
 11
-67.8031
 21
-64.8953
  0
LINE
  8
0
 10
-67.8031
 20
-64.8953
 11
-68.1396
 21
-64.9396
  0
LINE
  8
0
 10
-68.1396
 20
-64.9396
 11
-69.6396
 21
-64.9396
  0
LINE
  8
0
 10
57.6396
 20
-64.9396
 11
57.3031
 21
-64.8953
  0
LINE
  8
0
 10
57.3031
 20
-64.8953
 11
56.9896
 21
-64.7654
  0
LINE
  8
0
 10
56.9896
 20
-64.7654
 11
56.7204
 21
-64.5588
  0
LINE
  8
0
 10
56.7204
 20
-64.5588
 11
56.5138
 21
-64.2896
  0
LINE
  8
0
 10
56.5138
 20
-64.2896
 11
56.3839
 21
-63.9761
  0
LINE
  8
0
 10
56.3839
 20
-63.9761
 11
56.3396
 21
-63.6396
  0
LINE
  8
0
 10
56.3396
 20
-63.6396
 11
56.3839
 21
-63.3031
  0
LINE
  8
0
 10
56.3839
 20
-63.3031
 11
56.5138
 21
-62.9896
  0
LINE
  8
0
 10
56.5138
 20
-62.9896
 11
56.7204
 21
-62.7204
  0
LINE
  8
0
 10
56.7204
 20
-62.7204
 11
56.9896
 21
-62.5138
  0
LINE
  8
0
 10
56.9896
 20
-62.5138
 11
57.3031
 21
-62.3839
  0
LINE
  8
0
 10
57.3031
 20
-62.3839
 11
57.6396
 21
-62.3396
  0
LINE
  8
0
 10
57.6396
 20
-62.3396
 11
59.1396
 21
-62.3396
  0
LINE
  8
0
 10
59.1396
 20
-62.3396
 11
59.4761
 21
-62.3839
  0
LINE
  8
0
 10
59.4761
 20
-62.3839
 11
59.7896
 21
-62.5138
  0
LINE
  8
0
 10
59.7896
 20
-62.5138
 11
60.0588
 21
-62.7204
  0
LINE
  8
0
 10
60.0588
 20
-62.7204
 11
60.2654
 21
-62.9896
  0
LINE
  8
0
 10
60.2654
 20
-62.9896
 11
60.3953
 21
-63.3031
  0
LINE
  8
0
 10
60.3953
 20
-63.3031
 11
60.4396
 21
-63.6396
  0
LINE
  8
0
 10
60.4396
 20
-63.6396
 11
60.3953
 21
-63.9761
  0
LINE
  8
0
 10
60.3953
 20
-63.9761
 11
60.2654
 21
-64.2896
  0
LINE
  8
0
 10
60.2654
 20
-64.2896
 11
60.0588
 21
-64.5588
  0
LINE
  8
0
 10
60.0588
 20
-64.5588
 11
59.7896
 21
-64.7654
  0
LINE
  8
0
 10
59.7896
 20
-64.7654
 11
59.4761
 21
-64.8953
  0
LINE
  8
0
 10
59.4761
 20
-64.8953
 11
59.1396
 21
-64.9396
  0
LINE
  8
0
 10
59.1396
 20
-64.9396
 11
57.6396
 21
-64.9396
  0
LINE
  8
0
 10
68.1396
 20
-64.9396
 11
67.8031
 21
-64.8953
  0
LINE
  8
0
 10
67.8031
 20
-64.8953
 11
67.4896
 21
-64.7654
  0
LINE
  8
0
 10
67.4896
 20
-64.7654
 11
67.2204
 21
-64.5588
  0
LINE
  8
0
 10
67.2204
 20
-64.5588
 11
67.0138
 21
-64.2896
  0
LINE
  8
0
 10
67.0138
 20
-64.2896
 11
66.8839
 21
-63.9761
  0
LINE
  8
0
 10
66.8839
 20
-63.9761
 11
66.8396
 21
-63.6396
  0
LINE
  8
0
 10
66.8396
 20
-63.6396
 11
66.8839
 21
-63.3031
  0
LINE
  8
0
 10
66.8839
 20
-63.3031
 11
67.0138
 21
-62.9896
  0
LINE
  8
0
 10
67.0138
 20
-62.9896
 11
67.2204
 21
-62.7204
  0
LINE
  8
0
 10
67.2204
 20
-62.7204
 11
67.4896
 21
-62.5138
  0
LINE
  8
0
 10
67.4896
 20
-62.5138
 11
67.8031
 21
-62.3839
  0
LINE
  8
0
 10
67.8031
 20
-62.3839
 11
68.1396
 21
-62.3396
  0
LINE
  8
0
 10
68.1396
 20
-62.3396
 11
69.6396
 21
-62.3396
  0
LINE
  8
0
 10
69.6396
 20
-62.3396
 11
69.9761
 21
-62.3839
  0
LINE
  8
0
 10
69.9761
 20
-62.3839
 11
70.2896
 21
-62.5138
  0
LINE
  8
0
 10
70.2896
 20
-62.5138
 11
70.5588
 21
-62.7204
  0
LINE
  8
0
 10
70.5588
 20
-62.7204
 11
70.7654
 21
-62.9896
  0
LINE
  8
0
 10
70.7654
 20
-62.9896
 11
70.8953
 21
-63.3031
  0
LINE
  8
0
 10
70.8953
 20
-63.3031
 11
70.9396
 21
-63.6396
  0
LINE
  8
0
 10
70.9396
 20
-63.6396
 11
70.8953
 21
-63.9761
  0
LINE
  8
0
 10
70.8953
 20
-63.9761
 11
70.7654
 21
-64.2896
  0
LINE
  8
0
 10
70.7654
 20
-64.2896
 11
70.5588
 21
-64.5588
  0
LINE
  8
0
 10
70.5588
 20
-64.5588
 11
70.2896
 21
-64.7654
  0
LINE
  8
0
 10
70.2896
 20
-64.7654
 11
69.9761
 21
-64.8953
  0
LINE
  8
0
 10
69.9761
 20
-64.8953
 11
69.6396
 21
-64.9396
  0
LINE
  8
0
 10
69.6396
 20
-64.9396
 11
68.1396
 21
-64.9396
  0
LINE
  8
0
 10
-59.1396
 20
-64.9396
 11
-59.4761
 21
-64.8953
  0
LINE
  8
0
 10
-59.4761
 20
-64.8953
 11
-59.7896
 21
-64.7654
  0
LINE
  8
0
 10
-59.7896
 20
-64.7654
 11
-60.0588
 21
-64.5588
  0
LINE
  8
0
 10
-60.0588
 20
-64.5588
 11
-60.2654
 21
-64.2896
  0
LINE
  8
0
 10
-60.2654
 20
-64.2896
 11
-60.3953
 21
-63.9761
  0
LINE
  8
0
 10
-60.3953
 20
-63.9761
 11
-60.4396
 21
-63.6396
  0
LINE
  8
0
 10
-60.4396
 20
-63.6396
 11
-60.3953
 21
-63.3031
  0
LINE
  8
0
 10
-60.3953
 20
-63.3031
 11
-60.2654
 21
-62.9896
  0
LINE
  8
0
 10
-60.2654
 20
-62.9896
 11
-60.0588
 21
-62.7204
  0
LINE
  8
0
 10
-60.0588
 20
-62.7204
 11
-59.7896
 21
-62.5138
  0
LINE
  8
0
 10
-59.7896
 20
-62.5138
 11
-59.4761
 21
-62.3839
  0
LINE
  8
0
 10
-59.4761
 20
-62.3839
 11
-59.1396
 21
-62.3396
  0
LINE
  8
0
 10
-59.1396
 20
-62.3396
 11
-57.6396
 21
-62.3396
  0
LINE
  8
0
 10
-57.6396
 20
-62.3396
 11
-57.3031
 21
-62.3839
  0
LINE
  8
0
 10
-57.3031
 20
-62.3839
 11
-56.9896
 21
-62.5138
  0
LINE
  8
0
 10
-56.9896
 20
-62.5138
 11
-56.7204
 21
-62.7204
  0
LINE
  8
0
 10
-56.7204
 20
-62.7204
 11
-56.5138
 21
-62.9896
  0
LINE
  8
0
 10
-56.5138
 20
-62.9896
 11
-56.3839
 21
-63.3031
  0
LINE
  8
0
 10
-56.3839
 20
-63.3031
 11
-56.3396
 21
-63.6396
  0
LINE
  8
0
 10
-56.3396
 20
-63.6396
 11
-56.3839
 21
-63.9761
  0
LINE
  8
0
 10
-56.3839
 20
-63.9761
 11
-56.5138
 21
-64.2896
  0
LINE
  8
0
 10
-56.5138
 20
-64.2896
 11
-56.7204
 21
-64.5588
  0
LINE
  8
0
 10
-56.7204
 20
-64.5588
 11
-56.9896
 21
-64.7654
  0
LINE
  8
0
 10
-56.9896
 20
-64.7654
 11
-57.3031
 21
-64.8953
  0
LINE
  8
0
 10
-57.3031
 20
-64.8953
 11
-57.6396
 21
-64.9396
  0
LINE
  8
0
 10
-57.6396
 20
-64.9396
 11
-59.1396
 21
-64.9396
  0
LINE
  8
0
 10
-11.3
 20
7.74832
 11
-7.85539
 21
5.72552
  0
LINE
  8
0
 10
-7.85539
 20
5.72552
 11
-6.71394
 21
4.87546
  0
LINE
  8
0
 10
-6.71394
 20
4.87546
 11
-4.4516
 21
2.61311
  0
LINE
  8
0
 10
-4.4516
 20
2.61311
 11
-3.82942
 21
1.74208
  0
LINE
  8
0
 10
-3.82942
 20
1.74208
 11
-3.45612
 21
0.871033
  0
LINE
  8
0
 10
-3.45612
 20
0.871033
 11
-3.33168
 21
0
  0
LINE
  8
0
 10
-3.33168
 20
0
 11
-3.45612
 21
-0.871033
  0
LINE
  8
0
 10
-3.45612
 20
-0.871033
 11
-3.82942
 21
-1.74208
  0
LINE
  8
0
 10
-3.82942
 20
-1.74208
 11
-4.4516
 21
-2.61311
  0
LINE
  8
0
 10
-4.4516
 20
-2.61311
 11
-6.71394
 21
-4.87546
  0
LINE
  8
0
 10
-6.71394
 20
-4.87546
 11
-7.85539
 21
-5.72552
  0
LINE
  8
0
 10
-7.85539
 20
-5.72552
 11
-11.3
 21
-7.74832
  0
LINE
  8
0
 10
-11.3
 20
-7.74832
 11
-16.7431
 21
-11.8278
  0
LINE
  8
0
 10
-16.7431
 20
-11.8278
 11
-17.5575
 21
-12.2304
  0
LINE
  8
0
 10
-17.5575
 20
-12.2304
 11
-18.0171
 21
-12.2379
  0
LINE
  8
0
 10
-18.0171
 20
-12.2379
 11
-18.3185
 21
-11.971
  0
LINE
  8
0
 10
-18.3185
 20
-11.971
 11
-18.524
 21
-11.4572
  0
LINE
  8
0
 10
-18.524
 20
-11.4572
 11
-18.7
 21
-10.4013
  0
LINE
  8
0
 10
-18.7
 20
-10.4013
 11
-18.7
 21
-9.36569
  0
LINE
  8
0
 10
-18.7
 20
-9.36569
 11
-18.5112
 21
-8.10919
  0
LINE
  8
0
 10
-18.5112
 20
-8.10919
 11
-17.7491
 21
-5.52322
  0
LINE
  8
0
 10
-17.7491
 20
-5.52322
 11
-17.1119
 21
-3.77386
  0
LINE
  8
0
 10
-17.1119
 20
-3.77386
 11
-17.01
 21
-3
  0
LINE
  8
0
 10
-17.01
 20
-3
 11
-17.1119
 21
-2.22612
  0
LINE
  8
0
 10
-17.1119
 20
-2.22612
 11
-17.7491
 21
-0.476761
  0
LINE
  8
0
 10
-17.7491
 20
-0.476761
 11
-17.8896
 21
0
  0
LINE
  8
0
 10
-17.8896
 20
0
 11
-17.7491
 21
0.476761
  0
LINE
  8
0
 10
-17.7491
 20
0.476761
 11
-17.1119
 21
2.22612
  0
LINE
  8
0
 10
-17.1119
 20
2.22612
 11
-17.01
 21
3
  0
LINE
  8
0
 10
-17.01
 20
3
 11
-17.1119
 21
3.77386
  0
LINE
  8
0
 10
-17.1119
 20
3.77386
 11
-17.7491
 21
5.52322
  0
LINE
  8
0
 10
-17.7491
 20
5.52322
 11
-18.5112
 21
8.10919
  0
LINE
  8
0
 10
-18.5112
 20
8.10919
 11
-18.7
 21
9.36569
  0
LINE
  8
0
 10
-18.7
 20
9.36569
 11
-18.7
 21
10.4013
  0
LINE
  8
0
 10
-18.7
 20
10.4013
 11
-18.524
 21
11.4572
  0
LINE
  8
0
 10
-18.524
 20
11.4572
 11
-18.3185
 21
11.971
  0
LINE
  8
0
 10
-18.3185
 20
11.971
 11
-18.0171
 21
12.2379
  0
LINE
  8
0
 10
-18.0171
 20
12.2379
 11
-17.5575
 21
12.2304
  0
LINE
  8
0
 10
-17.5575
 20
12.2304
 11
-16.7431
 21
11.8278
  0
LINE
  8
0
 10
-16.7431
 20
11.8278
 11
-11.3
 21
7.74832
  0
ENDSEC
  0
SECTION
  2
OBJECTS
  0
DICTIONARY
  0
ENDSEC
  0
EOF
