999
dxflib 3.7.5.0
  0
SECTION
  2
HEADER
  9
$ACADVER
  1
AC1015
  9
$HANDSEED
  5
FFFF
  9
$DIMADEC
 70
0
  9
$DIMASZ
 40
2.5
  9
$DIMAUNIT
 70
0
  9
$DIMAZIN
 70
2
  9
$DIMDEC
 70
4
  9
$DIMEXE
 40
1.25
  9
$DIMEXO
 40
0.625
  9
$DIMGAP
 40
0.625
  9
$DIMLUNIT
 70
2
  9
$DIMSCALE
 40
1.0
  9
$DIMTSZ
 40
0.0
  9
$DIMTXT
 40
2.5
  9
$DIMZIN
 70
8
  9
$DWGCODEPAGE
  3
ANSI_1252
  9
$INSUNITS
 70
4
  9
$LTSCALE
 40
1.0
  9
$MEASUREMENT
 70
1
  9
$PDMODE
 70
0
  9
$PDSIZE
 40
0
  0
ENDSEC
  0
SECTION
  2
TABLES
  0
TABLE
  2
VPORT
  5
8
100
AcDbSymbolTable
 70
1
  0
VPORT
  5
30
100
AcDbSymbolTableRecord
100
AcDbViewportTableRecord
  2
*Active
 70
0
 10
0.0
 20
0.0
 11
1.0
 21
1.0
 12
286.30555555555549
 22
148.5
 13
0.0
 23
0.0
 14
10.0
 24
10.0
 15
10.0
 25
10.0
 16
0.0
 26
0.0
 36
1.0
 17
0.0
 27
0.0
 37
0.0
 40
297.0
 41
1.92798353909465
 42
50.0
 43
0.0
 44
0.0
 50
0.0
 51
0.0
 71
0
 72
100
 73
1
 74
3
 75
1
 76
1
 77
0
 78
0
281
0
 65
1
110
0.0
120
0.0
130
0.0
111
1.0
121
0.0
131
0.0
112
0.0
122
1.0
132
0.0
 79
0
146
0.0
  0
ENDTAB
  0
TABLE
  2
LTYPE
  5
5
100
AcDbSymbolTable
 70
41
  0
LTYPE
  5
16
100
AcDbSymbolTableRecord
100
AcDbLinetypeTableRecord
  2
Continuous
 70
0
  3
Solid line
 72
65
 73
0
 40
0.0
  0
LTYPE
  5
31
100
AcDbSymbolTableRecord
100
AcDbLinetypeTableRecord
  2
ACAD_ISO15W100
 70
0
  3
ISO double-dash triple-dot __ __ . . . __ __ . .
 72
65
 73
10
 40
39.000000000000007
 49
12.0
 74
0
 49
-3.0
 74
0
 49
12.0
 74
0
 49
-2.9500000000000002
 74
0
 49
0.1
 74
0
 49
-2.9000000000000004
 74
0
 49
0.1
 74
0
 49
-2.9000000000000004
 74
0
 49
0.1
 74
0
 49
-2.9500000000000002
 74
0
  0
LTYPE
  5
32
100
AcDbSymbolTableRecord
100
AcDbLinetypeTableRecord
  2
DIVIDE
 70
0
  3
Divide ____ . . ____ . . ____ . . ____ . . ____
 72
65
 73
6
 40
31.750000000000004
 49
12.699999999999999
 74
0
 49
-6.2999999999999998
 74
0
 49
0.1
 74
0
 49
-6.25
 74
0
 49
0.1
 74
0
 49
-6.2999999999999998
 74
0
  0
LTYPE
  5
33
100
AcDbSymbolTableRecord
100
AcDbLinetypeTableRecord
  2
ACAD_ISO10W100
 70
0
  3
ISO dash dot __ . __ . __ . __ . __ . __ . __ . 
 72
65
 73
4
 40
18.0
 49
12.0
 74
0
 49
-2.9500000000000002
 74
0
 49
0.1
 74
0
 49
-2.9500000000000002
 74
0
  0
LTYPE
  5
34
100
AcDbSymbolTableRecord
100
AcDbLinetypeTableRecord
  2
ACAD_ISO04W100
 70
0
  3
ISO long-dash dot ____ . ____ . ____ . ____ . _
 72
65
 73
4
 40
30.0
 49
24.0
 74
0
 49
-2.9500000000000002
 74
0
 49
0.1
 74
0
 49
-2.9500000000000002
 74
0
  0
LTYPE
  5
35
100
AcDbSymbolTableRecord
100
AcDbLinetypeTableRecord
  2
CENTER2
 70
0
  3
Center (.5x) ___ _ ___ _ ___ _ ___ _ ___ _ ___
 72
65
 73
4
 40
28.575000000000003
 49
19.050000000000001
 74
0
 49
-3.1749999999999998
 74
0
 49
3.1749999999999998
 74
0
 49
-3.1749999999999998
 74
0
  0
LTYPE
  5
36
100
AcDbSymbolTableRecord
100
AcDbLinetypeTableRecord
  2
ACAD_ISO11W100
 70
0
  3
ISO double-dash dot __ __ . __ __ . __ __ . __ _
 72
65
 73
6
 40
33.0
 49
12.0
 74
0
 49
-3.0
 74
0
 49
12.0
 74
0
 49
-2.9500000000000002
 74
0
 49
0.1
 74
0
 49
-2.9500000000000002
 74
0
  0
LTYPE
  5
37
100
AcDbSymbolTableRecord
100
AcDbLinetypeTableRecord
  2
HIDDEN2
 70
0
  3
Hidden (.5x) _ _ _ _ _ _ _ _ _ _ _ _ _ _ _ _ _ 
 72
65
 73
2
 40
4.7624999999999993
 49
3.1749999999999998
 74
0
 49
-1.5874999999999999
 74
0
  0
LTYPE
  5
38
100
AcDbSymbolTableRecord
100
AcDbLinetypeTableRecord
  2
BORDERX2
 70
0
  3
Border (2x) ____  ____  .  ____  ____  .  ___
 72
65
 73
6
 40
88.899999999999977
 49
25.399999999999999
 74
0
 49
-12.699999999999999
 74
0
 49
25.399999999999999
 74
0
 49
-12.649999999999999
 74
0
 49
0.1
 74
0
 49
-12.649999999999999
 74
0
  0
LTYPE
  5
39
100
AcDbSymbolTableRecord
100
AcDbLinetypeTableRecord
  2
ACAD_ISO05W100
 70
0
  3
ISO long-dash double-dot ____ .. ____ .. ____ . 
 72
65
 73
6
 40
33.000000000000007
 49
24.0
 74
0
 49
-2.9500000000000002
 74
0
 49
0.1
 74
0
 49
-2.9000000000000004
 74
0
 49
0.1
 74
0
 49
-2.9500000000000002
 74
0
  0
LTYPE
  5
3A
100
AcDbSymbolTableRecord
100
AcDbLinetypeTableRecord
  2
DASHDOTX2
 70
0
  3
Dash dot (2x) ____  .  ____  .  ____  .  ___
 72
65
 73
4
 40
50.799999999999997
 49
25.399999999999999
 74
0
 49
-12.649999999999999
 74
0
 49
0.1
 74
0
 49
-12.649999999999999
 74
0
  0
LTYPE
  5
3B
100
AcDbSymbolTableRecord
100
AcDbLinetypeTableRecord
  2
HIDDENX2
 70
0
  3
Hidden (2x) ____ ____ ____ ____ ____ ____ ____ 
 72
65
 73
2
 40
19.049999999999997
 49
12.699999999999999
 74
0
 49
-6.3499999999999996
 74
0
  0
LTYPE
  5
3C
100
AcDbSymbolTableRecord
100
AcDbLinetypeTableRecord
  2
CENTERX2
 70
0
  3
Center (2x) ________  __  ________  __  _____
 72
65
 73
4
 40
101.60000000000001
 49
63.5
 74
0
 49
-12.699999999999999
 74
0
 49
12.699999999999999
 74
0
 49
-12.699999999999999
 74
0
  0
LTYPE
  5
3D
100
AcDbSymbolTableRecord
100
AcDbLinetypeTableRecord
  2
BORDER2
 70
0
  3
Border (.5x) __.__.__.__.__.__.__.__.__.__.__.
 72
65
 73
6
 40
22.225000000000001
 49
6.3499999999999996
 74
0
 49
-3.1749999999999998
 74
0
 49
6.3499999999999996
 74
0
 49
-3.125
 74
0
 49
0.1
 74
0
 49
-3.125
 74
0
  0
LTYPE
  5
3E
100
AcDbSymbolTableRecord
100
AcDbLinetypeTableRecord
  2
DASHDOT2
 70
0
  3
Dash dot (.5x) _._._._._._._._._._._._._._._.
 72
65
 73
4
 40
12.699999999999999
 49
6.3499999999999996
 74
0
 49
-3.125
 74
0
 49
0.1
 74
0
 49
-3.125
 74
0
  0
LTYPE
  5
3F
100
AcDbSymbolTableRecord
100
AcDbLinetypeTableRecord
  2
ACAD_ISO12W100
 70
0
  3
ISO dash double-dot __ . . __ . . __ . . __ . . 
 72
65
 73
6
 40
21.0
 49
12.0
 74
0
 49
-2.9500000000000002
 74
0
 49
0.1
 74
0
 49
-2.9000000000000004
 74
0
 49
0.1
 74
0
 49
-2.9500000000000002
 74
0
  0
LTYPE
  5
40
100
AcDbSymbolTableRecord
100
AcDbLinetypeTableRecord
  2
ACAD_ISO07W100
 70
0
  3
ISO dot . . . . . . . . . . . . . . . . . . . . 
 72
65
 73
2
 40
3.0
 49
0.1
 74
0
 49
-2.8999999999999999
 74
0
  0
LTYPE
  5
41
100
AcDbSymbolTableRecord
100
AcDbLinetypeTableRecord
  2
HIDDEN
 70
0
  3
Hidden __ __ __ __ __ __ __ __ __ __ __ __ __ __
 72
65
 73
2
 40
9.5249999999999986
 49
6.3499999999999996
 74
0
 49
-3.1749999999999998
 74
0
  0
LTYPE
  5
42
100
AcDbSymbolTableRecord
100
AcDbLinetypeTableRecord
  2
ACAD_ISO06W100
 70
0
  3
ISO long-dash triple-dot ____ ... ____ ... ____
 72
65
 73
8
 40
36.000000000000007
 49
24.0
 74
0
 49
-2.9500000000000002
 74
0
 49
0.1
 74
0
 49
-2.9000000000000004
 74
0
 49
0.1
 74
0
 49
-2.9000000000000004
 74
0
 49
0.1
 74
0
 49
-2.9500000000000002
 74
0
  0
LTYPE
  5
43
100
AcDbSymbolTableRecord
100
AcDbLinetypeTableRecord
  2
CENTER
 70
0
  3
Center ____ _ ____ _ ____ _ ____ _ ____ _ ____
 72
65
 73
4
 40
50.800000000000004
 49
31.75
 74
0
 49
-6.3499999999999996
 74
0
 49
6.3499999999999996
 74
0
 49
-6.3499999999999996
 74
0
  0
LTYPE
  5
44
100
AcDbSymbolTableRecord
100
AcDbLinetypeTableRecord
  2
DOTX2
 70
0
  3
Dot (2x) .  .  .  .  .  .  .  .  .  .  .  .  .  .
 72
65
 73
2
 40
12.699999999999999
 49
0.1
 74
0
 49
-12.6
 74
0
  0
LTYPE
  5
45
100
AcDbSymbolTableRecord
100
AcDbLinetypeTableRecord
  2
PHANTOM
 70
0
  3
Phantom ______  __  __  ______  __  __  ______ 
 72
65
 73
6
 40
63.500000000000007
 49
31.75
 74
0
 49
-6.3499999999999996
 74
0
 49
6.3499999999999996
 74
0
 49
-6.3499999999999996
 74
0
 49
6.3499999999999996
 74
0
 49
-6.3499999999999996
 74
0
  0
LTYPE
  5
46
100
AcDbSymbolTableRecord
100
AcDbLinetypeTableRecord
  2
ACAD_ISO08W100
 70
0
  3
ISO long-dash short-dash ____ __ ____ __ ____ _
 72
65
 73
4
 40
36.0
 49
24.0
 74
0
 49
-3.0
 74
0
 49
6.0
 74
0
 49
-3.0
 74
0
  0
LTYPE
  5
47
100
AcDbSymbolTableRecord
100
AcDbLinetypeTableRecord
  2
DASHEDX2
 70
0
  3
Dashed (2x) ____  ____  ____  ____  ____  ___
 72
65
 73
2
 40
38.099999999999994
 49
25.399999999999999
 74
0
 49
-12.699999999999999
 74
0
  0
LTYPE
  5
48
100
AcDbSymbolTableRecord
100
AcDbLinetypeTableRecord
  2
ACAD_ISO02W100
 70
0
  3
ISO dash __ __ __ __ __ __ __ __ __ __ __ __ __
 72
65
 73
2
 40
15.0
 49
12.0
 74
0
 49
-3.0
 74
0
  0
LTYPE
  5
49
100
AcDbSymbolTableRecord
100
AcDbLinetypeTableRecord
  2
PHANTOM2
 70
0
  3
Phantom (.5x) ___ _ _ ___ _ _ ___ _ _ ___ _ _
 72
65
 73
6
 40
31.750000000000004
 49
15.875
 74
0
 49
-3.1749999999999998
 74
0
 49
3.1749999999999998
 74
0
 49
-3.1749999999999998
 74
0
 49
3.1749999999999998
 74
0
 49
-3.1749999999999998
 74
0
  0
LTYPE
  5
4A
100
AcDbSymbolTableRecord
100
AcDbLinetypeTableRecord
  2
DASHED2
 70
0
  3
Dashed (.5x) _ _ _ _ _ _ _ _ _ _ _ _ _ _ _ _ _ 
 72
65
 73
2
 40
9.5249999999999986
 49
6.3499999999999996
 74
0
 49
-3.1749999999999998
 74
0
  0
LTYPE
  5
4B
100
AcDbSymbolTableRecord
100
AcDbLinetypeTableRecord
  2
ACAD_ISO09W100
 70
0
  3
ISO long-dash double-short-dash ____ __ __ ____
 72
65
 73
6
 40
45.0
 49
24.0
 74
0
 49
-3.0
 74
0
 49
6.0
 74
0
 49
-3.0
 74
0
 49
6.0
 74
0
 49
-3.0
 74
0
  0
LTYPE
  5
4C
100
AcDbSymbolTableRecord
100
AcDbLinetypeTableRecord
  2
ACAD_ISO13W100
 70
0
  3
ISO double-dash double-dot __ __ . . __ __ . . _
 72
65
 73
8
 40
36.000000000000007
 49
12.0
 74
0
 49
-3.0
 74
0
 49
12.0
 74
0
 49
-2.9500000000000002
 74
0
 49
0.1
 74
0
 49
-2.9000000000000004
 74
0
 49
0.1
 74
0
 49
-2.9500000000000002
 74
0
  0
LTYPE
  5
4D
100
AcDbSymbolTableRecord
100
AcDbLinetypeTableRecord
  2
DOT2
 70
0
  3
Dot (.5x) ........................................
 72
65
 73
2
 40
3.1749999999999998
 49
0.1
 74
0
 49
-3.0749999999999997
 74
0
  0
LTYPE
  5
4E
100
AcDbSymbolTableRecord
100
AcDbLinetypeTableRecord
  2
DASHED
 70
0
  3
Dashed __ __ __ __ __ __ __ __ __ __ __ __ __ _
 72
65
 73
2
 40
19.049999999999997
 49
12.699999999999999
 74
0
 49
-6.3499999999999996
 74
0
  0
LTYPE
  5
4F
100
AcDbSymbolTableRecord
100
AcDbLinetypeTableRecord
  2
ACAD_ISO14W100
 70
0
  3
ISO dash triple-dot __ . . . __ . . . __ . . . _
 72
65
 73
8
 40
24.000000000000004
 49
12.0
 74
0
 49
-2.9500000000000002
 74
0
 49
0.1
 74
0
 49
-2.9000000000000004
 74
0
 49
0.1
 74
0
 49
-2.9000000000000004
 74
0
 49
0.1
 74
0
 49
-2.9500000000000002
 74
0
  0
LTYPE
  5
15
100
AcDbSymbolTableRecord
100
AcDbLinetypeTableRecord
  2
BYLAYER
 70
0
  3

 72
65
 73
0
 40
0.0
  0
LTYPE
  5
50
100
AcDbSymbolTableRecord
100
AcDbLinetypeTableRecord
  2
PHANTOMX2
 70
0
  3
Phantom (2x) ____________    ____    ____   _
 72
65
 73
6
 40
127.00000000000001
 49
63.5
 74
0
 49
-12.699999999999999
 74
0
 49
12.699999999999999
 74
0
 49
-12.699999999999999
 74
0
 49
12.699999999999999
 74
0
 49
-12.699999999999999
 74
0
  0
LTYPE
  5
14
100
AcDbSymbolTableRecord
100
AcDbLinetypeTableRecord
  2
BYBLOCK
 70
0
  3

 72
65
 73
0
 40
0.0
  0
LTYPE
  5
51
100
AcDbSymbolTableRecord
100
AcDbLinetypeTableRecord
  2
DIVIDEX2
 70
0
  3
Divide (2x) ________  .  .  ________  .  .  _
 72
65
 73
6
 40
63.5
 49
25.399999999999999
 74
0
 49
-12.649999999999999
 74
0
 49
0.1
 74
0
 49
-12.599999999999998
 74
0
 49
0.1
 74
0
 49
-12.649999999999999
 74
0
  0
LTYPE
  5
52
100
AcDbSymbolTableRecord
100
AcDbLinetypeTableRecord
  2
BORDER
 70
0
  3
Border __ __ . __ __ . __ __ . __ __ . __ __ .
 72
65
 73
6
 40
44.449999999999996
 49
12.699999999999999
 74
0
 49
-6.3499999999999996
 74
0
 49
12.699999999999999
 74
0
 49
-6.2999999999999998
 74
0
 49
0.1
 74
0
 49
-6.2999999999999998
 74
0
  0
LTYPE
  5
53
100
AcDbSymbolTableRecord
100
AcDbLinetypeTableRecord
  2
DIVIDE2
 70
0
  3
Divide (.5x) __..__..__..__..__..__..__..__.._
 72
65
 73
6
 40
15.874999999999998
 49
6.3499999999999996
 74
0
 49
-3.125
 74
0
 49
0.1
 74
0
 49
-3.0750000000000002
 74
0
 49
0.1
 74
0
 49
-3.125
 74
0
  0
LTYPE
  5
54
100
AcDbSymbolTableRecord
100
AcDbLinetypeTableRecord
  2
DOT
 70
0
  3
Dot . . . . . . . . . . . . . . . . . . . . . . . .
 72
65
 73
2
 40
6.3499999999999996
 49
0.1
 74
0
 49
-6.25
 74
0
  0
LTYPE
  5
55
100
AcDbSymbolTableRecord
100
AcDbLinetypeTableRecord
  2
DASHDOT
 70
0
  3
Dash dot __ . __ . __ . __ . __ . __ . __ . __
 72
65
 73
4
 40
25.400000000000002
 49
12.699999999999999
 74
0
 49
-6.2999999999999998
 74
0
 49
0.1
 74
0
 49
-6.2999999999999998
 74
0
  0
LTYPE
  5
56
100
AcDbSymbolTableRecord
100
AcDbLinetypeTableRecord
  2
ACAD_ISO03W100
 70
0
  3
ISO dash space __    __    __    __    __    __
 72
65
 73
2
 40
30.0
 49
12.0
 74
0
 49
-18.0
 74
0
  0
ENDTAB
  0
TABLE
  2
LAYER
  5
2
100
AcDbSymbolTable
 70
2
  0
LAYER
  5
57
100
AcDbSymbolTableRecord
100
AcDbLayerTableRecord
  2
Topplate
 70
0
 62
4
420
65535
  6
Continuous
370
25
390
F
  0
LAYER
  5
10
100
AcDbSymbolTableRecord
100
AcDbLayerTableRecord
  2
0
 70
1
 62
-7
420
16777215
  6
Continuous
370
25
390
F
  0
ENDTAB
  0
TABLE
  2
STYLE
  5
3
100
AcDbSymbolTable
 70
1
  0
STYLE
  5
58
100
AcDbSymbolTableRecord
100
AcDbTextStyleTableRecord
  2
Standard
 70
0
 40
0.0
 41
1.0
 50
0.0
 71
0
 42
2.5
  3

  4

1001
ACAD
1000
txt
1071
0
  0
ENDTAB
  0
TABLE
  2
VIEW
  5
6
100
AcDbSymbolTable
 70
0
  0
ENDTAB
  0
TABLE
  2
UCS
  5
7
100
AcDbSymbolTable
 70
0
  0
ENDTAB
  0
TABLE
  2
APPID
  5
9
100
AcDbSymbolTable
 70
1
  0
APPID
  5
12
100
AcDbSymbolTableRecord
100
AcDbRegAppTableRecord
  2
ACAD
 70
0
  0
APPID
  5
59
100
AcDbSymbolTableRecord
100
AcDbRegAppTableRecord
  2
QCAD
 70
0
  0
ENDTAB
  0
TABLE
  2
DIMSTYLE
  5
A
100
AcDbSymbolTable
 70
1
100
AcDbDimStyleTable
 71
0
  0
DIMSTYLE
105
27
100
AcDbSymbolTableRecord
100
AcDbDimStyleTableRecord
  2
Standard
 41
2.5
 42
0.625
 43
3.75
 44
1.25
 70
0
 73
0
 74
0
 77
1
 78
8
140
2.5
141
2.5
143
0.03937007874016
147
0.625
171
3
172
1
271
2
272
2
274
3
278
44
283
0
284
8
340
58
  0
ENDTAB
  0
TABLE
  2
BLOCK_RECORD
  5
1
100
AcDbSymbolTable
 70
1
  0
BLOCK_RECORD
  5
1F
100
AcDbSymbolTableRecord
100
AcDbBlockTableRecord
  2
*Model_Space
340
22
  0
BLOCK_RECORD
  5
1B
100
AcDbSymbolTableRecord
100
AcDbBlockTableRecord
  2
*Paper_Space
340
1E
  0
BLOCK_RECORD
  5
23
100
AcDbSymbolTableRecord
100
AcDbBlockTableRecord
  2
*Paper_Space0
340
26
  0
ENDTAB
  0
ENDSEC
  0
SECTION
  2
BLOCKS
  0
BLOCK
  5
20
100
AcDbEntity
  8
0
100
AcDbBlockBegin
  2
*Model_Space
 70
0
 10
0.0
 20
0.0
 30
0.0
  3
*Model_Space
  1

  0
ENDBLK
  5
21
100
AcDbEntity
  8
0
100
AcDbBlockEnd
  0
BLOCK
  5
1C
100
AcDbEntity
 67
1
  8
0
100
AcDbBlockBegin
  2
*Paper_Space
 70
0
 10
0.0
 20
0.0
 30
0.0
  3
*Paper_Space
  1

  0
ENDBLK
  5
1D
100
AcDbEntity
 67
1
  8
0
100
AcDbBlockEnd
  0
BLOCK
  5
24
100
AcDbEntity
  8
0
100
AcDbBlockBegin
  2
*Paper_Space0
 70
0
 10
0.0
 20
0.0
 30
0.0
  3
*Paper_Space0
  1

  0
ENDBLK
  5
25
100
AcDbEntity
  8
0
100
AcDbBlockEnd
  0
ENDSEC
  0
SECTION
  2
ENTITIES
  0
LINE
  5
5A
100
AcDbEntity
100
AcDbLine
  8
Topplate
 62
256
370
-1
 48
1.0
  6
BYLAYER
 10
13.296797568130714
 20
38.772722203069748
 30
0.0
 11
16.872868574104899
 21
37.589211712295224
 31
0.0
  0
ARC
  5
5B
100
AcDbEntity
  8
Topplate
 62
256
370
-1
 48
1.0
  6
BYLAYER
100
AcDbCircle
 10
-55.691613468160796
 20
31.432057862691906
 30
0.0
 40
37.680511621003454
100
AcDbArc
 50
348.74622697769985
 51
6.1626995635356296
  0
ARC
  5
5C
100
AcDbEntity
  8
Topplate
 62
256
370
-1
 48
1.0
  6
BYLAYER
100
AcDbCircle
 10
55.691613468160796
 20
31.432057862691906
 30
0.0
 40
37.680511621003454
100
AcDbArc
 50
173.83730043646432
 51
191.25377302230015
  0
ARC
  5
5D
100
AcDbEntity
  8
Topplate
 62
256
370
-1
 48
1.0
  6
BYLAYER
100
AcDbCircle
 10
-0.0935438970157065
 20
37.94802774890794
 30
0.0
 40
10.348450548407609
100
AcDbArc
 50
196.80607854747754
 51
270.51792714923329
  0
ARC
  5
5E
100
AcDbEntity
  8
Topplate
 62
256
370
-1
 48
1.0
  6
BYLAYER
100
AcDbCircle
 10
0.0979010520667911
 20
37.942104438225648
 30
0.0
 40
10.342567806263707
100
AcDbArc
 50
269.45763944027323
 51
343.2183548630158
  0
ARC
  5
5F
100
AcDbEntity
  8
Topplate
 62
256
370
-1
 48
1.0
  6
BYLAYER
100
AcDbCircle
 10
-16.240413042071225
 20
35.691845116194187
 30
0.0
 40
2.0
100
AcDbArc
 50
108.43494882292184
 51
186.16269956353565
  0
ARC
  5
60
100
AcDbEntity
  8
Topplate
 62
256
370
-1
 48
1.0
  6
BYLAYER
100
AcDbCircle
 10
16.240413042071225
 20
35.691845116194187
 30
0.0
 40
2.0
100
AcDbArc
 50
353.83730043646432
 51
71.565051177078161
  0
ARC
  5
61
100
AcDbEntity
  8
Topplate
 62
256
370
-1
 48
1.0
  6
BYLAYER
100
AcDbCircle
 10
30.108656375619063
 20
-10.564022773441632
 30
0.0
 40
18.518108501300151
100
AcDbArc
 50
178.77253520555976
 51
213.5267038961303
  0
ARC
  5
62
100
AcDbEntity
  8
Topplate
 62
256
370
-1
 48
1.0
  6
BYLAYER
100
AcDbCircle
 10
-30.108656375619063
 20
-10.564022773441632
 30
0.0
 40
18.518108501300151
100
AcDbArc
 50
326.4732961038697
 51
1.2274647944402481
  0
ARC
  5
63
100
AcDbEntity
  8
Topplate
 62
256
370
-1
 48
1.0
  6
BYLAYER
100
AcDbCircle
 10
35.774115126695371
 20
3.2338881084983448
 30
0.0
 40
24.208075123735192
100
AcDbArc
 50
139.41130842151475
 51
177.2069803707721
  0
ARC
  5
64
100
AcDbEntity
  8
Topplate
 62
256
370
-1
 48
1.0
  6
BYLAYER
100
AcDbCircle
 10
-35.774115126695435
 20
3.2338881084983715
 30
0.0
 40
24.208075123735252
100
AcDbArc
 50
2.7930196292277727
 51
40.588691578485189
  0
LINE
  5
65
100
AcDbEntity
100
AcDbLine
  8
Topplate
 62
256
370
-1
 48
1.0
  6
BYLAYER
 10
11.594797227642047
 20
4.4135012369968507
 30
0.0
 11
11.594797227642047
 21
-10.167334085938672
 31
0.0
  0
LINE
  5
66
100
AcDbEntity
100
AcDbLine
  8
Topplate
 62
256
370
-1
 48
1.0
  6
BYLAYER
 10
-11.594797227642047
 20
4.4135012369968507
 30
0.0
 11
-11.594797227642047
 21
-10.167334085938672
 31
0.0
  0
ARC
  5
67
100
AcDbEntity
  8
Topplate
 62
256
370
-1
 48
1.0
  6
BYLAYER
100
AcDbCircle
 10
-12.850971887177536
 20
22.907591638795751
 30
0.0
 40
6.0
100
AcDbArc
 50
168.74622697769988
 51
220.83554293228735
  0
ARC
  5
68
100
AcDbEntity
  8
Topplate
 62
256
370
-1
 48
1.0
  6
BYLAYER
100
AcDbCircle
 10
12.850971887177536
 20
22.907591638795751
 30
0.0
 40
6.0
100
AcDbArc
 50
319.16445706771265
 51
11.253773022300138
  0
LINE
  5
69
100
AcDbEntity
100
AcDbLine
  8
Topplate
 62
256
370
-1
 48
1.0
  6
BYLAYER
 10
10.104731997685803
 20
-38.833127314608333
 30
0.0
 11
7.0669314227988735
 21
-38.20934288280742
 31
0.0
  0
LINE
  5
6A
100
AcDbEntity
100
AcDbLine
  8
Topplate
 62
256
370
-1
 48
1.0
  6
BYLAYER
 10
-10.104731997685775
 20
-38.833127314608333
 30
0.0
 11
-7.0669314227988735
 21
-38.20934288280742
 31
0.0
  0
LINE
  5
6B
100
AcDbEntity
100
AcDbLine
  8
Topplate
 62
256
370
-1
 48
1.0
  6
BYLAYER
 10
4.5527864045000399
 20
-34.892071572003232
 30
0.0
 11
5.67892655765462
 21
-37.144351878312392
 31
0.0
  0
LINE
  5
6C
100
AcDbEntity
100
AcDbLine
  8
Topplate
 62
256
370
-1
 48
1.0
  6
BYLAYER
 10
-4.5527864045000399
 20
-34.892071572003246
 30
0.0
 11
-5.6789265576546057
 21
-37.144351878312392
 31
0.0
  0
ARC
  5
6D
100
AcDbEntity
  8
Topplate
 62
256
370
-1
 48
1.0
  6
BYLAYER
100
AcDbCircle
 10
7.4677809396544603
 20
-36.249924687312486
 30
0.0
 40
2.0
100
AcDbArc
 50
206.56505117707792
 51
258.43820115824542
  0
ARC
  5
6E
100
AcDbEntity
  8
Topplate
 62
256
370
-1
 48
1.0
  6
BYLAYER
100
AcDbCircle
 10
-7.4677809396544603
 20
-36.249924687312486
 30
0.0
 40
2.0
100
AcDbArc
 50
281.56179884175458
 51
333.43494882292208
  0
ARC
  5
6F
100
AcDbEntity
  8
Topplate
 62
256
370
-1
 48
1.0
  6
BYLAYER
100
AcDbCircle
 10
2.7639320225002137
 20
-35.786498763003152
 30
0.0
 40
2.0
100
AcDbArc
 50
26.565051177077923
 51
90.000000000000014
  0
ARC
  5
70
100
AcDbEntity
  8
Topplate
 62
256
370
-1
 48
1.0
  6
BYLAYER
100
AcDbCircle
 10
-2.7639320225001995
 20
-35.786498763003152
 30
0.0
 40
2.0
100
AcDbArc
 50
89.999999999999972
 51
153.43494882292208
  0
LINE
  5
71
100
AcDbEntity
100
AcDbLine
  8
Topplate
 62
256
370
-1
 48
1.0
  6
BYLAYER
 10
0.0
 20
-33.786498763003152
 30
0.0
 11
-2.7639320225001995
 21
-33.786498763003152
 31
0.0
  0
LINE
  5
72
100
AcDbEntity
100
AcDbLine
  8
Topplate
 62
256
370
-1
 48
1.0
  6
BYLAYER
 10
0.0
 20
-33.786498763003152
 30
0.0
 11
2.7639320225001995
 21
-33.786498763003152
 31
0.0
  0
LINE
  5
73
100
AcDbEntity
100
AcDbLine
  8
Topplate
 62
256
370
-1
 48
1.0
  6
BYLAYER
 10
0.0
 20
-33.786498763003152
 30
0.0
 11
2.7639320225002137
 21
-33.786498763003152
 31
0.0
  0
LINE
  5
74
100
AcDbEntity
100
AcDbLine
  8
Topplate
 62
256
370
-1
 48
1.0
  6
BYLAYER
 10
0.0
 20
-33.786498763003152
 30
0.0
 11
-2.7639320225001995
 21
-33.786498763003152
 31
0.0
  0
CIRCLE
  5
75
100
AcDbEntity
100
AcDbCircle
  8
Topplate
 62
256
370
-1
 48
1.0
  6
BYLAYER
 10
9.0
 20
-34.786498763003152
 30
0.0
 40
1.4749999999999996
  0
CIRCLE
  5
76
100
AcDbEntity
100
AcDbCircle
  8
Topplate
 62
256
370
-1
 48
1.0
  6
BYLAYER
 10
-9.0000000000000142
 20
-34.786498763003152
 30
0.0
 40
1.4749999999999996
  0
CIRCLE
  5
77
100
AcDbEntity
100
AcDbCircle
  8
Topplate
 62
256
370
-1
 48
1.0
  6
BYLAYER
 10
-14.0
 20
34.213501236996848
 30
0.0
 40
1.4749999999999996
  0
CIRCLE
  5
78
100
AcDbEntity
100
AcDbCircle
  8
Topplate
 62
256
370
-1
 48
1.0
  6
BYLAYER
 10
14.0
 20
34.213501236996848
 30
0.0
 40
1.4749999999999996
  0
ARC
  5
79
100
AcDbEntity
  8
Topplate
 62
256
370
-1
 48
1.0
  6
BYLAYER
100
AcDbCircle
 10
0.6961655161003648
 20
37.674448275055241
 30
0.0
 40
16.475661559268907
100
AcDbArc
 50
242.14691548845923
 51
267.57829301328997
  0
ARC
  5
7A
100
AcDbEntity
  8
Topplate
 62
256
370
-1
 48
1.0
  6
BYLAYER
100
AcDbCircle
 10
-0.696165516100649
 20
37.674448275055227
 30
0.0
 40
16.475661559268907
100
AcDbArc
 50
272.42170698671066
 51
297.85308451154134
  0
LINE
  5
7B
100
AcDbEntity
100
AcDbLine
  8
Topplate
 62
256
370
-1
 48
1.0
  6
BYLAYER
 10
1.0
 20
2.5677499259322616
 30
0.0
 11
1.0
 21
-14.737492720517988
 31
0.0
  0
LINE
  5
7C
100
AcDbEntity
100
AcDbLine
  8
Topplate
 62
256
370
-1
 48
1.0
  6
BYLAYER
 10
-1.0
 20
2.5677499259322616
 30
0.0
 11
-1.0
 21
-14.737492720517988
 31
0.0
  0
ARC
  5
7D
100
AcDbEntity
  8
Topplate
 62
256
370
-1
 48
1.0
  6
BYLAYER
100
AcDbCircle
 10
0.0
 20
5.2135012369968479
 30
0.0
 40
2.0
100
AcDbArc
 50
90.0
 51
221.40962210927083
  0
ARC
  5
7E
100
AcDbEntity
  8
Topplate
 62
256
370
-1
 48
1.0
  6
BYLAYER
100
AcDbCircle
 10
0.0
 20
5.2135012369968479
 30
0.0
 40
2.0
100
AcDbArc
 50
318.5903778907292
 51
90.0
  0
ARC
  5
7F
100
AcDbEntity
  8
Topplate
 62
256
370
-1
 48
1.0
  6
BYLAYER
100
AcDbCircle
 10
0.0
 20
5.2135012369968479
 30
0.0
 40
2.0
100
AcDbArc
 50
318.59037789072914
 51
90.0
  0
ARC
  5
80
100
AcDbEntity
  8
Topplate
 62
256
370
-1
 48
1.0
  6
BYLAYER
100
AcDbCircle
 10
0.0
 20
5.2135012369968479
 30
0.0
 40
2.0
100
AcDbArc
 50
90.0
 51
221.40962210927088
  0
ARC
  5
81
100
AcDbEntity
  8
Topplate
 62
256
370
-1
 48
1.0
  6
BYLAYER
100
AcDbCircle
 10
3.0
 20
2.5677499259322616
 30
0.0
 40
2.0
100
AcDbArc
 50
138.59037789072912
 51
180.0
  0
ARC
  5
82
100
AcDbEntity
  8
Topplate
 62
256
370
-1
 48
1.0
  6
BYLAYER
100
AcDbCircle
 10
-3.0
 20
2.5677499259322616
 30
0.0
 40
2.0
100
AcDbArc
 50
0.0
 51
41.409622109270884
  0
ARC
  5
83
100
AcDbEntity
  8
Topplate
 62
256
370
-1
 48
1.0
  6
BYLAYER
100
AcDbCircle
 10
3.0
 20
-25.786498763003149
 30
0.0
 40
1.0
100
AcDbArc
 50
0.0
 51
180.0
  0
ARC
  5
84
100
AcDbEntity
  8
Topplate
 62
256
370
-1
 48
1.0
  6
BYLAYER
100
AcDbCircle
 10
-2.9999999999999858
 20
-25.786498763003149
 30
0.0
 40
1.0
100
AcDbArc
 50
0.0
 51
180.0
  0
ARC
  5
85
100
AcDbEntity
  8
Topplate
 62
256
370
-1
 48
1.0
  6
BYLAYER
100
AcDbCircle
 10
3.0
 20
-29.786498763003152
 30
0.0
 40
1.0
100
AcDbArc
 50
180.0
 51
0.0
  0
ARC
  5
86
100
AcDbEntity
  8
Topplate
 62
256
370
-1
 48
1.0
  6
BYLAYER
100
AcDbCircle
 10
-3.0
 20
-29.786498763003152
 30
0.0
 40
1.0
100
AcDbArc
 50
180.0
 51
0.0
  0
LINE
  5
87
100
AcDbEntity
100
AcDbLine
  8
Topplate
 62
256
370
-1
 48
1.0
  6
BYLAYER
 10
-2.0
 20
-25.786498763003149
 30
0.0
 11
-1.9999999999999858
 21
-29.786498763003152
 31
0.0
  0
LINE
  5
88
100
AcDbEntity
100
AcDbLine
  8
Topplate
 62
256
370
-1
 48
1.0
  6
BYLAYER
 10
2.0
 20
-25.786498763003149
 30
0.0
 11
2.0
 21
-29.786498763003152
 31
0.0
  0
LINE
  5
89
100
AcDbEntity
100
AcDbLine
  8
Topplate
 62
256
370
-1
 48
1.0
  6
BYLAYER
 10
-4.0
 20
-29.786498763003152
 30
0.0
 11
-3.9999999999999858
 21
-25.786498763003149
 31
0.0
  0
LINE
  5
8A
100
AcDbEntity
100
AcDbLine
  8
Topplate
 62
256
370
-1
 48
1.0
  6
BYLAYER
 10
4.0
 20
-29.786498763003152
 30
0.0
 11
4.0
 21
-25.786498763003149
 31
0.0
  0
ARC
  5
8B
100
AcDbEntity
  8
Topplate
 62
256
370
-1
 48
1.0
  6
BYLAYER
100
AcDbCircle
 10
-0.0007346192931834
 20
-17.384871397292866
 30
0.0
 40
2.001627500516963
100
AcDbArc
 50
270.02102818130885
 51
41.430650290579699
  0
ARC
  5
8C
100
AcDbEntity
  8
Topplate
 62
256
370
-1
 48
1.0
  6
BYLAYER
100
AcDbCircle
 10
0.0007346192931976
 20
-17.384871397292866
 30
0.0
 40
2.001627500516963
100
AcDbArc
 50
138.56934970942029
 51
269.97897181869115
  0
ARC
  5
8D
100
AcDbEntity
  8
Topplate
 62
256
370
-1
 48
1.0
  6
BYLAYER
100
AcDbCircle
 10
0.0007346192931976
 20
-17.384871397292866
 30
0.0
 40
2.001627500516963
100
AcDbArc
 50
138.56934970942029
 51
269.97897181869115
  0
ARC
  5
8E
100
AcDbEntity
  8
Topplate
 62
256
370
-1
 48
1.0
  6
BYLAYER
100
AcDbCircle
 10
-0.0007346192931976
 20
-17.384871397292866
 30
0.0
 40
2.001627500516963
100
AcDbArc
 50
270.02102818130885
 51
41.430650290579678
  0
ARC
  5
8F
100
AcDbEntity
  8
Topplate
 62
256
370
-1
 48
1.0
  6
BYLAYER
100
AcDbCircle
 10
-3.0
 20
-14.737492720517988
 30
0.0
 40
2.0
100
AcDbArc
 50
318.59037789072914
 51
0.0
  0
ARC
  5
90
100
AcDbEntity
  8
Topplate
 62
256
370
-1
 48
1.0
  6
BYLAYER
100
AcDbCircle
 10
3.0
 20
-14.737492720517988
 30
0.0
 40
2.0
100
AcDbArc
 50
180.0
 51
221.40962210927088
  0
LINE
  5
91
100
AcDbEntity
100
AcDbLine
  8
Topplate
 62
256
370
-1
 48
1.0
  6
BYLAYER
 10
-15.746592511943987
 20
-27.217532875146258
 30
0.0
 11
-12.409183581868461
 21
-37.491882269440453
 31
0.0
  0
LINE
  5
92
100
AcDbEntity
100
AcDbLine
  8
Topplate
 62
256
370
-1
 48
1.0
  6
BYLAYER
 10
15.746592511944002
 20
-27.217532875146258
 30
0.0
 11
12.409183581868461
 21
-37.491882269440453
 31
0.0
  0
ARC
  5
93
100
AcDbEntity
  8
Topplate
 62
256
370
-1
 48
1.0
  6
BYLAYER
100
AcDbCircle
 10
-8.0024056350794126
 20
-25.210652306652289
 30
0.0
 40
8.0
100
AcDbArc
 50
146.47329610386967
 51
194.52841258632481
  0
ARC
  5
94
100
AcDbEntity
  8
Topplate
 62
256
370
-1
 48
1.0
  6
BYLAYER
100
AcDbCircle
 10
8.002405635079441
 20
-25.210652306652289
 30
0.0
 40
8.0
100
AcDbArc
 50
345.47158741367519
 51
33.526703896130336
  0
ARC
  5
95
100
AcDbEntity
  8
Topplate
 62
256
370
-1
 48
1.0
  6
BYLAYER
100
AcDbCircle
 10
-10.507019978200717
 20
-36.87400394413541
 30
0.0
 40
2.0
100
AcDbArc
 50
197.99531114098039
 51
281.6038644376269
  0
ARC
  5
96
100
AcDbEntity
  8
Topplate
 62
256
370
-1
 48
1.0
  6
BYLAYER
100
AcDbCircle
 10
10.507019978200731
 20
-36.87400394413541
 30
0.0
 40
2.0
100
AcDbArc
 50
258.3961355623731
 51
342.00468885901961
  0
LINE
  5
97
100
AcDbEntity
100
AcDbLine
  8
Topplate
 62
256
370
-1
 48
1.0
  6
BYLAYER
 10
-10.753804168148861
 20
37.452172197240742
 30
0.0
 11
-10.000000000000028
 21
34.955945491936603
 31
0.0
  0
LINE
  5
98
100
AcDbEntity
100
AcDbLine
  8
Topplate
 62
256
370
-1
 48
1.0
  6
BYLAYER
 10
10.753804168148861
 20
37.452172197240742
 30
0.0
 11
10.000000000000028
 21
34.955945491936603
 31
0.0
  0
ARC
  5
99
100
AcDbEntity
  8
Topplate
 62
256
370
-1
 48
1.0
  6
BYLAYER
100
AcDbCircle
 10
-12.668411561611308
 20
36.87400394413541
 30
0.0
 40
2.0
100
AcDbArc
 50
16.803131964243612
 51
108.31210301932653
  0
ARC
  5
9A
100
AcDbEntity
  8
Topplate
 62
256
370
-1
 48
1.0
  6
BYLAYER
100
AcDbCircle
 10
12.668411561611322
 20
36.87400394413541
 30
0.0
 40
2.0
100
AcDbArc
 50
71.687896980673472
 51
163.19686803575641
  0
ARC
  5
9B
100
AcDbEntity
  8
Topplate
 62
256
370
-1
 48
1.0
  6
BYLAYER
100
AcDbCircle
 10
-35.774115126695307
 20
3.2338881084979612
 30
0.0
 40
31.208075123735192
100
AcDbArc
 50
17.694765743058415
 51
33.038927548369891
  0
ARC
  5
9C
100
AcDbEntity
  8
Topplate
 62
256
370
-1
 48
1.0
  6
BYLAYER
100
AcDbCircle
 10
35.774115126695371
 20
3.2338881084983448
 30
0.0
 40
31.208075123735192
100
AcDbArc
 50
146.96107245163071
 51
162.30523425694224
  0
ARC
  5
9D
100
AcDbEntity
  8
Topplate
 62
256
370
-1
 48
1.0
  6
BYLAYER
100
AcDbCircle
 10
-7.9357744901871712
 20
21.339220031149381
 30
0.0
 40
2.0
100
AcDbArc
 50
62.146915488459186
 51
213.03892754836988
  0
ARC
  5
9E
100
AcDbEntity
  8
Topplate
 62
256
370
-1
 48
1.0
  6
BYLAYER
100
AcDbCircle
 10
7.9357744901870433
 20
21.339220031149456
 30
0.0
 40
2.0
100
AcDbArc
 50
326.96107245163074
 51
117.85308451154144
  0
LINE
  5
9F
100
AcDbEntity
100
AcDbLine
  8
Topplate
 62
256
370
-1
 48
1.0
  6
BYLAYER
 10
3.0
 20
1.0
 30
0.0
 11
3.0
 21
-13.575571099101946
 31
0.0
  0
LINE
  5
A0
100
AcDbEntity
100
AcDbLine
  8
Topplate
 62
256
370
-1
 48
1.0
  6
BYLAYER
 10
-3.0
 20
-8.0
 30
0.0
 11
-3.0
 21
-13.575571099101946
 31
0.0
  0
LINE
  5
A1
100
AcDbEntity
100
AcDbLine
  8
Topplate
 62
256
370
-1
 48
1.0
  6
BYLAYER
 10
3.1723769027594813
 20
-14.38784803120884
 30
0.0
 11
6.0519732630934797
 21
-20.866939841960317
 31
0.0
  0
LINE
  5
A2
100
AcDbEntity
100
AcDbLine
  8
Topplate
 62
256
370
-1
 48
1.0
  6
BYLAYER
 10
-3.1723769027594813
 20
-14.38784803120884
 30
0.0
 11
-6.0519732630934726
 21
-20.866939841960317
 31
0.0
  0
LINE
  5
A3
100
AcDbEntity
100
AcDbLine
  8
Topplate
 62
256
370
-1
 48
1.0
  6
BYLAYER
 10
5.0
 20
1.0
 30
0.0
 11
5.0
 21
-13.151142198203893
 31
0.0
  0
LINE
  5
A4
100
AcDbEntity
100
AcDbLine
  8
Topplate
 62
256
370
-1
 48
1.0
  6
BYLAYER
 10
-5.0
 20
-8.0
 30
0.0
 11
-5.0
 21
-13.151142198203896
 31
0.0
  0
LINE
  5
A5
100
AcDbEntity
100
AcDbLine
  8
Topplate
 62
256
370
-1
 48
1.0
  6
BYLAYER
 10
5.1723769027594813
 20
-13.96341913031079
 30
0.0
 11
7.9590755646864224
 21
-20.233491119646402
 31
0.0
  0
LINE
  5
A6
100
AcDbEntity
100
AcDbLine
  8
Topplate
 62
256
370
-1
 48
1.0
  6
BYLAYER
 10
-5.1723769027594813
 20
-13.96341913031079
 30
0.0
 11
-7.9590755646864295
 21
-20.233491119646402
 31
0.0
  0
ARC
  5
A7
100
AcDbEntity
  8
Topplate
 62
256
370
-1
 48
1.0
  6
BYLAYER
100
AcDbCircle
 10
8.0
 20
-23.0
 30
0.0
 40
2.0
100
AcDbArc
 50
160.71933942527531
 51
63.469466744212383
  0
ARC
  5
A8
100
AcDbEntity
  8
Topplate
 62
256
370
-1
 48
1.0
  6
BYLAYER
100
AcDbCircle
 10
-8.0
 20
-23.0
 30
0.0
 40
2.0
100
AcDbArc
 50
116.5305332557876
 51
19.280660574724664
  0
ARC
  5
A9
100
AcDbEntity
  8
Topplate
 62
256
370
-1
 48
1.0
  6
BYLAYER
100
AcDbCircle
 10
9.7866986619269412
 20
-19.421214187539508
 30
0.0
 40
2.0
100
AcDbArc
 50
203.96248897457809
 51
243.46946674421238
  0
ARC
  5
AA
100
AcDbEntity
  8
Topplate
 62
256
370
-1
 48
1.0
  6
BYLAYER
100
AcDbCircle
 10
-9.7866986619269341
 20
-19.421214187539508
 30
0.0
 40
2.0
100
AcDbArc
 50
296.53053325578765
 51
336.03751102542185
  0
ARC
  5
AB
100
AcDbEntity
  8
Topplate
 62
256
370
-1
 48
1.0
  6
BYLAYER
100
AcDbCircle
 10
4.2243501658529681
 20
-21.679216774067211
 30
0.0
 40
2.0
100
AcDbArc
 50
340.71933942527545
 51
23.962488974578118
  0
ARC
  5
AC
100
AcDbEntity
  8
Topplate
 62
256
370
-1
 48
1.0
  6
BYLAYER
100
AcDbCircle
 10
-4.2243501658529539
 20
-21.679216774067211
 30
0.0
 40
2.0
100
AcDbArc
 50
156.03751102542188
 51
199.28066057472458
  0
ARC
  5
AD
100
AcDbEntity
  8
Topplate
 62
256
370
-1
 48
1.0
  6
BYLAYER
100
AcDbCircle
 10
7.0
 20
-13.1511421982039
 30
0.0
 40
2.0
100
AcDbArc
 50
180.0
 51
203.96248897457818
  0
ARC
  5
AE
100
AcDbEntity
  8
Topplate
 62
256
370
-1
 48
1.0
  6
BYLAYER
100
AcDbCircle
 10
-7.0
 20
-13.151142198203896
 30
0.0
 40
2.0
100
AcDbArc
 50
336.03751102542185
 51
0.0
  0
ARC
  5
AF
100
AcDbEntity
  8
Topplate
 62
256
370
-1
 48
1.0
  6
BYLAYER
100
AcDbCircle
 10
5.0
 20
-13.575571099101946
 30
0.0
 40
2.0
100
AcDbArc
 50
180.0
 51
203.96248897457809
  0
ARC
  5
B0
100
AcDbEntity
  8
Topplate
 62
256
370
-1
 48
1.0
  6
BYLAYER
100
AcDbCircle
 10
-5.0
 20
-13.575571099101946
 30
0.0
 40
2.0
100
AcDbArc
 50
336.03751102542185
 51
0.0
  0
ARC
  5
B1
100
AcDbEntity
  8
Topplate
 62
256
370
-1
 48
1.0
  6
BYLAYER
100
AcDbCircle
 10
4.0
 20
1.0
 30
0.0
 40
1.0
100
AcDbArc
 50
360.0
 51
180.0
  0
ARC
  5
B2
100
AcDbEntity
  8
Topplate
 62
256
370
-1
 48
1.0
  6
BYLAYER
100
AcDbCircle
 10
-4.0
 20
-8.0
 30
0.0
 40
1.0
100
AcDbArc
 50
0.0
 51
180.0
  0
ARC
  5
B3
100
AcDbEntity
  8
Topplate
 62
256
370
-1
 48
1.0
  6
BYLAYER
100
AcDbCircle
 10
0.0
 20
5.2135012369968479
 30
0.0
 40
6.0
100
AcDbArc
 50
69.27838392063893
 51
110.72161607936138
  0
ARC
  5
B4
100
AcDbEntity
  8
Topplate
 62
256
370
-1
 48
1.0
  6
BYLAYER
100
AcDbCircle
 10
3.184449617047548
 20
13.63129671066368
 30
0.0
 40
3.0
100
AcDbArc
 50
249.2783839206389
 51
342.30523425694224
  0
ARC
  5
B5
100
AcDbEntity
  8
Topplate
 62
256
370
-1
 48
1.0
  6
BYLAYER
100
AcDbCircle
 10
-3.1844496170475907
 20
13.631296710663662
 30
0.0
 40
3.0
100
AcDbArc
 50
197.69476574305838
 51
290.72161607936141
  0
LINE
  5
B6
100
AcDbEntity
100
AcDbLine
  8
Topplate
 62
256
370
-1
 48
1.0
  6
BYLAYER
 10
-13.296797568130714
 20
38.772722203069748
 30
0.0
 11
-16.872868574104899
 21
37.589211712295224
 31
0.0
  0
ENDSEC
  0
SECTION
  2
OBJECTS
  0
DICTIONARY
  5
C
100
AcDbDictionary
280
0
281
1
  3
ACAD_GROUP
350
D
  3
ACAD_LAYOUT
350
1A
  3
ACAD_MLINESTYLE
350
17
  3
ACAD_PLOTSETTINGS
350
19
  3
ACAD_PLOTSTYLENAME
350
E
  3
AcDbVariableDictionary
350
B7
  3
QCAD_OBJECTS
350
B8
  0
DICTIONARY
  5
D
100
AcDbDictionary
280
0
281
1
  0
ACDBDICTIONARYWDFLT
  5
E
100
AcDbDictionary
281
1
  3
Normal
350
F
100
AcDbDictionaryWithDefault
340
F
  0
ACDBPLACEHOLDER
  5
F
  0
DICTIONARY
  5
17
100
AcDbDictionary
280
0
281
1
  3
Standard
350
18
  0
MLINESTYLE
  5
18
100
AcDbMlineStyle
  2
STANDARD
 70
0
  3

 62
256
 51
90.0
 52
90.0
 71
2
 49
0.5
 62
256
  6
BYLAYER
 49
-0.5
 62
256
  6
BYLAYER
  0
DICTIONARY
  5
19
100
AcDbDictionary
280
0
281
1
  0
DICTIONARY
  5
1A
100
AcDbDictionary
281
1
  3
Layout1
350
1E
  3
Layout2
350
26
  3
Model
350
22
  0
LAYOUT
  5
1E
100
AcDbPlotSettings
  1

  2
none_device
  4

  6

 40
0.0
 41
0.0
 42
0.0
 43
0.0
 44
0.0
 45
0.0
 46
0.0
 47
0.0
 48
0.0
 49
0.0
140
0.0
141
0.0
142
1.0
143
1.0
 70
688
 72
0
 73
0
 74
5
  7

 75
16
147
1.0
148
0.0
149
0.0
100
AcDbLayout
  1
Layout1
 70
1
 71
1
 10
0.0
 20
0.0
 11
420.0
 21
297.0
 12
0.0
 22
0.0
 32
0.0
 14
100000000000000000000.0
 24
100000000000000000000.0
 34
100000000000000000000.0
 15
-100000000000000000000.0
 25
-100000000000000000000.0
 35
-100000000000000000000.0
146
0.0
 13
0.0
 23
0.0
 33
0.0
 16
1.0
 26
0.0
 36
0.0
 17
0.0
 27
1.0
 37
0.0
 76
0
330
1B
  0
LAYOUT
  5
22
100
AcDbPlotSettings
  1

  2
none_device
  4

  6

 40
0.0
 41
0.0
 42
0.0
 43
0.0
 44
0.0
 45
0.0
 46
0.0
 47
0.0
 48
0.0
 49
0.0
140
0.0
141
0.0
142
1.0
143
1.0
 70
1712
 72
0
 73
0
 74
0
  7

 75
0
147
1.0
148
0.0
149
0.0
100
AcDbLayout
  1
Model
 70
1
 71
0
 10
0.0
 20
0.0
 11
12.0
 21
9.0
 12
0.0
 22
0.0
 32
0.0
 14
0.0
 24
0.0
 34
0.0
 15
0.0
 25
0.0
 35
0.0
146
0.0
 13
0.0
 23
0.0
 33
0.0
 16
1.0
 26
0.0
 36
0.0
 17
0.0
 27
1.0
 37
0.0
 76
0
330
1F
  0
LAYOUT
  5
26
100
AcDbPlotSettings
  1

  2
none_device
  4

  6

 40
0.0
 41
0.0
 42
0.0
 43
0.0
 44
0.0
 45
0.0
 46
0.0
 47
0.0
 48
0.0
 49
0.0
140
0.0
141
0.0
142
1.0
143
1.0
 70
688
 72
0
 73
0
 74
5
  7

 75
16
147
1.0
148
0.0
149
0.0
100
AcDbLayout
  1
Layout2
 70
1
 71
2
 10
0.0
 20
0.0
 11
12.0
 21
9.0
 12
0.0
 22
0.0
 32
0.0
 14
0.0
 24
0.0
 34
0.0
 15
0.0
 25
0.0
 35
0.0
146
0.0
 13
0.0
 23
0.0
 33
0.0
 16
1.0
 26
0.0
 36
0.0
 17
0.0
 27
1.0
 37
0.0
 76
0
330
23
  0
DICTIONARY
  5
B7
100
AcDbDictionary
281
1
  3
DIMASSOC
350
BA
  3
HIDETEXT
350
B9
  0
DICTIONARYVAR
  5
B9
100
DictionaryVariables
280
0
  1
2
  0
DICTIONARYVAR
  5
BA
100
DictionaryVariables
280
0
  1
1
  0
DICTIONARY
  5
B8
100
AcDbDictionary
281
1
  3
ColorSettings/BackgroundColor
350
BB
  3
ColorSettings/ColorMode
350
BC
  3
Grid/DisplayGrid00
350
BD
  3
Grid/DisplayGrid01
350
BE
  3
Grid/DisplayGrid02
350
BF
  3
Grid/DisplayGrid03
350
C0
  3
Grid/GridSpacingX00
350
C1
  3
Grid/GridSpacingX01
350
C2
  3
Grid/GridSpacingX02
350
C3
  3
Grid/GridSpacingX03
350
C4
  3
Grid/GridSpacingY00
350
C5
  3
Grid/GridSpacingY01
350
C6
  3
Grid/GridSpacingY02
350
C7
  3
Grid/GridSpacingY03
350
C8
  3
Grid/IsometricGrid00
350
C9
  3
Grid/IsometricGrid01
350
CA
  3
Grid/IsometricGrid02
350
CB
  3
Grid/IsometricGrid03
350
CC
  3
Grid/IsometricProjection00
350
CD
  3
Grid/IsometricProjection01
350
CE
  3
Grid/IsometricProjection02
350
CF
  3
Grid/IsometricProjection03
350
D0
  3
Grid/MetaGridSpacingX00
350
D1
  3
Grid/MetaGridSpacingX01
350
D2
  3
Grid/MetaGridSpacingX02
350
D3
  3
Grid/MetaGridSpacingX03
350
D4
  3
Grid/MetaGridSpacingY00
350
D5
  3
Grid/MetaGridSpacingY01
350
D6
  3
Grid/MetaGridSpacingY02
350
D7
  3
Grid/MetaGridSpacingY03
350
D8
  3
MultiPageSettings/Columns
350
D9
  3
MultiPageSettings/GlueMarginsBottom
350
DA
  3
MultiPageSettings/GlueMarginsLeft
350
DB
  3
MultiPageSettings/GlueMarginsRight
350
DC
  3
MultiPageSettings/GlueMarginsTop
350
DD
  3
MultiPageSettings/PrintCropMarks
350
DE
  3
MultiPageSettings/Rows
350
DF
  3
PageSettings/OffsetX
350
E0
  3
PageSettings/OffsetY
350
E1
  3
PageSettings/PageOrientation
350
E2
  3
PageSettings/PaperHeight
350
E3
  3
PageSettings/PaperWidth
350
E4
  3
PageSettings/Scale
350
E5
  3
PageSettings/ShowPaperBorders
350
E6
  3
QCADVersion
350
E7
  3
UnitSettings/PaperUnit
350
E8
  0
XRECORD
  5
BB
330
B8
100
AcDbXrecord
280
1
1000
White
  0
XRECORD
  5
BC
330
B8
100
AcDbXrecord
280
1
1000
FullColor
  0
XRECORD
  5
BD
330
B8
100
AcDbXrecord
280
1
290
1
  0
XRECORD
  5
BE
330
B8
100
AcDbXrecord
280
1
290
1
  0
XRECORD
  5
BF
330
B8
100
AcDbXrecord
280
1
290
1
  0
XRECORD
  5
C0
330
B8
100
AcDbXrecord
280
1
290
1
  0
XRECORD
  5
C1
330
B8
100
AcDbXrecord
280
1
1000
auto
  0
XRECORD
  5
C2
330
B8
100
AcDbXrecord
280
1
1000
auto
  0
XRECORD
  5
C3
330
B8
100
AcDbXrecord
280
1
1000
auto
  0
XRECORD
  5
C4
330
B8
100
AcDbXrecord
280
1
1000
auto
  0
XRECORD
  5
C5
330
B8
100
AcDbXrecord
280
1
1000
auto
  0
XRECORD
  5
C6
330
B8
100
AcDbXrecord
280
1
1000
auto
  0
XRECORD
  5
C7
330
B8
100
AcDbXrecord
280
1
1000
auto
  0
XRECORD
  5
C8
330
B8
100
AcDbXrecord
280
1
1000
auto
  0
XRECORD
  5
C9
330
B8
100
AcDbXrecord
280
1
290
0
  0
XRECORD
  5
CA
330
B8
100
AcDbXrecord
280
1
290
0
  0
XRECORD
  5
CB
330
B8
100
AcDbXrecord
280
1
290
0
  0
XRECORD
  5
CC
330
B8
100
AcDbXrecord
280
1
290
0
  0
XRECORD
  5
CD
330
B8
100
AcDbXrecord
280
1
 90
0
  0
XRECORD
  5
CE
330
B8
100
AcDbXrecord
280
1
 90
0
  0
XRECORD
  5
CF
330
B8
100
AcDbXrecord
280
1
 90
0
  0
XRECORD
  5
D0
330
B8
100
AcDbXrecord
280
1
 90
0
  0
XRECORD
  5
D1
330
B8
100
AcDbXrecord
280
1
1000
auto
  0
XRECORD
  5
D2
330
B8
100
AcDbXrecord
280
1
1000
auto
  0
XRECORD
  5
D3
330
B8
100
AcDbXrecord
280
1
1000
auto
  0
XRECORD
  5
D4
330
B8
100
AcDbXrecord
280
1
1000
auto
  0
XRECORD
  5
D5
330
B8
100
AcDbXrecord
280
1
1000
auto
  0
XRECORD
  5
D6
330
B8
100
AcDbXrecord
280
1
1000
auto
  0
XRECORD
  5
D7
330
B8
100
AcDbXrecord
280
1
1000
auto
  0
XRECORD
  5
D8
330
B8
100
AcDbXrecord
280
1
1000
auto
  0
XRECORD
  5
D9
330
B8
100
AcDbXrecord
280
1
 90
1
  0
XRECORD
  5
DA
330
B8
100
AcDbXrecord
280
1
 40
10.0
  0
XRECORD
  5
DB
330
B8
100
AcDbXrecord
280
1
 40
10.0
  0
XRECORD
  5
DC
330
B8
100
AcDbXrecord
280
1
 40
10.0
  0
XRECORD
  5
DD
330
B8
100
AcDbXrecord
280
1
 40
10.0
  0
XRECORD
  5
DE
330
B8
100
AcDbXrecord
280
1
290
0
  0
XRECORD
  5
DF
330
B8
100
AcDbXrecord
280
1
 90
1
  0
XRECORD
  5
E0
330
B8
100
AcDbXrecord
280
1
 40
0.0
  0
XRECORD
  5
E1
330
B8
100
AcDbXrecord
280
1
 40
0.0
  0
XRECORD
  5
E2
330
B8
100
AcDbXrecord
280
1
1000
Portrait
  0
XRECORD
  5
E3
330
B8
100
AcDbXrecord
280
1
 40
420.0
  0
XRECORD
  5
E4
330
B8
100
AcDbXrecord
280
1
 40
297.0
  0
XRECORD
  5
E5
330
B8
100
AcDbXrecord
280
1
1000
1:1
  0
XRECORD
  5
E6
330
B8
100
AcDbXrecord
280
1
290
1
  0
XRECORD
  5
E7
330
B8
100
AcDbXrecord
280
1
1000
3.12.1
  0
XRECORD
  5
E8
330
B8
100
AcDbXrecord
280
1
 90
4
  0
ENDSEC
  0
EOF
