0
SECTION
2
HEADER
9
$INSUNITS
70
4
9
$ACADVER
1
AC1014
9
$HANDSEED
5
FFFF
0
ENDSEC
0
SECTION
2
TABLES
0
TABLE
2
VPORT
5
8
100
AcDbSymbolTable
0
ENDTAB
0
TABLE
2
LTYPE
5
5
100
AcDbSymbolTable
0
LTYPE
5
14
100
AcDbSymbolTableRecord
100
AcDbLinetypeTableRecord
2
BYBLOCK
70
0
0
LTYPE
5
15
100
AcDbSymbolTableRecord
100
AcDbLinetypeTableRecord
2
BYLAYER
70
0
0
ENDTAB
0
TABLE
2
LAYER
5
2
100
AcDbSymbolTable
70
2
0
LAYER
5
50
100
AcDbSymbolTableRecord
100
AcDbLayerTableRecord
2
0
70
0
6
CONTINUOUS
0
ENDTAB
0
TABLE
2
STYLE
5
3
100
AcDbSymbolTable
70
1
0
STYLE
5
11
100
AcDbSymbolTableRecord
100
AcDbTextStyleTableRecord
2
STANDARD
70
0
0
ENDTAB
0
TABLE
2
VIEW
5
6
100
AcDbSymbolTable
70
0
0
ENDTAB
0
TABLE
2
UCS
5
7
100
AcDbSymbolTable
70
0
0
ENDTAB
0
TABLE
2
APPID
5
9
100
AcDbSymbolTable
70
2
0
APPID
5
12
100
AcDbSymbolTableRecord
100
AcDbRegAppTableRecord
2
ACAD
70
0
0
ENDTAB
0
TABLE
2
DIMSTYLE
5
A
100
AcDbSymbolTable
70
1
0
ENDTAB
0
TABLE
2
BLOCK_RECORD
5
1
100
AcDbSymbolTable
70
1
0
BLOCK_RECORD
5
1F
100
AcDbSymbolTableRecord
100
AcDbBlockTableRecord
2
*MODEL_SPACE
0
BLOCK_RECORD
5
1B
100
AcDbSymbolTableRecord
100
AcDbBlockTableRecord
2
*PAPER_SPACE
0
ENDTAB
0
ENDSEC
0
SECTION
2
BLOCKS
0
BLOCK
5
20
100
AcDbEntity
100
AcDbBlockBegin
2
*MODEL_SPACE
0
ENDBLK
5
21
100
AcDbEntity
100
AcDbBlockEnd
0
BLOCK
5
1C
100
AcDbEntity
100
AcDbBlockBegin
2
*PAPER_SPACE
0
ENDBLK
5
1D
100
AcDbEntity
100
AcDbBlockEnd
0
ENDSEC
0
SECTION
2
ENTITIES
0
ARC
5
100
100
AcDbEntity
8
0
100
AcDbCircle
10
-71.091527636914208
20
83.540364795102434
30
0
40
1.5000000000000173
100
AcDbArc
50
-169.7788612998946
51
10.221138699313967
0
ARC
5
101
100
AcDbEntity
8
0
100
AcDbCircle
10
60.411431887258516
20
77.8451426943179
30
0
40
1.5000000000105969
100
AcDbArc
50
79.778861300687268
51
259.77886130068714
0
ARC
5
102
100
AcDbEntity
8
0
100
AcDbCircle
10
79.60336238111158
20
82.996419880144416
30
0
40
3.9999999999789826
100
AcDbArc
50
153.83584075343725
51
275.73417714420805
0
LINE
5
103
100
AcDbEntity
8
0
100
AcDbLine
10
67.883027001060313
20
88.206750470581667
30
0
11
76.405539777510313
21
94.045175758169592
31
0
0
LWPOLYLINE
5
104
100
AcDbEntity
8
0
100
AcDbPolyline
90
4
70
1
43
0.0
10
-60.677603643197067
20
79.321338005369995
42
-0.99999999999999989
10
-60.145260131320342
20
76.368947383265578
10
-62.113520546004665
20
76.014051708695249
42
-0.99999999999999989
10
-62.64586405791853
20
78.966442330771415
0
SPLINE
5
105
100
AcDbEntity
8
0
100
AcDbSpline
70
1064
71
5
72
26
73
20
74
0
42
0.000000001
43
0.0000000001
44
0.0000000001
40
0
40
0
40
0
40
0
40
0
40
0
40
0.066666666666666666
40
0.13333333333333333
40
0.20000000000000001
40
0.26666666666666666
40
0.33333333333333331
40
0.40000000000000002
40
0.46666666666666662
40
0.53333333333333333
40
0.59999999999999998
40
0.66666666666666663
40
0.73333333333333295
40
0.79999999999999982
40
0.8666666666666667
40
0.93333333333333324
40
1
40
1
40
1
40
1
40
1
40
1
10
0.25905703570726613
20
40.726588162195945
30
0
10
0.61344633593013376
20
40.747045206953032
30
0
10
1.3179305062687818
20
40.790510514375242
30
0
10
2.3617693247682592
20
40.863358821354581
30
0
10
3.7276268656008282
20
40.975929472975146
30
0
10
5.4096915742120979
20
41.158247839804041
30
0
10
7.1234499192193343
20
41.429488119981606
30
0
10
8.9839136917199465
20
41.882969662439997
30
0
10
11.129263406989116
20
42.629869166525779
30
0
10
13.692067935096032
20
43.775871726970365
30
0
10
16.76026784754168
20
45.389175168022355
30
0
10
20.376747984443654
20
47.500527235619366
30
0
10
24.555867284416237
20
50.117303240022686
30
0
10
29.291993233122795
20
53.230819885722987
30
0
10
34.56872383846909
20
56.824147678396244
30
0
10
40.365426902178775
20
60.877621350985791
30
0
10
45.403336641825035
20
64.474316914728618
30
0
10
49.400855422308602
20
67.365316066663553
30
0
10
52.162535076665932
20
69.378016534886498
30
0
10
53.5675418023229
20
70.405708797195459
30
0
0
LINE
5
106
100
AcDbEntity
8
0
100
AcDbLine
10
62.645864057918352
20
78.966442330771514
30
0
11
60.677603643196889
21
79.321338005370094
31
0
0
ARC
5
107
100
AcDbEntity
8
0
100
AcDbCircle
10
87.689280218101615
20
77.778199302752299
30
0
40
1.9999999999726401
100
AcDbArc
50
-54.843431788247862
51
95.73417714549079
0
ARC
5
108
100
AcDbEntity
8
0
100
AcDbCircle
10
-68.074914402746231
20
66.810151269977808
30
0
40
1.5000000000105822
100
AcDbArc
50
-169.77886129989514
51
10.221138699312245
0
LWPOLYLINE
5
109
100
AcDbEntity
8
0
100
AcDbPolyline
90
4
70
1
43
0.0
10
79.376077583024397
20
75.949829096617663
42
-0.99999999999999989
10
78.843734071147736
20
72.997438474513274
10
76.875473656426294
20
73.352334149111812
42
-0.99999999999999989
10
77.407817168340074
20
76.304724771188049
0
LWPOLYLINE
5
110
100
AcDbEntity
8
0
100
AcDbPolyline
90
4
70
1
43
0.0
10
66.953614766392448
20
69.044583440637695
42
-0.99999999999999989
10
69.906005388468614
20
68.512239928723901
10
69.551109713798297
20
66.543979514039592
42
-0.99999999999999989
10
66.598719091693908
20
67.076323025916281
0
ARC
5
111
100
AcDbEntity
8
0
100
AcDbCircle
10
63.007772108039333
20
85.980582528071196
30
0
40
3.3584030379319278
100
AcDbArc
50
266.83029796905925
51
345.07132276401313
0
SPLINE
5
112
100
AcDbEntity
8
0
100
AcDbSpline
70
1064
71
5
72
21
73
15
74
0
42
0.000000001
43
0.0000000001
44
0.0000000001
40
0
40
0
40
0
40
0
40
0
40
0
40
0.10000000000000001
40
0.20000000000000001
40
0.30000000000000004
40
0.40000000000000002
40
0.5
40
0.59999999999999998
40
0.69999999999999996
40
0.79999999999999982
40
0.8999999999999998
40
1
40
1
40
1
40
1
40
1
40
1
10
62.822141849805242
20
82.627314860911298
30
0
10
62.391030808403052
20
82.643277969286046
30
0
10
61.535165774930363
20
82.652787566271414
30
0
10
60.270386222278574
20
82.599536105966038
30
0
10
58.659573811542607
20
82.36255044324183
30
0
10
56.96446067163653
20
81.632513140722907
30
0
10
55.808220266334494
20
80.371609627316488
30
0
10
55.33723166080965
20
78.568528677557481
30
0
10
55.576054620658553
20
76.608835379184782
30
0
10
56.193562242175062
20
74.88096694775173
30
0
10
56.571892022460659
20
73.363874332796712
30
0
10
56.141240356846005
20
72.228166284923546
30
0
10
55.146678131586782
20
71.341018956620999
30
0
10
54.149604524683603
20
70.722092126596451
30
0
10
53.567541802322864
20
70.405708797195459
30
0
0
CIRCLE
5
113
100
AcDbEntity
8
0
100
AcDbCircle
10
69.760668857122297
20
76.15938823994172
30
0
40
4
0
ARC
5
114
100
AcDbEntity
8
0
100
AcDbCircle
10
-87.6892802181018
20
77.778199302752142
30
0
40
2.0000000000535603
100
AcDbArc
50
84.265822854509594
51
234.84343178824793
0
SPLINE
5
115
100
AcDbEntity
8
0
100
AcDbSpline
70
1064
71
5
72
21
73
15
74
0
42
0.000000001
43
0.0000000001
44
0.0000000001
40
0
40
0
40
0
40
0
40
0
40
0
40
0.10000000000000001
40
0.20000000000000001
40
0.30000000000000004
40
0.40000000000000002
40
0.5
40
0.59999999999999998
40
0.69999999999999996
40
0.79999999999999982
40
0.8999999999999998
40
1
40
1
40
1
40
1
40
1
40
1
10
-73.399522443925747
20
67.398758538862168
30
0
10
-73.26409029170685
20
66.989230278610719
30
0
10
-72.974443298159144
20
66.183956745674848
30
0
10
-72.483356627318585
20
65.017438316592248
30
0
10
-71.699414563706014
20
63.590824031473616
30
0
10
-70.424007010013099
20
62.257308849774958
30
0
10
-68.839046157599185
20
61.614016382590151
30
0
10
-66.98496794215329
20
61.802075312089109
30
0
10
-65.231910395325258
20
62.710075444401951
30
0
10
-63.82802337804587
20
63.892254497510891
30
0
10
-62.538005164933708
20
64.776719916234939
30
0
10
-61.323050321620954
20
64.769633194904699
30
0
10
-60.144329782184585
20
64.147046736142755
30
0
10
-59.216188227222261
20
63.428418596117666
30
0
10
-58.716486098820724
20
62.993211188653426
30
0
0
LINE
5
116
100
AcDbEntity
8
0
100
AcDbLine
10
60.145260131320143
20
76.36894738326572
30
0
11
62.113520546004501
21
76.014051708695376
31
0
0
ARC
5
117
100
AcDbEntity
8
0
100
AcDbCircle
10
-76.606921907716753
20
66.403042053104826
30
0
40
3.3584017985249877
100
AcDbArc
50
17.246618867626967
51
95.501304847242722
0
SPLINE
5
118
100
AcDbEntity
8
0
100
AcDbSpline
70
1064
71
5
72
26
73
20
74
0
42
0.000000001
43
0.0000000001
44
0.0000000001
40
0
40
0
40
0
40
0
40
0
40
0
40
0.066666666666666666
40
0.13333333333333333
40
0.20000000000000001
40
0.26666666666666666
40
0.33333333333333331
40
0.40000000000000002
40
0.46666666666666662
40
0.53333333333333333
40
0.59999999999999998
40
0.66666666666666663
40
0.73333333333333295
40
0.79999999999999982
40
0.8666666666666667
40
0.93333333333333324
40
1
40
1
40
1
40
1
40
1
40
1
10
-15.001424941083235
20
25.71895994885541
30
0
10
-15.006980920924626
20
25.935261992306717
30
0
10
-15.048244937445055
20
26.378193970497328
30
0
10
-15.200587753220805
20
27.073564298575754
30
0
10
-15.58600127464503
20
28.063217829166106
30
0
10
-16.385094447992042
20
29.413162565043443
30
0
10
-17.529869921382939
20
30.899482813106204
30
0
10
-19.060819448374232
20
32.559111504203308
30
0
10
-21.019804995534695
20
34.43220286957893
30
0
10
-23.441745872217549
20
36.554961907837971
30
0
10
-26.340544533348627
20
38.948102907894906
30
0
10
-29.709648506904138
20
41.616623023783362
30
0
10
-33.53148892184614
20
44.556333396781092
30
0
10
-37.782410928718377
20
47.757221696140078
30
0
10
-42.437637587013192
20
51.206964646857223
30
0
10
-47.474598352142927
20
54.893340067181029
30
0
10
-51.79535224302623
20
58.023627663275299
30
0
10
-55.194640381665003
20
60.470238511706071
30
0
10
-57.530865324478242
20
62.144947710174208
30
0
10
-58.716486098818272
20
62.993211188656346
30
0
0
CIRCLE
5
119
100
AcDbEntity
8
0
100
AcDbCircle
10
-69.760668857122454
20
76.159388239941563
30
0
40
4
0
ARC
5
120
100
AcDbEntity
8
0
100
AcDbCircle
10
-77.14164541238334
20
74.828529460149781
30
0
40
1.4999999999999898
100
AcDbArc
50
-79.77886129989443
51
100.22113870010445
0
ARC
5
121
100
AcDbEntity
8
0
100
AcDbCircle
10
-79.603362381111765
20
82.996419880144273
30
0
40
3.9999999999976144
100
AcDbArc
50
-95.734177144208701
51
26.164159246562729
0
ARC
5
122
100
AcDbEntity
8
0
100
AcDbCircle
10
62.379692301961427
20
77.490247019733431
30
0
40
1.4999999999999913
100
AcDbArc
50
-100.22113870010598
51
79.778861299894217
0
SPLINE
5
123
100
AcDbEntity
8
0
100
AcDbSpline
70
1064
71
5
72
21
73
15
74
0
42
0.000000001
43
0.0000000001
44
0.0000000001
40
0
40
0
40
0
40
0
40
0
40
0
40
0.10000000000000001
40
0.20000000000000001
40
0.30000000000000004
40
0.40000000000000002
40
0.5
40
0.59999999999999998
40
0.69999999999999996
40
0.79999999999999982
40
0.8999999999999998
40
1
40
1
40
1
40
1
40
1
40
1
10
-62.822141849805405
20
82.627314860911213
30
0
10
-62.391030808403222
20
82.643277969285947
30
0
10
-61.535165774930505
20
82.652787566271385
30
0
10
-60.27038622227883
20
82.599536105965981
30
0
10
-58.659573811542728
20
82.362550443241645
30
0
10
-56.964460671636637
20
81.632513140722722
30
0
10
-55.808220266334665
20
80.371609627316403
30
0
10
-55.337231660809891
20
78.568528677557396
30
0
10
-55.576054620658724
20
76.608835379184725
30
0
10
-56.193562242174977
20
74.88096694775156
30
0
10
-56.57189202246046
20
73.363874332796513
30
0
10
-56.141240356845934
20
72.228166284923432
30
0
10
-55.146678131586896
20
71.3410189566209
30
0
10
-54.149604524683781
20
70.722092126596351
30
0
10
-53.567541802323042
20
70.405708797195359
30
0
0
LINE
5
124
100
AcDbEntity
8
0
100
AcDbLine
10
0.25142681703691488
20
25.726462933621157
30
0
11
15.001424941083172
21
25.718959948855442
31
0
0
LINE
5
125
100
AcDbEntity
8
0
100
AcDbLine
10
87.489453645333398
20
79.768191599397255
30
0
11
80.00301552656228
21
79.016435286812026
31
0
0
ARC
5
126
100
AcDbEntity
8
0
100
AcDbCircle
10
77.53586112961024
20
92.395214049317772
30
0
40
1.999999999922534
100
AcDbArc
50
-26.164159245906987
51
124.4134496857173
0
LINE
5
127
100
AcDbEntity
8
0
100
AcDbLine
10
76.928886587000065
20
69.745975104395356
30
0
11
78.488202384922033
21
69.652670271247601
31
0
0
LINE
5
128
100
AcDbEntity
8
0
100
AcDbLine
10
-72.567722947952305
20
83.274193039145516
30
0
11
-72.922618622636762
21
85.242453453848384
31
0
0
LINE
5
129
100
AcDbEntity
8
0
100
AcDbLine
10
79.330929876162116
20
91.513325056959417
30
0
11
76.013224887907839
21
84.760197864961256
31
0
0
SPLINE
5
130
100
AcDbEntity
8
0
100
AcDbSpline
70
1064
71
5
72
26
73
20
74
0
42
0.000000001
43
0.0000000001
44
0.0000000001
40
0
40
0
40
0
40
0
40
0
40
0
40
0.066666666666666666
40
0.13333333333333333
40
0.20000000000000001
40
0.26666666666666666
40
0.33333333333333331
40
0.40000000000000002
40
0.46666666666666662
40
0.53333333333333333
40
0.59999999999999998
40
0.66666666666666663
40
0.73333333333333295
40
0.79999999999999982
40
0.8666666666666667
40
0.93333333333333324
40
1
40
1
40
1
40
1
40
1
40
1
10
-0.25905703570736394
20
40.726588162195945
30
0
10
-0.61344633593023168
20
40.747045206953032
30
0
10
-1.3179305062688798
20
40.790510514375242
30
0
10
-2.3617693247683573
20
40.863358821354574
30
0
10
-3.7276268656009259
20
40.975929472975132
30
0
10
-5.4096915742121956
20
41.158247839804034
30
0
10
-7.1234499192194347
20
41.429488119981606
30
0
10
-8.9839136917200477
20
41.88296966243999
30
0
10
-11.129263406989221
20
42.629869166525758
30
0
10
-13.692067935096137
20
43.775871726970337
30
0
10
-16.760267847541787
20
45.389175168022319
30
0
10
-20.376747984443764
20
47.500527235619323
30
0
10
-24.555867284416344
20
50.11730324002265
30
0
10
-29.291993233122923
20
53.230819885722937
30
0
10
-34.568723838469218
20
56.824147678396173
30
0
10
-40.365426902178896
20
60.877621350985706
30
0
10
-45.403336641825163
20
64.474316914728547
30
0
10
-49.400855422308751
20
67.365316066663453
30
0
10
-52.162535076666103
20
69.378016534886399
30
0
10
-53.567541802323042
20
70.405708797195331
30
0
0
CIRCLE
5
131
100
AcDbEntity
8
0
100
AcDbCircle
10
12.256268155590018
20
36.207407421643751
30
0
40
1.5000000000000049
0
ARC
5
132
100
AcDbEntity
8
0
100
AcDbCircle
10
-77.535861129610424
20
92.395214049317588
30
0
40
1.9999999999225717
100
AcDbArc
50
55.586550314284068
51
206.16415924590791
0
LINE
5
133
100
AcDbEntity
8
0
100
AcDbLine
10
-69.615332325872444
20
83.80653655103896
30
0
11
-69.970228000556915
21
85.774796965741729
31
0
0
ARC
5
134
100
AcDbEntity
8
0
100
AcDbCircle
10
-71.446423311598693
20
85.508625209805302
30
0
40
1.5000000000000049
100
AcDbArc
50
10.221138699310131
51
190.2211387001056
0
ARC
5
135
100
AcDbEntity
8
0
100
AcDbCircle
10
-69.578509029324991
20
85.731807907186408
30
0
40
3.0000000000454436
100
AcDbArc
50
17.005655571105162
51
55.586550313744681
0
ARC
5
136
100
AcDbEntity
8
0
100
AcDbCircle
10
-79.109905827086223
20
74.473633785565312
30
0
40
1.5000000000105917
100
AcDbArc
50
100.22113869998842
51
280.22113869931059
0
LWPOLYLINE
5
137
100
AcDbEntity
8
0
100
AcDbPolyline
90
4
70
1
43
0.0
10
69.970228000556745
20
85.774796965741928
10
69.615332325861857
20
83.806536551040978
42
0.99999999999999989
10
72.567722947952134
20
83.274193039145658
10
72.922618622636577
20
85.242453453848526
42
0.99999999999999989
0
ARC
5
138
100
AcDbEntity
8
0
100
AcDbCircle
10
-68.429810077430673
20
68.778411684680648
30
0
40
1.5000000000000144
100
AcDbArc
50
10.221138700105413
51
190.22113870010486
0
SPLINE
5
139
100
AcDbEntity
8
0
100
AcDbSpline
70
1064
71
5
72
21
73
15
74
0
42
0.000000001
43
0.0000000001
44
0.0000000001
40
0
40
0
40
0
40
0
40
0
40
0
40
0.10000000000000001
40
0.20000000000000001
40
0.30000000000000004
40
0.40000000000000002
40
0.5
40
0.59999999999999998
40
0.69999999999999996
40
0.79999999999999982
40
0.8999999999999998
40
1
40
1
40
1
40
1
40
1
40
1
10
73.399522443925605
20
67.39875853886231
30
0
10
73.264090291706708
20
66.989230278610862
30
0
10
72.974443298158903
20
66.183956745674848
30
0
10
72.483356627317903
20
65.017438316591338
30
0
10
71.699414563705204
20
63.59082403147228
30
0
10
70.424007010012488
20
62.257308849774063
30
0
10
68.839046157598972
20
61.614016382590187
30
0
10
66.98496794215319
20
61.802075312089357
30
0
10
65.231910395325031
20
62.710075444401873
30
0
10
63.828023378045735
20
63.892254497510841
30
0
10
62.538005164933672
20
64.776719916235024
30
0
10
61.323050321620883
20
64.769633194904912
30
0
10
60.144329782184471
20
64.147046736142897
30
0
10
59.216188227222098
20
63.428418596117801
30
0
10
58.716486098820582
20
62.99321118865354
30
0
0
ARC
5
140
100
AcDbEntity
8
0
100
AcDbCircle
10
69.578509029324806
20
85.73180790718655
30
0
40
3.000000000045437
100
AcDbArc
50
124.41344968625592
51
162.99434442889475
0
LINE
5
141
100
AcDbEntity
8
0
100
AcDbLine
10
-79.330929876162315
20
91.513325056959189
30
0
11
-76.013224887891297
21
84.760197864969328
31
0
0
ARC
5
142
100
AcDbEntity
8
0
100
AcDbCircle
10
-78.667392981861738
20
72.647313944459711
30
0
40
3.0000000000000115
100
AcDbArc
50
234.8434317884049
51
273.42432653286647
0
LINE
5
143
100
AcDbEntity
8
0
100
AcDbLine
10
-0.25142681703697711
20
25.726462933621157
30
0
11
-15.001424941083235
21
25.71895994885541
31
0
0
CIRCLE
5
144
100
AcDbEntity
8
0
100
AcDbCircle
10
-12.256268155590098
20
36.207407421643723
30
0
40
1.5000000000000049
0
LINE
5
145
100
AcDbEntity
8
0
100
AcDbLine
10
-80.394831178294481
20
70.194569098882567
30
0
11
-88.840905682425614
21
76.143036072326751
31
0
0
SPLINE
5
146
100
AcDbEntity
8
0
100
AcDbSpline
70
1064
71
5
72
21
73
15
74
0
42
0.000000001
43
0.0000000001
44
0.0000000001
40
0
40
0
40
0
40
0
40
0
40
0
40
0.10000000000000001
40
0.20000000000000001
40
0.30000000000000004
40
0.40000000000000002
40
0.5
40
0.59999999999999998
40
0.69999999999999996
40
0.79999999999999982
40
0.8999999999999998
40
1
40
1
40
1
40
1
40
1
40
1
10
-0.25905703570736632
20
40.726588162195945
30
0
10
-0.24869475427910601
20
40.726588162191
30
0
10
-0.2279701914225761
20
40.726588162182324
30
0
10
-0.19688334713775232
20
40.726588162173094
30
0
10
-0.15543422142460081
20
40.7265881621679
30
0
10
-0.10362281428309146
20
40.726588162171346
30
0
10
-0.05181140714153501
20
40.72658816218167
30
0
10
4.1763196633598503e-14
20
40.726588162195867
30
0
10
0.051811407141611275
20
40.72658816221039
30
0
10
0.10362281428314574
20
40.726588162221546
30
0
10
0.15543422142461927
20
40.726588162225532
30
0
10
0.1968833471377307
20
40.726588162220303
30
0
10
0.22797019142251826
20
40.726588162210497
30
0
10
0.24869475427902202
20
40.726588162201253
30
0
10
0.25905703570726857
20
40.726588162195945
30
0
0
LINE
5
147
100
AcDbEntity
8
0
100
AcDbLine
10
-66.953614766392576
20
69.044583440637567
30
0
11
-66.598719091694051
21
67.076323025916167
31
0
0
ARC
5
148
100
AcDbEntity
8
0
100
AcDbCircle
10
78.667392981861582
20
72.647313944459881
30
0
40
2.9999999999236571
100
AcDbArc
50
266.57567346713296
51
305.15656821159524
0
LINE
5
149
100
AcDbEntity
8
0
100
AcDbLine
10
66.252818644472853
20
85.115402999434025
30
0
11
66.709681353942671
21
86.609206202850572
31
0
0
LINE
5
150
100
AcDbEntity
8
0
100
AcDbLine
10
-76.928886587003376
20
69.745975104427828
30
0
11
-78.488202384917656
21
69.652670271171203
31
0
0
LINE
5
151
100
AcDbEntity
8
0
100
AcDbLine
10
-67.883027001060526
20
88.20675047058154
30
0
11
-76.405539777510526
21
94.045175758169449
31
0
0
ARC
5
152
100
AcDbEntity
8
0
100
AcDbCircle
10
-63.007772108039504
20
85.980582528071054
30
0
40
3.3584017985333481
100
AcDbArc
50
194.92867723598698
51
273.16970203094087
0
LINE
5
153
100
AcDbEntity
8
0
100
AcDbLine
10
-78.843734071147907
20
72.997438474513118
30
0
11
-76.875473656426422
21
73.352334149111712
31
0
0
ARC
5
154
100
AcDbEntity
8
0
100
AcDbCircle
10
76.606921907716625
20
66.403042053104969
30
0
40
3.3584017984922188
100
AcDbArc
50
84.498695152757989
51
162.75338113237316
0
LINE
5
155
100
AcDbEntity
8
0
100
AcDbLine
10
80.394831178250371
20
70.194569098945166
30
0
11
88.840905682378832
21
76.143036072393073
31
0
0
SPLINE
5
156
100
AcDbEntity
8
0
100
AcDbSpline
70
1064
71
5
72
26
73
20
74
0
42
0.000000001
43
0.0000000001
44
0.0000000001
40
0
40
0
40
0
40
0
40
0
40
0
40
0.066666666666666666
40
0.13333333333333333
40
0.20000000000000001
40
0.26666666666666666
40
0.33333333333333331
40
0.40000000000000002
40
0.46666666666666662
40
0.53333333333333333
40
0.59999999999999998
40
0.66666666666666663
40
0.73333333333333295
40
0.79999999999999982
40
0.8666666666666667
40
0.93333333333333324
40
1
40
1
40
1
40
1
40
1
40
1
10
15.001424941083163
20
25.718959948855442
30
0
10
15.006980920924558
20
25.935261992306753
30
0
10
15.048244937444986
20
26.37819397049736
30
0
10
15.200587753220734
20
27.073564298575779
30
0
10
15.586001274644953
20
28.063217829166135
30
0
10
16.385094447991968
20
29.413162565043478
30
0
10
17.529869921382858
20
30.899482813106232
30
0
10
19.060819448374151
20
32.559111504203344
30
0
10
21.01980499553461
20
34.432202869578965
30
0
10
23.44174587221746
20
36.554961907838006
30
0
10
26.340544533348531
20
38.948102907894956
30
0
10
29.709648506904038
20
41.616623023783404
30
0
10
33.531488921846034
20
44.556333396781149
30
0
10
37.782410928718257
20
47.757221696140149
30
0
10
42.437637587013072
20
51.206964646857323
30
0
10
47.474598352142799
20
54.8933400671811
30
0
10
51.795352243026109
20
58.023627663275398
30
0
10
55.194640381664868
20
60.47023851170615
30
0
10
57.5308653244781
20
62.144947710174321
30
0
10
58.71648609881813
20
62.993211188656474
30
0
0
CIRCLE
5
157
100
AcDbEntity
8
0
100
AcDbCircle
10
4.04374951568375
20
30.501749038054832
30
0
40
1.4999999999999933
0
LINE
5
158
100
AcDbEntity
8
0
100
AcDbLine
10
-69.90600538846877
20
68.512239928723744
30
0
11
-69.55110971379473
21
66.543979514019028
31
0
0
LINE
5
159
100
AcDbEntity
8
0
100
AcDbLine
10
-66.252818644473024
20
85.115402999433883
30
0
11
-66.709681353942841
21
86.60920620285043
31
0
0
CIRCLE
5
160
100
AcDbEntity
8
0
100
AcDbCircle
10
-4.043749515683821
20
30.501749038054825
30
0
40
1.4999999999999933
0
LINE
5
161
100
AcDbEntity
8
0
100
AcDbLine
10
-0.25142681703697711
20
25.726462933621157
30
0
11
0.25142681703691488
21
25.726462933621157
31
0
0
LINE
5
162
100
AcDbEntity
8
0
100
AcDbLine
10
-79.376077583042004
20
75.949829096614366
30
0
11
-77.40781716834023
21
76.304724771187864
31
0
0
LINE
5
163
100
AcDbEntity
8
0
100
AcDbLine
10
-87.489453645325511
20
79.768191599477618
30
0
11
-80.003015526564369
21
79.016435286793339
31
0
0
ENDSEC
0
SECTION
2
OBJECTS
0
DICTIONARY
5
C
100
AcDbDictionary
3
ACAD_GROUP
350
D
3
ACAD_MLINESTYLE
350
17
0
DICTIONARY
5
D
100
AcDbDictionary
0
DICTIONARY
5
1A
330
C
100
AcDbDictionary
0
DICTIONARY
5
17
100
AcDbDictionary
0
ENDSEC
0
EOF
