0
SECTION
2
HEADER
9
$INSUNITS
70
4
9
$ACADVER
1
AC1014
9
$HANDSEED
5
FFFF
0
ENDSEC
0
SECTION
2
TABLES
0
TABLE
2
VPORT
5
8
100
AcDbSymbolTable
0
ENDTAB
0
TABLE
2
LTYPE
5
5
100
AcDbSymbolTable
0
LTYPE
5
14
100
AcDbSymbolTableRecord
100
AcDbLinetypeTableRecord
2
BYBLOCK
70
0
0
LTYPE
5
15
100
AcDbSymbolTableRecord
100
AcDbLinetypeTableRecord
2
BYLAYER
70
0
0
ENDTAB
0
TABLE
2
LAYER
5
2
100
AcDbSymbolTable
70
2
0
LAYER
5
50
100
AcDbSymbolTableRecord
100
AcDbLayerTableRecord
2
0
70
0
6
CONTINUOUS
0
ENDTAB
0
TABLE
2
STYLE
5
3
100
AcDbSymbolTable
70
1
0
STYLE
5
11
100
AcDbSymbolTableRecord
100
AcDbTextStyleTableRecord
2
STANDARD
70
0
0
ENDTAB
0
TABLE
2
VIEW
5
6
100
AcDbSymbolTable
70
0
0
ENDTAB
0
TABLE
2
UCS
5
7
100
AcDbSymbolTable
70
0
0
ENDTAB
0
TABLE
2
APPID
5
9
100
AcDbSymbolTable
70
2
0
APPID
5
12
100
AcDbSymbolTableRecord
100
AcDbRegAppTableRecord
2
ACAD
70
0
0
ENDTAB
0
TABLE
2
DIMSTYLE
5
A
100
AcDbSymbolTable
70
1
0
ENDTAB
0
TABLE
2
BLOCK_RECORD
5
1
100
AcDbSymbolTable
70
1
0
BLOCK_RECORD
5
1F
100
AcDbSymbolTableRecord
100
AcDbBlockTableRecord
2
*MODEL_SPACE
0
BLOCK_RECORD
5
1B
100
AcDbSymbolTableRecord
100
AcDbBlockTableRecord
2
*PAPER_SPACE
0
ENDTAB
0
ENDSEC
0
SECTION
2
BLOCKS
0
BLOCK
5
20
100
AcDbEntity
100
AcDbBlockBegin
2
*MODEL_SPACE
0
ENDBLK
5
21
100
AcDbEntity
100
AcDbBlockEnd
0
BLOCK
5
1C
100
AcDbEntity
100
AcDbBlockBegin
2
*PAPER_SPACE
0
ENDBLK
5
1D
100
AcDbEntity
100
AcDbBlockEnd
0
ENDSEC
0
SECTION
2
ENTITIES
0
ARC
5
100
100
AcDbEntity
8
0
100
AcDbCircle
10
9.9999999999999982
20
38.750000000000014
30
0
40
2.2499999999999973
210
0
220
-0
230
1
100
AcDbArc
50
5.8739362642469555
51
179.99627577632992
0
ARC
5
101
100
AcDbEntity
8
0
100
AcDbCircle
10
-1.8936355828116132e-15
20
38.75017777760263
30
0
40
7.7500000002716494
210
0
220
0
230
1
100
AcDbArc
50
180.00023308333277
51
359.99976691666717
0
CIRCLE
5
102
100
AcDbEntity
8
0
100
AcDbCircle
10
-10.000000000000002
20
38.750000000000014
30
0
40
0.99999999999999856
210
0
220
0
230
1
0
CIRCLE
5
103
100
AcDbEntity
8
0
100
AcDbCircle
10
9.9999999999999982
20
38.750000000000014
30
0
40
1.0000000000000009
210
0
220
0
230
1
0
CIRCLE
5
104
100
AcDbEntity
8
0
100
AcDbCircle
10
-10.000000000000002
20
-38.750000000000014
30
0
40
0.99999999999999856
210
0
220
0
230
1
0
ARC
5
105
100
AcDbEntity
8
0
100
AcDbCircle
10
-10.000000000000002
20
-38.750000000000014
30
0
40
2.250000000000004
210
0
220
0
230
1
100
AcDbArc
50
185.87393626415238
51
359.99627577632987
0
ARC
5
106
100
AcDbEntity
8
0
100
AcDbCircle
10
-10.000000000000002
20
38.750000000000014
30
0
40
2.250000004545599
210
0
220
-0
230
1
100
AcDbArc
50
0.0037242236700864781
51
174.12606373584765
0
ARC
5
107
100
AcDbEntity
8
0
100
AcDbCircle
10
9.9999999999999982
20
-38.750000000000014
30
0
40
2.250000004545595
210
0
220
0
230
1
100
AcDbArc
50
180.00372422367008
51
354.12606373575306
0
ARC
5
108
100
AcDbEntity
8
0
100
AcDbCircle
10
-1.8936355828116132e-15
20
-38.75017777760263
30
0
40
7.7500000002716538
210
0
220
-0
230
1
100
AcDbArc
50
0.00023308333278185882
51
179.9997669166672
0
CIRCLE
5
109
100
AcDbEntity
8
0
100
AcDbCircle
10
9.9999999999999982
20
-38.750000000000014
30
0
40
1.0000000000000009
210
0
220
0
230
1
0
LWPOLYLINE
5
110
100
AcDbEntity
8
0
100
AcDbPolyline
90
4
70
1
43
0.0
10
-5.0000000000000018
20
11.999999999999995
10
-5.0000000000000018
20
-12
42
-0.99999999999999989
10
-8.9999999999999964
20
-11.999999999999996
10
-9.0000000000000124
20
11.999999999999996
42
-0.99999999999999989
0
LWPOLYLINE
5
111
100
AcDbEntity
8
0
100
AcDbPolyline
90
4
70
1
43
0.0
10
5.0000000000000071
20
-11.999999999999993
10
4.9999999999999982
20
12.000000000000002
42
-0.99999999999999989
10
8.9999999999999947
20
12.000000000000002
10
9.0000000000000124
20
-11.999999999999993
42
-0.99999999999999989
0
LINE
5
112
100
AcDbEntity
8
0
100
AcDbLine
10
-12.238186317214497
20
38.980265085138505
30
0
11
-12.238186317214497
21
-38.980265085138505
31
0
0
LINE
5
113
100
AcDbEntity
8
0
100
AcDbLine
10
12.238186317214106
20
38.9802650851422
30
0
11
12.238186317214106
21
-38.9802650851422
31
0
0
LWPOLYLINE
5
114
100
AcDbEntity
8
0
100
AcDbPolyline
90
8
70
1
43
0.0
10
8.9999999999686597
20
-27.093000000010449
10
8.9999999999779448
20
-19.093000000008125
42
0.59664859590529673
10
5.9022629850184387
20
-17.421182591919628
42
-0.075897409319544931
10
2.9511314925079999
20
-18.77286827380863
42
0.33494322024781642
10
1.4999999999879898
20
-20.69608000461006
10
1.4999999999852078
20
-25.489919995402882
42
0.3349432202478177
10
2.951131492502983
20
-27.413131726205989
42
-0.075897409319435172
10
5.9022629850079245
20
-28.764817408095844
42
0.59664859590514951
0
LWPOLYLINE
5
115
100
AcDbEntity
8
0
100
AcDbPolyline
90
8
70
1
43
0.0
10
-9
20
-27.093000000000004
10
-9.0000000000000036
20
-19.093000000008125
42
-0.59664859590706776
10
-5.9022629850385355
20
-17.421182591912775
42
0.075897409319542281
10
-2.951131492529778
20
-18.77286827380517
42
-0.33494322024781426
10
-1.5000000000120119
20
-20.696080004608277
10
-1.5000000000147937
20
-25.489919995401166
42
-0.33494322024781198
10
-2.9511314925347905
20
-27.41313172620259
42
0.075897409319433104
10
-5.9022629850412169
20
-28.764817408088991
42
-0.59664859590514718
0
LWPOLYLINE
5
116
100
AcDbEntity
8
0
100
AcDbPolyline
90
8
70
1
43
0.0
10
2.9511314925164878
20
18.772868273807287
42
-0.075897409319544709
10
5.9022629850263044
20
17.421182591916956
42
0.59664859590529729
10
8.9999999999865778
20
19.093000000004061
10
8.9999999999809095
20
27.093000000006381
42
0.59664859590514963
10
5.9022629850209363
20
28.764817408093176
42
-0.075897409319435172
10
2.9511314925153815
20
27.413131726204657
42
0.33494322024781753
10
1.4999999999967324
20
25.489919995402207
10
1.4999999999973468
20
20.696080004609385
42
0.33494322024781659
0
LWPOLYLINE
5
117
100
AcDbEntity
8
0
100
AcDbPolyline
90
8
70
1
43
0.0
10
-8.9999999999877573
20
27.093000000004071
42
-0.59664859590514718
10
-5.9022629850282069
20
28.764817408091659
42
0.075897409319432924
10
-2.9511314925223959
20
27.413131726203922
42
-0.33494322024781209
10
-1.5000000000032687
20
25.489919995401841
10
-1.5000000000026552
20
20.696080004608952
42
-0.33494322024781409
10
-2.951131492521291
20
18.772868273806502
42
0.0758974093195421
10
-5.9022629850306618
20
17.421182591915446
42
-0.59664859590706709
10
-8.9999999999913669
20
19.093000000012196
0
ENDSEC
0
SECTION
2
OBJECTS
0
DICTIONARY
5
C
100
AcDbDictionary
3
ACAD_GROUP
350
D
3
ACAD_MLINESTYLE
350
17
0
DICTIONARY
5
D
100
AcDbDictionary
0
DICTIONARY
5
1A
330
C
100
AcDbDictionary
0
DICTIONARY
5
17
100
AcDbDictionary
0
ENDSEC
0
EOF
