0
SECTION
2
HEADER
9
$INSUNITS
70
4
9
$ACADVER
1
AC1014
9
$HANDSEED
5
FFFF
0
ENDSEC
0
SECTION
2
TABLES
0
TABLE
2
VPORT
5
8
100
AcDbSymbolTable
0
ENDTAB
0
TABLE
2
LTYPE
5
5
100
AcDbSymbolTable
0
LTYPE
5
14
100
AcDbSymbolTableRecord
100
AcDbLinetypeTableRecord
2
BYBLOCK
70
0
0
LTYPE
5
15
100
AcDbSymbolTableRecord
100
AcDbLinetypeTableRecord
2
BYLAYER
70
0
0
ENDTAB
0
TABLE
2
LAYER
5
2
100
AcDbSymbolTable
70
2
0
LAYER
5
50
100
AcDbSymbolTableRecord
100
AcDbLayerTableRecord
2
0
70
0
6
CONTINUOUS
0
ENDTAB
0
TABLE
2
STYLE
5
3
100
AcDbSymbolTable
70
1
0
STYLE
5
11
100
AcDbSymbolTableRecord
100
AcDbTextStyleTableRecord
2
STANDARD
70
0
0
ENDTAB
0
TABLE
2
VIEW
5
6
100
AcDbSymbolTable
70
0
0
ENDTAB
0
TABLE
2
UCS
5
7
100
AcDbSymbolTable
70
0
0
ENDTAB
0
TABLE
2
APPID
5
9
100
AcDbSymbolTable
70
2
0
APPID
5
12
100
AcDbSymbolTableRecord
100
AcDbRegAppTableRecord
2
ACAD
70
0
0
ENDTAB
0
TABLE
2
DIMSTYLE
5
A
100
AcDbSymbolTable
70
1
0
ENDTAB
0
TABLE
2
BLOCK_RECORD
5
1
100
AcDbSymbolTable
70
1
0
BLOCK_RECORD
5
1F
100
AcDbSymbolTableRecord
100
AcDbBlockTableRecord
2
*MODEL_SPACE
0
BLOCK_RECORD
5
1B
100
AcDbSymbolTableRecord
100
AcDbBlockTableRecord
2
*PAPER_SPACE
0
ENDTAB
0
ENDSEC
0
SECTION
2
BLOCKS
0
BLOCK
5
20
100
AcDbEntity
100
AcDbBlockBegin
2
*MODEL_SPACE
0
ENDBLK
5
21
100
AcDbEntity
100
AcDbBlockEnd
0
BLOCK
5
1C
100
AcDbEntity
100
AcDbBlockBegin
2
*PAPER_SPACE
0
ENDBLK
5
1D
100
AcDbEntity
100
AcDbBlockEnd
0
ENDSEC
0
SECTION
2
ENTITIES
0
LINE
5
100
100
AcDbEntity
8
0
100
AcDbLine
10
12.382403962201025
20
-22.055195892977352
30
0
11
12.238186317214106
21
-38.9802650851422
31
0
0
LINE
5
101
100
AcDbEntity
8
0
100
AcDbLine
10
14.150650964601937
20
-6.6777761601442567
30
0
11
19.414213562373096
21
-1.4142135623730945
31
0
0
CIRCLE
5
102
100
AcDbEntity
8
0
100
AcDbCircle
10
-8
20
8
30
0
40
1.0000000000000004
210
0
220
0
230
1
0
CIRCLE
5
103
100
AcDbEntity
8
0
100
AcDbCircle
10
0
20
-18
30
0
40
1
210
0
220
0
230
1
0
CIRCLE
5
104
100
AcDbEntity
8
0
100
AcDbCircle
10
-8
20
-8
30
0
40
0.99999999999999978
210
0
220
0
230
1
0
LINE
5
105
100
AcDbEntity
8
0
100
AcDbLine
10
-12.382403962201025
20
22.055195892977352
30
0
11
-12.238186317214497
21
38.980265085138505
31
0
0
LINE
5
106
100
AcDbEntity
8
0
100
AcDbLine
10
-14.150650964601937
20
6.6777761601442567
30
0
11
-19.414213562373096
21
1.4142135623730923
31
0
0
CIRCLE
5
107
100
AcDbEntity
8
0
100
AcDbCircle
10
8
20
8
30
0
40
0.99999999999999989
210
0
220
0
230
1
0
LINE
5
108
100
AcDbEntity
8
0
100
AcDbLine
10
12.382403962201025
20
22.055195892977352
30
0
11
12.238186317214106
21
38.9802650851422
31
0
0
ARC
5
109
100
AcDbEntity
8
0
100
AcDbCircle
10
9.9999999999999982
20
38.750000000000014
30
0
40
2.2499999999999973
210
0
220
-0
230
1
100
AcDbArc
50
5.8739362642469555
51
179.99627577632992
0
ARC
5
110
100
AcDbEntity
8
0
100
AcDbCircle
10
-1.8936355828116132e-15
20
38.75017777760263
30
0
40
7.7500000002716494
210
0
220
0
230
1
100
AcDbArc
50
180.00023308333277
51
359.99976691666717
0
CIRCLE
5
111
100
AcDbEntity
8
0
100
AcDbCircle
10
-10.000000000000002
20
38.750000000000014
30
0
40
0.99999999999999856
210
0
220
0
230
1
0
CIRCLE
5
112
100
AcDbEntity
8
0
100
AcDbCircle
10
9.9999999999999982
20
38.750000000000014
30
0
40
1.0000000000000009
210
0
220
0
230
1
0
LINE
5
113
100
AcDbEntity
8
0
100
AcDbLine
10
14.150650964601937
20
6.6777761601442576
30
0
11
19.414213562373096
21
1.4142135623730945
31
0
0
CIRCLE
5
114
100
AcDbEntity
8
0
100
AcDbCircle
10
18
20
0
30
0
40
1
210
0
220
0
230
1
0
CIRCLE
5
115
100
AcDbEntity
8
0
100
AcDbCircle
10
0
20
18
30
0
40
1
210
0
220
0
230
1
0
LINE
5
116
100
AcDbEntity
8
0
100
AcDbLine
10
-14.150650964601937
20
-6.6777761601442567
30
0
11
-19.414213562373096
21
-1.4142135623730923
31
0
0
ARC
5
117
100
AcDbEntity
8
0
100
AcDbCircle
10
17.999999999999996
20
-2.7755575615628914e-16
30
0
40
2.0000000000000022
210
0
220
0
230
1
100
AcDbArc
50
-44.999999999999901
51
44.999999999999901
0
CIRCLE
5
118
100
AcDbEntity
8
0
100
AcDbCircle
10
-10.000000000000002
20
-38.750000000000014
30
0
40
0.99999999999999856
210
0
220
0
230
1
0
LINE
5
119
100
AcDbEntity
8
0
100
AcDbLine
10
-12.382403962201025
20
-22.055195892977352
30
0
11
-12.238186317214497
21
-38.980265085138505
31
0
0
ARC
5
120
100
AcDbEntity
8
0
100
AcDbCircle
10
-10.000000000000002
20
-38.750000000000014
30
0
40
2.250000000000004
210
0
220
0
230
1
100
AcDbArc
50
185.87393626415238
51
359.99627577632987
0
ARC
5
121
100
AcDbEntity
8
0
100
AcDbCircle
10
-18.000000000000004
20
0
30
0
40
1.999999999999996
210
0
220
0
230
1
100
AcDbArc
50
135
51
225
0
ARC
5
122
100
AcDbEntity
8
0
100
AcDbCircle
10
-10.000000000000002
20
38.750000000000014
30
0
40
2.250000004545599
210
0
220
-0
230
1
100
AcDbArc
50
0.0037242236700864781
51
174.12606373584765
0
ARC
5
123
100
AcDbEntity
8
0
100
AcDbCircle
10
9.9999999999999982
20
-38.750000000000014
30
0
40
2.250000004545595
210
0
220
0
230
1
100
AcDbArc
50
180.00372422367008
51
354.12606373575306
0
CIRCLE
5
124
100
AcDbEntity
8
0
100
AcDbCircle
10
8
20
-8
30
0
40
1.0000000000000004
210
0
220
0
230
1
0
ARC
5
125
100
AcDbEntity
8
0
100
AcDbCircle
10
-1.8936355828116132e-15
20
-38.75017777760263
30
0
40
7.7500000002716538
210
0
220
-0
230
1
100
AcDbArc
50
0.00023308333278185882
51
179.9997669166672
0
CIRCLE
5
126
100
AcDbEntity
8
0
100
AcDbCircle
10
-18
20
-2.1367543271707605e-15
30
0
40
1
210
0
220
0
230
1
0
CIRCLE
5
127
100
AcDbEntity
8
0
100
AcDbCircle
10
9.9999999999999982
20
-38.750000000000014
30
0
40
1.0000000000000009
210
0
220
0
230
1
0
LINE
5
128
100
AcDbEntity
8
0
100
AcDbLine
10
19.511354418102684
20
13.597844840212804
30
0
11
14.355780992492882
21
9.6851366104859871
31
0
0
LINE
5
129
100
AcDbEntity
8
0
100
AcDbLine
10
16.382258756977322
20
18.089278450173595
30
0
11
18
21
18.089278450173595
31
0
0
ARC
5
130
100
AcDbEntity
8
0
100
AcDbCircle
10
16.382258756977315
20
22.089278450173584
30
0
40
3.9999999999999885
210
0
220
0
230
1
100
AcDbArc
50
180.48820257806631
51
270.00000000000011
0
ARC
5
131
100
AcDbEntity
8
0
100
AcDbCircle
10
18
20
15.589278450173598
30
0
40
2.4999999999999969
210
0
220
0
230
1
100
AcDbArc
50
-52.804125001230361
51
90
0
CIRCLE
5
132
100
AcDbEntity
8
0
100
AcDbCircle
10
18
20
15.589278450173598
30
0
40
0.99999999999999967
210
0
220
0
230
1
0
ARC
5
133
100
AcDbEntity
8
0
100
AcDbCircle
10
-18
20
15.589278450173598
30
0
40
2.4999999999999978
210
0
220
-0
230
1
100
AcDbArc
50
90
51
232.80412500123037
0
LINE
5
134
100
AcDbEntity
8
0
100
AcDbLine
10
-16.382258756977322
20
18.089278450173595
30
0
11
-18
21
18.089278450173595
31
0
0
ARC
5
135
100
AcDbEntity
8
0
100
AcDbCircle
10
-16.382258756977315
20
22.089278450173584
30
0
40
3.999999999999988
210
0
220
0
230
1
100
AcDbArc
50
269.99999999999989
51
359.51179742193369
0
LINE
5
136
100
AcDbEntity
8
0
100
AcDbLine
10
-19.511354418102684
20
13.597844840212804
30
0
11
-14.355780992492878
21
9.6851366104859853
31
0
0
CIRCLE
5
137
100
AcDbEntity
8
0
100
AcDbCircle
10
-18
20
15.589278450173598
30
0
40
0.99999999999999967
210
0
220
0
230
1
0
ARC
5
138
100
AcDbEntity
8
0
100
AcDbCircle
10
16.382258756977315
20
-22.089278450173584
30
0
40
3.999999999999988
210
0
220
-0
230
1
100
AcDbArc
50
89.999999999999901
51
179.51179742193369
0
LINE
5
139
100
AcDbEntity
8
0
100
AcDbLine
10
16.382258756977322
20
-18.089278450173595
30
0
11
18
21
-18.089278450173595
31
0
0
ARC
5
140
100
AcDbEntity
8
0
100
AcDbCircle
10
18
20
-15.589278450173598
30
0
40
2.4999999999999978
210
0
220
0
230
1
100
AcDbArc
50
-90
51
52.804125001230375
0
LINE
5
141
100
AcDbEntity
8
0
100
AcDbLine
10
19.511354418102684
20
-13.597844840212804
30
0
11
14.355780992492882
21
-9.6851366104859853
31
0
0
CIRCLE
5
142
100
AcDbEntity
8
0
100
AcDbCircle
10
18
20
-15.589278450173598
30
0
40
0.99999999999999967
210
0
220
0
230
1
0
LINE
5
143
100
AcDbEntity
8
0
100
AcDbLine
10
-19.511354418102684
20
-13.597844840212804
30
0
11
-14.355780992492878
21
-9.6851366104859853
31
0
0
ARC
5
144
100
AcDbEntity
8
0
100
AcDbCircle
10
-18
20
-15.589278450173598
30
0
40
2.4999999999999969
210
0
220
0
230
1
100
AcDbArc
50
127.19587499876964
51
270
0
LINE
5
145
100
AcDbEntity
8
0
100
AcDbLine
10
-16.382258756977322
20
-18.089278450173595
30
0
11
-18
21
-18.089278450173595
31
0
0
ARC
5
146
100
AcDbEntity
8
0
100
AcDbCircle
10
-16.382258756977315
20
-22.089278450173584
30
0
40
3.9999999999999885
210
0
220
-0
230
1
100
AcDbArc
50
0.48820257806631984
51
90.000000000000099
0
CIRCLE
5
147
100
AcDbEntity
8
0
100
AcDbCircle
10
-18
20
-15.589278450173598
30
0
40
0.99999999999999967
210
0
220
0
230
1
0
ARC
5
148
100
AcDbEntity
8
0
100
AcDbCircle
10
-15.564864526975029
20
8.0919897225173507
30
0
40
1.9999999999999976
210
-0
220
0
230
1
100
AcDbArc
50
-45.00000000000005
51
52.804125001230297
0
ARC
5
149
100
AcDbEntity
8
0
100
AcDbCircle
10
15.564864526975036
20
8.0919897225173507
30
0
40
2.0000000000000022
210
0
220
0
230
1
100
AcDbArc
50
127.19587499876977
51
224.99999999999989
0
ARC
5
150
100
AcDbEntity
8
0
100
AcDbCircle
10
15.564864526975033
20
-8.0919897225173507
30
0
40
2.0000000000000009
210
0
220
0
230
1
100
AcDbArc
50
135.00000000000006
51
232.80412500123026
0
ARC
5
151
100
AcDbEntity
8
0
100
AcDbCircle
10
-15.564864526975029
20
-8.0919897225173507
30
0
40
1.9999999999999982
210
0
220
0
230
1
100
AcDbArc
50
-52.804125001230318
51
45.000000000000028
0
LWPOLYLINE
5
152
100
AcDbEntity
8
0
100
AcDbPolyline
90
8
70
1
43
0.0
10
-1.3788582233137692
20
14.550431098567575
42
-0.41421356237309587
10
1.378858223313767
20
14.55043109856758
10
5.1362175361944811
20
10.793071785686866
42
-0.41421356237309553
10
5.136217536194482
20
8.0353553390593273
10
1.3788582233137676
20
4.2779960261786156
42
-0.41421356237309503
10
-1.3788582233137676
20
4.2779960261786147
10
-5.136217536194482
20
8.0353553390593273
42
-0.41421356237309548
10
-5.136217536194482
20
10.793071785686866
0
LWPOLYLINE
5
153
100
AcDbEntity
8
0
100
AcDbPolyline
90
8
70
1
43
0.0
10
-4.2779960261786112
20
1.3788582233137647
10
-8.0353553390593291
20
5.136217536194482
42
0.41421356237309542
10
-10.793071785686866
20
5.136217536194482
10
-14.550431098567579
20
1.3788582233137663
42
0.41421356237309481
10
-14.550431098567582
20
-1.3788582233137636
10
-10.793071785686861
20
-5.136217536194482
42
0.41421356237309515
10
-8.0353553390593273
20
-5.136217536194482
10
-4.2779960261786147
20
-1.3788582233137692
42
0.41421356237309498
0
LWPOLYLINE
5
154
100
AcDbEntity
8
0
100
AcDbPolyline
90
8
70
1
43
0.0
10
-1.3788582233137694
20
-4.2779960261786147
42
-0.41421356237309598
10
1.3788582233137658
20
-4.277996026178613
10
5.136217536194482
20
-8.0353553390593273
42
-0.41421356237309548
10
5.136217536194482
20
-10.793071785686866
10
1.3788582233137658
20
-14.550431098567579
42
-0.41421356237309431
10
-1.3788582233137658
20
-14.550431098567582
10
-5.1362175361944828
20
-10.793071785686861
42
-0.41421356237309542
10
-5.136217536194482
20
-8.0353553390593273
0
LWPOLYLINE
5
155
100
AcDbEntity
8
0
100
AcDbPolyline
90
8
70
1
43
0.0
10
14.550431098567582
20
1.3788582233137661
42
-0.41421356237309592
10
14.550431098567582
20
-1.3788582233137647
10
10.793071785686863
20
-5.1362175361944846
42
-0.41421356237309548
10
8.0353553390593273
20
-5.1362175361944828
10
4.2779960261786121
20
-1.3788582233137676
42
-0.41421356237309503
10
4.277996026178613
20
1.3788582233137681
10
8.0353553390593273
20
5.1362175361944828
42
-0.41421356237309498
10
10.793071785686863
20
5.1362175361944828
0
LWPOLYLINE
5
156
100
AcDbEntity
8
0
100
AcDbPolyline
90
8
70
1
43
0.0
10
2.9511314925164878
20
18.772868273807298
42
-0.33494322024781659
10
1.4999999999973468
20
20.696080004609385
10
1.4999999999967317
20
25.489919995402207
42
-0.33494322024781753
10
2.9511314925153824
20
27.413131726204654
42
0.075897409319435172
10
5.9022629850209345
20
28.764817408093172
42
-0.59664859590514963
10
8.9999999999809095
20
27.093000000006381
10
8.9999999999865725
20
19.093000000004061
42
-0.59664859590529729
10
5.9022629850263044
20
17.421182591916956
42
0.075897409319544723
0
LWPOLYLINE
5
157
100
AcDbEntity
8
0
100
AcDbPolyline
90
8
70
1
43
0.0
10
-5.9022629850306618
20
17.421182591915446
42
-0.59664859590706709
10
-8.9999999999913669
20
19.093000000012196
10
-8.9999999999877573
20
27.093000000004071
42
-0.59664859590514718
10
-5.9022629850282069
20
28.764817408091659
42
0.075897409319432924
10
-2.9511314925223959
20
27.413131726203922
42
-0.33494322024781209
10
-1.5000000000032687
20
25.489919995401841
10
-1.5000000000026552
20
20.696080004608952
42
-0.33494322024781409
10
-2.951131492521291
20
18.772868273806502
42
0.0758974093195421
0
LWPOLYLINE
5
158
100
AcDbEntity
8
0
100
AcDbPolyline
90
8
70
1
43
0.0
10
-1.5000000000147937
20
-25.489919995401166
42
-0.33494322024781198
10
-2.9511314925347905
20
-27.41313172620259
42
0.075897409319433104
10
-5.9022629850412169
20
-28.764817408088991
42
-0.59664859590514718
10
-9
20
-27.093000000000004
10
-9.0000000000000036
20
-19.093000000008125
42
-0.59664859590706776
10
-5.9022629850385355
20
-17.421182591912775
42
0.075897409319542281
10
-2.951131492529778
20
-18.77286827380517
42
-0.33494322024781426
10
-1.5000000000120119
20
-20.696080004608277
0
LWPOLYLINE
5
159
100
AcDbEntity
8
0
100
AcDbPolyline
90
8
70
1
43
0.0
10
2.951131492502983
20
-27.413131726205989
42
-0.075897409319435172
10
5.9022629850079245
20
-28.764817408095844
42
0.59664859590514951
10
8.9999999999686597
20
-27.093000000010449
10
8.9999999999779448
20
-19.093000000008125
42
0.59664859590529673
10
5.9022629850184387
20
-17.421182591919628
42
-0.075897409319544931
10
2.9511314925079999
20
-18.77286827380863
42
0.33494322024781642
10
1.4999999999879898
20
-20.69608000461006
10
1.4999999999852078
20
-25.489919995402882
42
0.3349432202478177
0
ENDSEC
0
SECTION
2
OBJECTS
0
DICTIONARY
5
C
100
AcDbDictionary
3
ACAD_GROUP
350
D
3
ACAD_MLINESTYLE
350
17
0
DICTIONARY
5
D
100
AcDbDictionary
0
DICTIONARY
5
1A
330
C
100
AcDbDictionary
0
DICTIONARY
5
17
100
AcDbDictionary
0
ENDSEC
0
EOF
