0
SECTION
2
HEADER
9
$INSUNITS
70
4
9
$ACADVER
1
AC1014
9
$HANDSEED
5
FFFF
0
ENDSEC
0
SECTION
2
TABLES
0
TABLE
2
VPORT
5
8
100
AcDbSymbolTable
0
ENDTAB
0
TABLE
2
LTYPE
5
5
100
AcDbSymbolTable
0
LTYPE
5
14
100
AcDbSymbolTableRecord
100
AcDbLinetypeTableRecord
2
BYBLOCK
70
0
0
LTYPE
5
15
100
AcDbSymbolTableRecord
100
AcDbLinetypeTableRecord
2
BYLAYER
70
0
0
ENDTAB
0
TABLE
2
LAYER
5
2
100
AcDbSymbolTable
70
2
0
LAYER
5
50
100
AcDbSymbolTableRecord
100
AcDbLayerTableRecord
2
0
70
0
6
CONTINUOUS
0
ENDTAB
0
TABLE
2
STYLE
5
3
100
AcDbSymbolTable
70
1
0
STYLE
5
11
100
AcDbSymbolTableRecord
100
AcDbTextStyleTableRecord
2
STANDARD
70
0
0
ENDTAB
0
TABLE
2
VIEW
5
6
100
AcDbSymbolTable
70
0
0
ENDTAB
0
TABLE
2
UCS
5
7
100
AcDbSymbolTable
70
0
0
ENDTAB
0
TABLE
2
APPID
5
9
100
AcDbSymbolTable
70
2
0
APPID
5
12
100
AcDbSymbolTableRecord
100
AcDbRegAppTableRecord
2
ACAD
70
0
0
ENDTAB
0
TABLE
2
DIMSTYLE
5
A
100
AcDbSymbolTable
70
1
0
ENDTAB
0
TABLE
2
BLOCK_RECORD
5
1
100
AcDbSymbolTable
70
1
0
BLOCK_RECORD
5
1F
100
AcDbSymbolTableRecord
100
AcDbBlockTableRecord
2
*MODEL_SPACE
0
BLOCK_RECORD
5
1B
100
AcDbSymbolTableRecord
100
AcDbBlockTableRecord
2
*PAPER_SPACE
0
ENDTAB
0
ENDSEC
0
SECTION
2
BLOCKS
0
BLOCK
5
20
100
AcDbEntity
100
AcDbBlockBegin
2
*MODEL_SPACE
0
ENDBLK
5
21
100
AcDbEntity
100
AcDbBlockEnd
0
BLOCK
5
1C
100
AcDbEntity
100
AcDbBlockBegin
2
*PAPER_SPACE
0
ENDBLK
5
1D
100
AcDbEntity
100
AcDbBlockEnd
0
ENDSEC
0
SECTION
2
ENTITIES
0
CIRCLE
5
100
100
AcDbEntity
8
0
100
AcDbCircle
10
-8
20
8
30
0
40
1.0000000000000004
210
0
220
0
230
1
0
CIRCLE
5
101
100
AcDbEntity
8
0
100
AcDbCircle
10
0
20
-18
30
0
40
1
210
0
220
0
230
1
0
CIRCLE
5
102
100
AcDbEntity
8
0
100
AcDbCircle
10
-8
20
-8
30
0
40
0.99999999999999978
210
0
220
0
230
1
0
CIRCLE
5
103
100
AcDbEntity
8
0
100
AcDbCircle
10
8
20
8
30
0
40
0.99999999999999989
210
0
220
0
230
1
0
CIRCLE
5
104
100
AcDbEntity
8
0
100
AcDbCircle
10
18
20
0
30
0
40
1
210
0
220
0
230
1
0
CIRCLE
5
105
100
AcDbEntity
8
0
100
AcDbCircle
10
0
20
18
30
0
40
1
210
0
220
0
230
1
0
LWPOLYLINE
5
106
100
AcDbEntity
8
0
100
AcDbPolyline
90
32
70
1
43
0.0
10
19.414213562373096
20
1.4142135623730943
42
-0.41421356237309415
10
19.414213562373096
20
-1.4142135623730945
10
14.303939946847507
20
-6.5244871778986857
42
0.41421356237309503
10
14.303939946847507
20
-10.767127865017972
10
18.645262088452164
20
-15.108450006622629
42
-0.99999999999999989
10
15.109728182519424
20
-18.64398391255537
10
10.768406040914765
20
-14.30266177095071
42
0.41421356237309509
10
6.5257653537954798
20
-14.30266177095071
10
1.4142135623730965
20
-19.414213562373096
42
-0.41421356237309537
10
-1.4142135623730967
20
-19.414213562373096
10
-6.5257653537954781
20
-14.30266177095071
42
0.41421356237309509
10
-10.768406040914765
20
-14.30266177095071
10
-15.109728182519424
20
-18.64398391255537
42
-0.99999999999999989
10
-18.645262088452164
20
-15.108450006622629
10
-14.303939946847503
20
-10.767127865017969
42
0.4142135623730952
10
-14.303939946847503
20
-6.5244871778986857
10
-19.414213562373096
20
-1.4142135623730923
42
-0.41421356237309503
10
-19.414213562373096
20
1.4142135623730923
10
-14.303939946847503
20
6.5244871778986857
42
0.4142135623730952
10
-14.303939946847503
20
10.767127865017969
10
-18.645262088452164
20
15.108450006622629
42
-0.99999999999999989
10
-15.109728182519424
20
18.64398391255537
10
-10.768406040914765
20
14.30266177095071
42
0.41421356237309509
10
-6.5257653537954798
20
14.30266177095071
10
-1.4142135623730963
20
19.414213562373096
42
-0.41421356237309537
10
1.4142135623730956
20
19.414213562373096
10
6.5257653537954781
20
14.30266177095071
42
0.41421356237309509
10
10.768406040914765
20
14.30266177095071
10
15.109728182519424
20
18.64398391255537
42
-0.99999999999999989
10
18.645262088452164
20
15.108450006622629
10
14.303939946847507
20
10.767127865017972
42
0.41421356237309503
10
14.303939946847507
20
6.5244871778986857
0
CIRCLE
5
107
100
AcDbEntity
8
0
100
AcDbCircle
10
8
20
-8
30
0
40
1.0000000000000004
210
0
220
0
230
1
0
CIRCLE
5
108
100
AcDbEntity
8
0
100
AcDbCircle
10
-18
20
-2.1367543271707605e-15
30
0
40
1
210
0
220
0
230
1
0
LWPOLYLINE
5
109
100
AcDbEntity
8
0
100
AcDbPolyline
90
8
70
1
43
0.0
10
-1.3788582233137692
20
14.550431098567575
42
-0.41421356237309587
10
1.378858223313767
20
14.55043109856758
10
5.1362175361944811
20
10.793071785686866
42
-0.41421356237309553
10
5.136217536194482
20
8.0353553390593273
10
1.3788582233137676
20
4.2779960261786156
42
-0.41421356237309503
10
-1.3788582233137676
20
4.2779960261786147
10
-5.136217536194482
20
8.0353553390593273
42
-0.41421356237309548
10
-5.136217536194482
20
10.793071785686866
0
LWPOLYLINE
5
110
100
AcDbEntity
8
0
100
AcDbPolyline
90
8
70
1
43
0.0
10
-4.2779960261786112
20
1.3788582233137647
10
-8.0353553390593291
20
5.136217536194482
42
0.41421356237309542
10
-10.793071785686866
20
5.136217536194482
10
-14.550431098567579
20
1.3788582233137663
42
0.41421356237309481
10
-14.550431098567582
20
-1.3788582233137636
10
-10.793071785686861
20
-5.136217536194482
42
0.41421356237309515
10
-8.0353553390593273
20
-5.136217536194482
10
-4.2779960261786147
20
-1.3788582233137692
42
0.41421356237309498
0
LWPOLYLINE
5
111
100
AcDbEntity
8
0
100
AcDbPolyline
90
8
70
1
43
0.0
10
-1.3788582233137694
20
-4.2779960261786147
42
-0.41421356237309598
10
1.3788582233137658
20
-4.277996026178613
10
5.136217536194482
20
-8.0353553390593273
42
-0.41421356237309548
10
5.136217536194482
20
-10.793071785686866
10
1.3788582233137658
20
-14.550431098567579
42
-0.41421356237309431
10
-1.3788582233137658
20
-14.550431098567582
10
-5.1362175361944828
20
-10.793071785686861
42
-0.41421356237309542
10
-5.136217536194482
20
-8.0353553390593273
0
LWPOLYLINE
5
112
100
AcDbEntity
8
0
100
AcDbPolyline
90
8
70
1
43
0.0
10
14.550431098567582
20
1.3788582233137661
42
-0.41421356237309592
10
14.550431098567582
20
-1.3788582233137647
10
10.793071785686863
20
-5.1362175361944846
42
-0.41421356237309548
10
8.0353553390593273
20
-5.1362175361944828
10
4.2779960261786121
20
-1.3788582233137676
42
-0.41421356237309503
10
4.277996026178613
20
1.3788582233137681
10
8.0353553390593273
20
5.1362175361944828
42
-0.41421356237309498
10
10.793071785686863
20
5.1362175361944828
0
CIRCLE
5
113
100
AcDbEntity
8
0
100
AcDbCircle
10
16.877495135485795
20
16.876216959588998
30
0
40
0.99999999999999956
210
0
220
-0
230
1
0
CIRCLE
5
114
100
AcDbEntity
8
0
100
AcDbCircle
10
-16.877495135485795
20
16.876216959588998
30
0
40
0.99999999999999956
210
0
220
-0
230
1
0
CIRCLE
5
115
100
AcDbEntity
8
0
100
AcDbCircle
10
16.877495135485795
20
-16.876216959588998
30
0
40
0.99999999999999956
210
0
220
-0
230
1
0
CIRCLE
5
116
100
AcDbEntity
8
0
100
AcDbCircle
10
-16.877495135485795
20
-16.876216959588998
30
0
40
0.99999999999999956
210
0
220
-0
230
1
0
ENDSEC
0
SECTION
2
OBJECTS
0
DICTIONARY
5
C
100
AcDbDictionary
3
ACAD_GROUP
350
D
3
ACAD_MLINESTYLE
350
17
0
DICTIONARY
5
D
100
AcDbDictionary
0
DICTIONARY
5
1A
330
C
100
AcDbDictionary
0
DICTIONARY
5
17
100
AcDbDictionary
0
ENDSEC
0
EOF
