0
SECTION
2
HEADER
9
$INSUNITS
70
4
9
$ACADVER
1
AC1014
9
$HANDSEED
5
FFFF
0
ENDSEC
0
SECTION
2
TABLES
0
TABLE
2
VPORT
5
8
100
AcDbSymbolTable
0
ENDTAB
0
TABLE
2
LTYPE
5
5
100
AcDbSymbolTable
0
LTYPE
5
14
100
AcDbSymbolTableRecord
100
AcDbLinetypeTableRecord
2
BYBLOCK
70
0
0
LTYPE
5
15
100
AcDbSymbolTableRecord
100
AcDbLinetypeTableRecord
2
BYLAYER
70
0
0
ENDTAB
0
TABLE
2
LAYER
5
2
100
AcDbSymbolTable
70
2
0
LAYER
5
50
100
AcDbSymbolTableRecord
100
AcDbLayerTableRecord
2
0
70
0
6
CONTINUOUS
0
ENDTAB
0
TABLE
2
STYLE
5
3
100
AcDbSymbolTable
70
1
0
STYLE
5
11
100
AcDbSymbolTableRecord
100
AcDbTextStyleTableRecord
2
STANDARD
70
0
0
ENDTAB
0
TABLE
2
VIEW
5
6
100
AcDbSymbolTable
70
0
0
ENDTAB
0
TABLE
2
UCS
5
7
100
AcDbSymbolTable
70
0
0
ENDTAB
0
TABLE
2
APPID
5
9
100
AcDbSymbolTable
70
2
0
APPID
5
12
100
AcDbSymbolTableRecord
100
AcDbRegAppTableRecord
2
ACAD
70
0
0
ENDTAB
0
TABLE
2
DIMSTYLE
5
A
100
AcDbSymbolTable
70
1
0
ENDTAB
0
TABLE
2
BLOCK_RECORD
5
1
100
AcDbSymbolTable
70
1
0
BLOCK_RECORD
5
1F
100
AcDbSymbolTableRecord
100
AcDbBlockTableRecord
2
*MODEL_SPACE
0
BLOCK_RECORD
5
1B
100
AcDbSymbolTableRecord
100
AcDbBlockTableRecord
2
*PAPER_SPACE
0
ENDTAB
0
ENDSEC
0
SECTION
2
BLOCKS
0
BLOCK
5
20
100
AcDbEntity
100
AcDbBlockBegin
2
*MODEL_SPACE
0
ENDBLK
5
21
100
AcDbEntity
100
AcDbBlockEnd
0
BLOCK
5
1C
100
AcDbEntity
100
AcDbBlockBegin
2
*PAPER_SPACE
0
ENDBLK
5
1D
100
AcDbEntity
100
AcDbBlockEnd
0
ENDSEC
0
SECTION
2
ENTITIES
0
CIRCLE
5
100
100
AcDbEntity
8
0
100
AcDbCircle
10
-8
20
8
30
0
40
1.0000000000000004
210
0
220
0
230
1
0
CIRCLE
5
101
100
AcDbEntity
8
0
100
AcDbCircle
10
-8
20
-8
30
0
40
0.99999999999999978
210
0
220
0
230
1
0
CIRCLE
5
102
100
AcDbEntity
8
0
100
AcDbCircle
10
8
20
8
30
0
40
0.99999999999999989
210
0
220
0
230
1
0
CIRCLE
5
103
100
AcDbEntity
8
0
100
AcDbCircle
10
8
20
-8
30
0
40
1.0000000000000004
210
0
220
0
230
1
0
CIRCLE
5
104
100
AcDbEntity
8
0
100
AcDbCircle
10
18
20
15.589278450173598
30
0
40
0.99999999999999967
210
0
220
0
230
1
0
CIRCLE
5
105
100
AcDbEntity
8
0
100
AcDbCircle
10
-18
20
15.589278450173598
30
0
40
0.99999999999999967
210
0
220
0
230
1
0
CIRCLE
5
106
100
AcDbEntity
8
0
100
AcDbCircle
10
18
20
-15.589278450173598
30
0
40
0.99999999999999967
210
0
220
0
230
1
0
CIRCLE
5
107
100
AcDbEntity
8
0
100
AcDbCircle
10
-18
20
-15.589278450173598
30
0
40
0.99999999999999967
210
0
220
0
230
1
0
CIRCLE
5
108
100
AcDbEntity
8
0
100
AcDbCircle
10
8
20
8
30
0
40
0.99999999999999989
210
0
220
0
230
1
0
LWPOLYLINE
5
109
100
AcDbEntity
8
0
100
AcDbPolyline
90
36
70
1
43
0.0
10
7.333333823603752
20
4.3556059138526946
10
19.511354418102684
20
13.597844840212804
42
0.99999999999999989
10
16.488645581897309
20
17.580712060134395
10
6.4886455818973126
20
9.9914336099607954
42
0.14535376308366366
10
5.6466646730453913
20
8.8436900135164844
42
-0.11074034684747802
10
5.1313645039357407
20
8.0305023068005887
10
1.3788582233137676
20
4.2779960261786156
42
-0.41421356237309503
10
-1.3788582233137676
20
4.2779960261786147
10
-5.131364503935739
20
8.0305023068005852
42
-0.1107403468474788
10
-5.6466646730453904
20
8.8436900135164827
42
0.14535376308366404
10
-6.4886455818973126
20
9.9914336099607972
10
-16.488645581897309
20
17.580712060134395
42
0.99999999999999989
10
-19.511354418102687
20
13.597844840212803
10
-7.333333823603807
20
4.3556059138527505
42
-0.034065086678026331
10
-6.7179437399309663
20
3.8188059370661191
10
-4.2779960261786112
20
1.378858223313765
42
-0.41421356237309498
10
-4.2779960261786147
20
-1.3788582233137692
10
-6.7179437399309379
20
-3.8188059370660907
42
-0.034065086678026775
10
-7.3333338236037715
20
-4.3556059138527123
10
-19.511354418102687
20
-13.597844840212803
42
0.99999999999999989
10
-16.488645581897309
20
-17.580712060134395
10
-6.4886455818973126
20
-9.9914336099607954
42
0.1453537630836638
10
-5.6466646730453913
20
-8.8436900135164844
42
-0.11074034684748139
10
-5.1313645039357407
20
-8.0305023068005834
10
-1.3788582233137694
20
-4.2779960261786147
42
-0.41421356237309598
10
1.3788582233137658
20
-4.277996026178613
10
5.131364503935739
20
-8.030502306800587
42
-0.11074034684747981
10
5.6466646730453913
20
-8.8436900135164862
42
0.14535376308366374
10
6.4886455818973126
20
-9.9914336099607972
10
16.488645581897309
20
-17.580712060134395
42
0.99999999999999989
10
19.511354418102687
20
-13.597844840212804
10
7.3333338236037058
20
-4.3556059138526528
42
-0.034065086678031223
10
6.7179437399308783
20
-3.8188059370660343
10
4.2779960261786121
20
-1.3788582233137676
42
-0.41421356237309503
10
4.277996026178613
20
1.3788582233137678
10
6.7179437399309228
20
3.8188059370660774
42
-0.034065086678031889
0
CIRCLE
5
110
100
AcDbEntity
8
0
100
AcDbCircle
10
18
20
15.589278450173598
30
0
40
0.99999999999999967
210
0
220
0
230
1
0
ENDSEC
0
SECTION
2
OBJECTS
0
DICTIONARY
5
C
100
AcDbDictionary
3
ACAD_GROUP
350
D
3
ACAD_MLINESTYLE
350
17
0
DICTIONARY
5
D
100
AcDbDictionary
0
DICTIONARY
5
1A
330
C
100
AcDbDictionary
0
DICTIONARY
5
17
100
AcDbDictionary
0
ENDSEC
0
EOF
