0
SECTION
2
HEADER
9
$INSUNITS
70
4
9
$ACADVER
1
AC1014
9
$HANDSEED
5
FFFF
0
ENDSEC
0
SECTION
2
TABLES
0
TABLE
2
VPORT
5
8
100
AcDbSymbolTable
0
ENDTAB
0
TABLE
2
LTYPE
5
5
100
AcDbSymbolTable
0
LTYPE
5
14
100
AcDbSymbolTableRecord
100
AcDbLinetypeTableRecord
2
BYBLOCK
70
0
0
LTYPE
5
15
100
AcDbSymbolTableRecord
100
AcDbLinetypeTableRecord
2
BYLAYER
70
0
0
ENDTAB
0
TABLE
2
LAYER
5
2
100
AcDbSymbolTable
70
2
0
LAYER
5
50
100
AcDbSymbolTableRecord
100
AcDbLayerTableRecord
2
0
70
0
6
CONTINUOUS
0
ENDTAB
0
TABLE
2
STYLE
5
3
100
AcDbSymbolTable
70
1
0
STYLE
5
11
100
AcDbSymbolTableRecord
100
AcDbTextStyleTableRecord
2
STANDARD
70
0
0
ENDTAB
0
TABLE
2
VIEW
5
6
100
AcDbSymbolTable
70
0
0
ENDTAB
0
TABLE
2
UCS
5
7
100
AcDbSymbolTable
70
0
0
ENDTAB
0
TABLE
2
APPID
5
9
100
AcDbSymbolTable
70
2
0
APPID
5
12
100
AcDbSymbolTableRecord
100
AcDbRegAppTableRecord
2
ACAD
70
0
0
ENDTAB
0
TABLE
2
DIMSTYLE
5
A
100
AcDbSymbolTable
70
1
0
ENDTAB
0
TABLE
2
BLOCK_RECORD
5
1
100
AcDbSymbolTable
70
1
0
BLOCK_RECORD
5
1F
100
AcDbSymbolTableRecord
100
AcDbBlockTableRecord
2
*MODEL_SPACE
0
BLOCK_RECORD
5
1B
100
AcDbSymbolTableRecord
100
AcDbBlockTableRecord
2
*PAPER_SPACE
0
ENDTAB
0
ENDSEC
0
SECTION
2
BLOCKS
0
BLOCK
5
20
100
AcDbEntity
100
AcDbBlockBegin
2
*MODEL_SPACE
0
ENDBLK
5
21
100
AcDbEntity
100
AcDbBlockEnd
0
BLOCK
5
1C
100
AcDbEntity
100
AcDbBlockBegin
2
*PAPER_SPACE
0
ENDBLK
5
1D
100
AcDbEntity
100
AcDbBlockEnd
0
ENDSEC
0
SECTION
2
ENTITIES
0
CIRCLE
5
100
100
AcDbEntity
8
0
100
AcDbCircle
10
8
20
8
30
0
40
0.99999999999999967
210
0
220
0
230
1
0
CIRCLE
5
101
100
AcDbEntity
8
0
100
AcDbCircle
10
-8
20
8
30
0
40
1.0000000000000007
210
0
220
0
230
1
0
CIRCLE
5
102
100
AcDbEntity
8
0
100
AcDbCircle
10
-8
20
-8
30
0
40
0.99999999999999989
210
0
220
0
230
1
0
CIRCLE
5
103
100
AcDbEntity
8
0
100
AcDbCircle
10
8
20
-8
30
0
40
0.99999999999999978
210
0
220
0
230
1
0
LINE
5
104
100
AcDbEntity
8
0
100
AcDbLine
10
12.00000000000002
20
8.4805595759622232
30
0
11
12.000000000000027
21
-5.6862915010152362
31
0
0
LINE
5
105
100
AcDbEntity
8
0
100
AcDbLine
10
-11.999999999997291
20
8.4805595759657884
30
0
11
-11.999999999984007
21
-5.6862915009945558
31
0
0
CIRCLE
5
106
100
AcDbEntity
8
0
100
AcDbCircle
10
0
20
-23.500000000000007
30
0
40
1.5000000000000004
210
0
220
0
230
1
0
ARC
5
107
100
AcDbEntity
8
0
100
AcDbCircle
10
51.738443541981027
20
-33.114370200404657
30
0
40
7.8318759713666442
210
0
220
0
230
1
100
AcDbArc
50
207.3278624092568
51
242.67213759074332
0
CIRCLE
5
108
100
AcDbEntity
8
0
100
AcDbCircle
10
42.426406871192874
20
-42.426406871192832
30
0
40
2.5000000000000022
210
0
220
0
230
1
0
CIRCLE
5
109
100
AcDbEntity
8
0
100
AcDbCircle
10
42.426406871192874
20
-42.426406871192832
30
0
40
2.5000000000000022
210
0
220
0
230
1
0
ARC
5
110
100
AcDbEntity
8
0
100
AcDbCircle
10
37.926406871192881
20
-42.426406871192832
30
0
40
2.6499999999999879
210
0
220
0
230
1
100
AcDbArc
50
180
51
242.6721375907434
0
ARC
5
111
100
AcDbEntity
8
0
100
AcDbCircle
10
47.211455803106404
20
-47.211455803106368
30
0
40
4.0000000000000089
210
0
220
0
230
1
100
AcDbArc
50
-109.76660673479699
51
19.766606734796785
0
ARC
5
112
100
AcDbEntity
8
0
100
AcDbCircle
10
42.426406871192874
20
-42.426406871192832
30
0
40
7.149999999999995
210
0
220
0
230
1
100
AcDbArc
50
179.96816463293169
51
180
0
CIRCLE
5
113
100
AcDbEntity
8
0
100
AcDbCircle
10
46.926406871192832
20
-42.426406871192825
30
0
40
1.0000000000000029
210
0
220
0
230
1
0
ARC
5
114
100
AcDbEntity
8
0
100
AcDbCircle
10
42.426406871192874
20
-46.92640687119281
30
0
40
2.6499999999999919
210
0
220
0
230
1
100
AcDbArc
50
207.32786240925728
51
250.2333932652032
0
ARC
5
115
100
AcDbEntity
8
0
100
AcDbCircle
10
37.926406871192881
20
-42.426406871192832
30
0
40
2.6499999999999879
210
0
220
0
230
1
100
AcDbArc
50
180
51
242.6721375907434
0
LINE
5
116
100
AcDbEntity
8
0
100
AcDbLine
10
50.975767935903669
20
-45.858697817775905
30
0
11
49.420263659171049
21
-41.53020470591138
31
0
0
ARC
5
117
100
AcDbEntity
8
0
100
AcDbCircle
10
42.426406871192874
20
-37.926406871192839
30
0
40
2.6500000000000039
210
-0
220
0
230
1
100
AcDbArc
50
27.327862409257012
51
90
0
ARC
5
118
100
AcDbEntity
8
0
100
AcDbCircle
10
47.211455803106404
20
-47.211455803106368
30
0
40
4.0000000000000089
210
0
220
0
230
1
100
AcDbArc
50
-109.76660673479699
51
19.766606734796785
0
ARC
5
119
100
AcDbEntity
8
0
100
AcDbCircle
10
51.738443541981027
20
-33.114370200404657
30
0
40
7.8318759713666442
210
0
220
0
230
1
100
AcDbArc
50
207.3278624092568
51
242.67213759074332
0
ARC
5
120
100
AcDbEntity
8
0
100
AcDbCircle
10
42.426406871192874
20
-42.426406871192832
30
0
40
7.149999999999995
210
0
220
0
230
1
100
AcDbArc
50
179.96816463293169
51
180
0
ARC
5
121
100
AcDbEntity
8
0
100
AcDbCircle
10
46.926406871192832
20
-42.426406871192825
30
0
40
2.6500000000000319
210
0
220
-0
230
1
100
AcDbArc
50
19.76660673479682
51
62.672137590742508
0
LINE
5
122
100
AcDbEntity
8
0
100
AcDbLine
10
45.858697817775926
20
-50.975767935903633
30
0
11
41.530204705911444
21
-49.420263659170999
31
0
0
ARC
5
123
100
AcDbEntity
8
0
100
AcDbCircle
10
28.143313441652744
20
-42.473631372287826
30
0
40
7.1332782632198715
210
0
220
-0
230
1
100
AcDbArc
50
0.41122924720220561
51
44.556935385730071
0
CIRCLE
5
124
100
AcDbEntity
8
0
100
AcDbCircle
10
42.426406871192874
20
-46.92640687119281
30
0
40
0.99999999999999967
210
0
220
0
230
1
0
ARC
5
125
100
AcDbEntity
8
0
100
AcDbCircle
10
42.426406871192874
20
-46.92640687119281
30
0
40
2.6499999999999919
210
0
220
0
230
1
100
AcDbArc
50
207.32786240925728
51
250.2333932652032
0
ARC
5
126
100
AcDbEntity
8
0
100
AcDbCircle
10
42.426406871192874
20
-42.426406871192832
30
0
40
7.1499999999999941
210
0
220
-0
230
1
100
AcDbArc
50
90
51
90.031835367067984
0
CIRCLE
5
127
100
AcDbEntity
8
0
100
AcDbCircle
10
37.926406871192881
20
-42.426406871192832
30
0
40
1
210
0
220
0
230
1
0
ARC
5
128
100
AcDbEntity
8
0
100
AcDbCircle
10
33.114370200404721
20
-51.738443541980971
30
0
40
7.8318759713666459
210
0
220
-0
230
1
100
AcDbArc
50
27.327862409256582
51
62.672137590743148
0
LINE
5
129
100
AcDbEntity
8
0
100
AcDbLine
10
45.858697817775926
20
-50.975767935903633
30
0
11
41.530204705911444
21
-49.420263659170999
31
0
0
ARC
5
130
100
AcDbEntity
8
0
100
AcDbCircle
10
33.114370200404721
20
-51.738443541980971
30
0
40
7.8318759713666459
210
0
220
-0
230
1
100
AcDbArc
50
27.327862409256582
51
62.672137590743148
0
ARC
5
131
100
AcDbEntity
8
0
100
AcDbCircle
10
42.426406871192874
20
-37.926406871192839
30
0
40
2.6500000000000039
210
-0
220
0
230
1
100
AcDbArc
50
27.327862409257012
51
90
0
ARC
5
132
100
AcDbEntity
8
0
100
AcDbCircle
10
42.426406871192874
20
-42.426406871192832
30
0
40
7.1499999999999941
210
0
220
-0
230
1
100
AcDbArc
50
90
51
90.031835367067984
0
CIRCLE
5
133
100
AcDbEntity
8
0
100
AcDbCircle
10
42.426406871192874
20
-37.926406871192839
30
0
40
1.0000000000000011
210
0
220
0
230
1
0
LINE
5
134
100
AcDbEntity
8
0
100
AcDbLine
10
50.975767935903669
20
-45.858697817775905
30
0
11
49.420263659171049
21
-41.53020470591138
31
0
0
ARC
5
135
100
AcDbEntity
8
0
100
AcDbCircle
10
46.926406871192832
20
-42.426406871192825
30
0
40
2.6500000000000319
210
0
220
-0
230
1
100
AcDbArc
50
19.76660673479682
51
62.672137590742508
0
ARC
5
136
100
AcDbEntity
8
0
100
AcDbCircle
10
-46.926406871192832
20
-42.42640687119281
30
0
40
2.6500000000000083
210
0
220
0
230
1
100
AcDbArc
50
117.32786240925752
51
160.23339326520332
0
ARC
5
137
100
AcDbEntity
8
0
100
AcDbCircle
10
-42.426406871192874
20
-42.426406871192825
30
0
40
7.1499999999999861
210
0
220
-0
230
1
100
AcDbArc
50
89.968164632932016
51
90
0
LINE
5
138
100
AcDbEntity
8
0
100
AcDbLine
10
-45.858697817775926
20
-50.975767935903626
30
0
11
-41.530204705911444
21
-49.420263659170985
31
0
0
ARC
5
139
100
AcDbEntity
8
0
100
AcDbCircle
10
-33.114370200404728
20
-51.738443541980971
30
0
40
7.8318759713666459
210
0
220
0
230
1
100
AcDbArc
50
117.32786240925689
51
152.67213759074335
0
ARC
5
140
100
AcDbEntity
8
0
100
AcDbCircle
10
-28.15459083157117
20
-42.468963794594117
30
0
40
7.1219691402788063
210
0
220
0
230
1
100
AcDbArc
50
179.62756045445764
51
179.87338866793445
0
ARC
5
141
100
AcDbEntity
8
0
100
AcDbCircle
10
-42.426406871192874
20
-42.426406871192825
30
0
40
7.1499999999999861
210
0
220
-0
230
1
100
AcDbArc
50
89.968164632932016
51
90
0
ARC
5
142
100
AcDbEntity
8
0
100
AcDbCircle
10
-42.426406871192874
20
-37.926406871192832
30
0
40
2.6500000000000012
210
-0
220
0
230
1
100
AcDbArc
50
90
51
152.67213759074315
0
CIRCLE
5
143
100
AcDbEntity
8
0
100
AcDbCircle
10
-46.926406871192832
20
-42.42640687119281
30
0
40
1.0000000000000029
210
0
220
0
230
1
0
ARC
5
144
100
AcDbEntity
8
0
100
AcDbCircle
10
-42.426406871192874
20
-37.926406871192832
30
0
40
2.6500000000000012
210
-0
220
0
230
1
100
AcDbArc
50
90
51
152.67213759074315
0
ARC
5
145
100
AcDbEntity
8
0
100
AcDbCircle
10
-42.426406871192874
20
-46.926406871192803
30
0
40
2.6499999999999959
210
0
220
0
230
1
100
AcDbArc
50
289.76660673479682
51
332.67213759074269
0
LINE
5
146
100
AcDbEntity
8
0
100
AcDbLine
10
-50.975767935903669
20
-45.858697817775898
30
0
11
-49.420263659171049
21
-41.530204705911373
31
0
0
CIRCLE
5
147
100
AcDbEntity
8
0
100
AcDbCircle
10
-42.426406871192874
20
-37.926406871192832
30
0
40
1.0000000000000011
210
0
220
0
230
1
0
ARC
5
148
100
AcDbEntity
8
0
100
AcDbCircle
10
-42.427287972496899
20
-28.255284280528965
30
0
40
7.0211253721600322
210
0
220
0
230
1
100
AcDbArc
50
270.03960992807839
51
314.92855470482834
0
CIRCLE
5
149
100
AcDbEntity
8
0
100
AcDbCircle
10
-37.926406871192889
20
-42.426406871192832
30
0
40
1
210
0
220
0
230
1
0
CIRCLE
5
150
100
AcDbEntity
8
0
100
AcDbCircle
10
-42.426406871192874
20
-42.426406871192825
30
0
40
2.5000000000000022
210
0
220
0
230
1
0
LINE
5
151
100
AcDbEntity
8
0
100
AcDbLine
10
-45.858697817775926
20
-50.975767935903626
30
0
11
-41.530204705911444
21
-49.420263659170985
31
0
0
ARC
5
152
100
AcDbEntity
8
0
100
AcDbCircle
10
-46.926406871192832
20
-42.42640687119281
30
0
40
2.6500000000000083
210
0
220
0
230
1
100
AcDbArc
50
117.32786240925752
51
160.23339326520332
0
ARC
5
153
100
AcDbEntity
8
0
100
AcDbCircle
10
-51.738443541981027
20
-33.11437020040465
30
0
40
7.8318759713666539
210
0
220
0
230
1
100
AcDbArc
50
297.32786240925668
51
332.67213759074315
0
LINE
5
154
100
AcDbEntity
8
0
100
AcDbLine
10
-50.975767935903669
20
-45.858697817775898
30
0
11
-49.420263659171049
21
-41.530204705911373
31
0
0
ARC
5
155
100
AcDbEntity
8
0
100
AcDbCircle
10
-51.738443541981027
20
-33.11437020040465
30
0
40
7.8318759713666539
210
0
220
0
230
1
100
AcDbArc
50
297.32786240925668
51
332.67213759074315
0
ARC
5
156
100
AcDbEntity
8
0
100
AcDbCircle
10
-33.114370200404728
20
-51.738443541980971
30
0
40
7.8318759713666459
210
0
220
0
230
1
100
AcDbArc
50
117.32786240925689
51
152.67213759074335
0
ARC
5
157
100
AcDbEntity
8
0
100
AcDbCircle
10
-37.926406871192889
20
-42.426406871192832
30
0
40
2.6499999999999839
210
0
220
0
230
1
100
AcDbArc
50
-62.672137590743503
51
0.085895391357009923
0
ARC
5
158
100
AcDbEntity
8
0
100
AcDbCircle
10
-47.211455803106404
20
-47.211455803106361
30
0
40
4.0000000000000027
210
0
220
0
230
1
100
AcDbArc
50
160.2333932652032
51
289.76660673479699
0
CIRCLE
5
159
100
AcDbEntity
8
0
100
AcDbCircle
10
-42.426406871192874
20
-46.926406871192803
30
0
40
0.99999999999999967
210
0
220
0
230
1
0
ARC
5
160
100
AcDbEntity
8
0
100
AcDbCircle
10
-47.211455803106404
20
-47.211455803106361
30
0
40
4.0000000000000027
210
0
220
0
230
1
100
AcDbArc
50
160.2333932652032
51
289.76660673479699
0
CIRCLE
5
161
100
AcDbEntity
8
0
100
AcDbCircle
10
-42.426406871192874
20
-42.426406871192825
30
0
40
2.5000000000000022
210
0
220
0
230
1
0
ARC
5
162
100
AcDbEntity
8
0
100
AcDbCircle
10
-42.426406871192874
20
-46.926406871192803
30
0
40
2.6499999999999959
210
0
220
0
230
1
100
AcDbArc
50
289.76660673479682
51
332.67213759074269
0
LWPOLYLINE
5
163
100
AcDbEntity
8
0
100
AcDbPolyline
90
8
70
1
43
0.0
10
9.4999999999868727
20
-2.6334368340211589
42
-0.21342176528314272
10
9.1666666666535406
20
-3.3787928265201508
10
6.2500000000000009
20
-5.9875388002581742
42
-0.64823151951037461
10
4.9999999999999982
20
-5.4285218058832267
10
4.9999999999999991
20
5.428521825875241
42
-0.64823151951037306
10
6.25
20
5.9875388202501885
10
9.1666666666584788
20
3.3787928465077637
42
-0.21342176528363327
10
9.4999999999918128
20
2.6334368540068951
0
LWPOLYLINE
5
164
100
AcDbEntity
8
0
100
AcDbPolyline
90
8
70
1
43
0.0
10
-9.1666666666584788
20
3.3787928465077637
10
-6.25
20
5.9875388202501885
42
-0.64823151951037306
10
-5
20
5.428521825875241
10
-4.9999999999999991
20
-5.4285218058832267
42
-0.64823151951037461
10
-6.2500000000000009
20
-5.9875388002581742
10
-9.1666666666535406
20
-3.3787928265201512
42
-0.21342176528314272
10
-9.4999999999868727
20
-2.6334368340211589
10
-9.4999999999918128
20
2.6334368540068951
42
-0.21342176528363327
0
LWPOLYLINE
5
165
100
AcDbEntity
8
0
100
AcDbPolyline
90
8
70
1
43
0.0
10
-3.378792846507761
20
-14.166666666658486
10
-5.9875388202501858
20
-11.250000000000002
42
-0.64823151951037339
10
-5.4285218258752401
20
-10.000000000000004
10
5.4285218058832294
20
-10
42
-0.64823151951037428
10
5.9875388002581778
20
-11.250000000000002
10
3.3787928265201552
20
-14.166666666653541
42
-0.21342176528314294
10
2.6334368340211629
20
-14.499999999986874
10
-2.6334368540068924
20
-14.49999999999182
42
-0.21342176528363327
0
LINE
5
166
100
AcDbEntity
8
0
100
AcDbLine
10
-37.468797210860671
20
-33.226156523741352
30
0
11
-13.464466094051273
21
-9.2218254069319894
31
0
0
LINE
5
167
100
AcDbEntity
8
0
100
AcDbLine
10
37.468797210860636
20
-33.226156523741402
30
0
11
13.464466094067284
21
-9.2218254069479677
31
0
0
LINE
5
168
100
AcDbEntity
8
0
100
AcDbLine
10
33.226156523741395
20
-37.468797210860636
30
0
11
19.382185060951006
21
-23.624825748070268
31
0
0
ARC
5
169
100
AcDbEntity
8
0
100
AcDbCircle
10
42.473631372287826
20
-28.143313441652751
30
0
40
7.1332782632198697
210
0
220
0
230
1
100
AcDbArc
50
225.4430646142699
51
269.58877075279781
0
ARC
5
170
100
AcDbEntity
8
0
100
AcDbCircle
10
17.000000000000011
20
-5.6862915010152406
30
0
40
4.999999999999984
210
0
220
0
230
1
100
AcDbArc
50
180
51
225
0
ARC
5
171
100
AcDbEntity
8
0
100
AcDbCircle
10
-16.999999999984034
20
-5.6862915009992365
30
0
40
5.0000000000000266
210
-0
220
0
230
1
100
AcDbArc
50
-44.99999999999995
51
0
0
ARC
5
172
100
AcDbEntity
8
0
100
AcDbCircle
10
11.250000000000002
20
30.250000000000007
30
0
40
2.7500000000000013
210
0
220
0
230
1
100
AcDbArc
50
0
51
180
0
CIRCLE
5
173
100
AcDbEntity
8
0
100
AcDbCircle
10
11.250000000000002
20
30.250000000000007
30
0
40
1.4999999999999993
210
0
220
0
230
1
0
LINE
5
174
100
AcDbEntity
8
0
100
AcDbLine
10
8.5
20
30.250000000000007
30
0
11
6.5000000000000018
21
17.977584752058824
31
0
0
LINE
5
175
100
AcDbEntity
8
0
100
AcDbLine
10
44.698124684876952
20
37.731936273457372
30
0
11
18.005201130100929
21
22.102550143176671
31
0
0
LINE
5
176
100
AcDbEntity
8
0
100
AcDbLine
10
47.698124684876959
20
32.535783850750761
30
0
11
14.720950234302542
21
13.226808874068761
31
0
0
LINE
5
177
100
AcDbEntity
8
0
100
AcDbLine
10
14.000000000000004
20
30.250000000000007
30
0
11
13.502594526323328
21
24.972939725854204
31
0
0
LINE
5
178
100
AcDbEntity
8
0
100
AcDbLine
10
-47.698124684876973
20
32.535783850750747
30
0
11
-14.72095023429981
21
13.226808874067174
31
0
0
LINE
5
179
100
AcDbEntity
8
0
100
AcDbLine
10
-44.698124684876966
20
37.731936273457357
30
0
11
-18.005201130100922
21
22.102550143176678
31
0
0
LINE
5
180
100
AcDbEntity
8
0
100
AcDbLine
10
-13.999999999999986
20
30.250000000000018
30
0
11
-13.502594526323312
21
24.972939725854204
31
0
0
LINE
5
181
100
AcDbEntity
8
0
100
AcDbLine
10
-8.4999999999999822
20
30.250000000000014
30
0
11
-6.4999999999999929
21
17.977584752058831
31
0
0
ARC
5
182
100
AcDbEntity
8
0
100
AcDbCircle
10
-11.249999999999984
20
30.250000000000014
30
0
40
2.7500000000000013
210
0
220
0
230
1
100
AcDbArc
50
0
51
180
0
CIRCLE
5
183
100
AcDbEntity
8
0
100
AcDbCircle
10
-11.249999999999984
20
30.250000000000014
30
0
40
1.4999999999999993
210
0
220
0
230
1
0
ARC
5
184
100
AcDbEntity
8
0
100
AcDbCircle
10
16.489355803356858
20
24.691413396689335
30
0
40
3.0000000000000009
210
0
220
0
230
1
100
AcDbArc
50
174.61532014135162
51
300.35005903943534
0
ARC
5
185
100
AcDbEntity
8
0
100
AcDbCircle
10
-16.48935580335684
20
24.691413396689335
30
0
40
2.9999999999999991
210
0
220
0
230
1
100
AcDbArc
50
-120.35005903943564
51
5.3846798586484752
0
ARC
5
186
100
AcDbEntity
8
0
100
AcDbCircle
10
-17.499999999997296
20
8.4805595759606351
30
0
40
5.5000000000000053
210
0
220
-0
230
1
100
AcDbArc
50
0
51
59.649940960564358
0
ARC
5
187
100
AcDbEntity
8
0
100
AcDbCircle
10
17.500000000000007
20
8.4805595759622303
30
0
40
5.4999999999999893
210
0
220
0
230
1
100
AcDbArc
50
120.35005903943552
51
180
0
LINE
5
188
100
AcDbEntity
8
0
100
AcDbLine
10
60.396083837731354
20
47.509125856766588
30
0
11
55.812486420510297
21
47.126920556913028
31
0
0
ARC
5
189
100
AcDbEntity
8
0
100
AcDbCircle
10
60.728472040802437
20
43.522960019466375
30
0
40
3.9999999999999973
210
-0
220
0
230
1
100
AcDbArc
50
-34.766606734796717
51
94.766606734797392
0
ARC
5
190
100
AcDbEntity
8
0
100
AcDbCircle
10
53.703322199122205
20
35.792753253100088
30
0
40
2.6499999999999919
210
0
220
0
230
1
100
AcDbArc
50
254.99999999999923
51
317.67213759074286
0
ARC
5
191
100
AcDbEntity
8
0
100
AcDbCircle
10
54.868007902083519
20
40.139419471400885
30
0
40
7.1499999999999702
210
0
220
0
230
1
100
AcDbArc
50
254.96816463293194
51
254.99999999999994
0
ARC
5
192
100
AcDbEntity
8
0
100
AcDbCircle
10
54.868007902083519
20
40.139419471400885
30
0
40
7.1499999999999675
210
0
220
0
230
1
100
AcDbArc
50
164.99999999999994
51
165.031835367068
0
ARC
5
193
100
AcDbEntity
8
0
100
AcDbCircle
10
51.204468888551709
20
26.425313342294324
30
0
40
7.0450194825404475
210
0
220
-0
230
1
100
AcDbArc
50
75.119858723716703
51
119.84830590919461
0
ARC
5
194
100
AcDbEntity
8
0
100
AcDbCircle
10
56.032693605044855
20
44.486085689701667
30
0
40
2.6499999999999742
210
0
220
0
230
1
100
AcDbArc
50
94.76660673479671
51
137.67213759074284
0
ARC
5
195
100
AcDbEntity
8
0
100
AcDbCircle
10
61.452612178655627
20
28.734550316642675
30
0
40
7.8318759713666575
210
0
220
0
230
1
100
AcDbArc
50
102.32786240925674
51
137.67213759074315
0
CIRCLE
5
196
100
AcDbEntity
8
0
100
AcDbCircle
10
59.214674120384288
20
38.974733768439535
30
0
40
1.0000000000000029
210
-0
220
0
230
1
0
CIRCLE
5
197
100
AcDbEntity
8
0
100
AcDbCircle
10
50.521341683782744
20
41.304105174362235
30
0
40
1
210
-0
220
0
230
1
0
CIRCLE
5
198
100
AcDbEntity
8
0
100
AcDbCircle
10
53.703322199122205
20
35.792753253100088
30
0
40
1.0000000000000011
210
-0
220
0
230
1
0
ARC
5
199
100
AcDbEntity
8
0
100
AcDbCircle
10
48.283403625511419
20
51.544288626159052
30
0
40
7.8318759713666246
210
-0
220
0
230
1
100
AcDbArc
50
282.32786240925685
51
317.67213759074343
0
ARC
5
200
100
AcDbEntity
8
0
100
AcDbCircle
10
50.521341683782744
20
41.304105174362235
30
0
40
2.6499999999999844
210
0
220
0
230
1
100
AcDbArc
50
102.32786240925721
51
165.00000000000011
0
CIRCLE
5
201
100
AcDbEntity
8
0
100
AcDbCircle
10
54.868007902083519
20
40.139419471400885
30
0
40
2.5000000000000022
210
-0
220
0
230
1
0
ARC
5
202
100
AcDbEntity
8
0
100
AcDbCircle
10
59.214674120384288
20
38.974733768439535
30
0
40
2.6499999999999884
210
-0
220
0
230
1
100
AcDbArc
50
282.32786240925759
51
325.23339326520329
0
LINE
5
203
100
AcDbEntity
8
0
100
AcDbLine
10
64.014398818066553
20
41.242020473038501
30
0
11
61.391600610321781
21
37.463611318931058
31
0
0
CIRCLE
5
204
100
AcDbEntity
8
0
100
AcDbCircle
10
56.032693605044855
20
44.486085689701667
30
0
40
0.99999999999999967
210
-0
220
0
230
1
0
ARC
5
205
100
AcDbEntity
8
0
100
AcDbCircle
10
41.108175122806003
20
43.863095131974902
30
0
40
7.1048467123922823
210
-0
220
0
230
1
100
AcDbArc
50
300.35005903943551
51
344.68177632763206
0
CIRCLE
5
206
100
AcDbEntity
8
0
100
AcDbCircle
10
-53.703322199122219
20
35.792753253100074
30
0
40
1.0000000000000011
210
-0
220
0
230
1
0
CIRCLE
5
207
100
AcDbEntity
8
0
100
AcDbCircle
10
-50.521341683782765
20
41.304105174362213
30
0
40
1
210
-0
220
0
230
1
0
ARC
5
208
100
AcDbEntity
8
0
100
AcDbCircle
10
-51.204468888551709
20
26.425313342294309
30
0
40
7.045019482539371
210
0
220
-0
230
1
100
AcDbArc
50
60.151694090805528
51
104.88014127628344
0
ARC
5
209
100
AcDbEntity
8
0
100
AcDbCircle
10
-41.108175122806017
20
43.863095131974895
30
0
40
7.1048467123922912
210
0
220
0
230
1
100
AcDbArc
50
195.31822367236796
51
239.64994096056455
0
ARC
5
210
100
AcDbEntity
8
0
100
AcDbCircle
10
-56.032693605044877
20
44.486085689701653
30
0
40
2.6499999999999879
210
0
220
-0
230
1
100
AcDbArc
50
42.327862409257037
51
85.233393265203134
0
ARC
5
211
100
AcDbEntity
8
0
100
AcDbCircle
10
-48.28340362551144
20
51.54428862615903
30
0
40
7.8318759713666344
210
0
220
0
230
1
100
AcDbArc
50
222.3278624092566
51
257.6721375907432
0
LINE
5
212
100
AcDbEntity
8
0
100
AcDbLine
10
-64.014398818066581
20
41.24202047303848
30
0
11
-61.391600610321795
21
37.463611318931036
31
0
0
ARC
5
213
100
AcDbEntity
8
0
100
AcDbCircle
10
-54.868007902083534
20
40.139419471400863
30
0
40
7.1499999999999897
210
0
220
-0
230
1
100
AcDbArc
50
14.968164632932027
51
15.000000000000069
0
CIRCLE
5
214
100
AcDbEntity
8
0
100
AcDbCircle
10
-59.214674120384309
20
38.974733768439513
30
0
40
1.0000000000000029
210
-0
220
0
230
1
0
ARC
5
215
100
AcDbEntity
8
0
100
AcDbCircle
10
-61.452612178655627
20
28.734550316642657
30
0
40
7.8318759713666264
210
0
220
-0
230
1
100
AcDbArc
50
42.327862409256909
51
77.672137590743375
0
ARC
5
216
100
AcDbEntity
8
0
100
AcDbCircle
10
-50.521341683782765
20
41.304105174362213
30
0
40
2.6500000000000004
210
0
220
-0
230
1
100
AcDbArc
50
14.999999999999847
51
77.67213759074285
0
ARC
5
217
100
AcDbEntity
8
0
100
AcDbCircle
10
-54.868007902083534
20
40.139419471400863
30
0
40
7.1499999999999675
210
0
220
0
230
1
100
AcDbArc
50
285.00000000000006
51
285.03183536706808
0
ARC
5
218
100
AcDbEntity
8
0
100
AcDbCircle
10
-59.214674120384309
20
38.974733768439513
30
0
40
2.6500000000000101
210
0
220
0
230
1
100
AcDbArc
50
214.7666067347968
51
257.67213759074252
0
ARC
5
219
100
AcDbEntity
8
0
100
AcDbCircle
10
-53.703322199122219
20
35.792753253100074
30
0
40
2.6499999999999941
210
0
220
0
230
1
100
AcDbArc
50
222.32786240925714
51
285.00000000000068
0
CIRCLE
5
220
100
AcDbEntity
8
0
100
AcDbCircle
10
-56.032693605044877
20
44.486085689701653
30
0
40
0.99999999999999967
210
-0
220
0
230
1
0
LINE
5
221
100
AcDbEntity
8
0
100
AcDbLine
10
-60.396083837731368
20
47.509125856766573
30
0
11
-55.812486420510311
21
47.126920556913007
31
0
0
ARC
5
222
100
AcDbEntity
8
0
100
AcDbCircle
10
-60.728472040802458
20
43.522960019466353
30
0
40
4.0000000000000169
210
-0
220
0
230
1
100
AcDbArc
50
85.233393265202537
51
214.76660673479665
0
CIRCLE
5
223
100
AcDbEntity
8
0
100
AcDbCircle
10
-54.868007902083534
20
40.139419471400863
30
0
40
2.5000000000000022
210
-0
220
0
230
1
0
ARC
5
224
100
AcDbEntity
8
0
100
AcDbCircle
10
4.9960036108132044e-15
20
19.036870942866365
30
0
40
6.5857487982791678
210
0
220
0
230
1
100
AcDbArc
50
189.25595899749794
51
350.74404100250206
0
ARC
5
225
100
AcDbEntity
8
0
100
AcDbCircle
10
-28.25528428052899
20
-42.42728797249687
30
0
40
7.0211253721587417
210
0
220
0
230
1
100
AcDbArc
50
135.07144529517166
51
179.96039007192513
0
LINE
5
226
100
AcDbEntity
8
0
100
AcDbLine
10
-33.226156523741381
20
-37.468797210860643
30
0
11
-19.382185060951009
21
-23.62482574807029
31
0
0
ARC
5
227
100
AcDbEntity
8
0
100
AcDbCircle
10
-11.875408590522289
20
-31.131602218499019
30
0
40
10.616185094183541
210
0
220
-0
230
1
100
AcDbArc
50
32.726386754700947
51
134.99999999999997
0
ARC
5
228
100
AcDbEntity
8
0
100
AcDbCircle
10
11.875408590522287
20
-31.131602218499005
30
0
40
10.616185094183539
210
0
220
-0
230
1
100
AcDbArc
50
45.000000000000064
51
147.27361324529912
0
LWPOLYLINE
5
229
100
AcDbEntity
8
0
100
AcDbPolyline
90
6
70
1
43
0.0
10
12.141906331961923
20
-13.556119894334987
10
15.07010289786084
20
-16.484316460233913
42
-0.73785643231851339
10
14.400677209833967
20
-17.751635293301252
42
0.16226119308086132
10
5.8684275482769257
20
-18.912081962892774
42
-0.82128262087231252
10
5.2728152995403734
20
-18.132683855939025
10
9.2275732965601005
20
-13.647593283189485
42
-0.43271560368407758
0
LWPOLYLINE
5
230
100
AcDbEntity
8
0
100
AcDbPolyline
90
6
70
1
43
0.0
10
-12.141906331948725
20
-13.556119894321814
10
-15.070102897860842
20
-16.484316460233931
42
0.7378564323185125
10
-14.400677209833972
20
-17.75163529330127
42
-0.16226119308121945
10
-5.8684275482598771
20
-18.912081962901176
42
0.82128262087211479
10
-5.2728152995220867
20
-18.132683855948429
10
-9.2275732965444455
20
-13.6475932831791
42
0.43271560368462775
0
ARC
5
231
100
AcDbEntity
8
0
100
AcDbCircle
10
0
20
-23.500000000000007
30
0
40
3.5000000000000018
210
0
220
0
230
1
100
AcDbArc
50
212.72638675470102
51
327.27361324529903
0
ENDSEC
0
SECTION
2
OBJECTS
0
DICTIONARY
5
C
100
AcDbDictionary
3
ACAD_GROUP
350
D
3
ACAD_MLINESTYLE
350
17
0
DICTIONARY
5
D
100
AcDbDictionary
0
DICTIONARY
5
1A
330
C
100
AcDbDictionary
0
DICTIONARY
5
17
100
AcDbDictionary
0
ENDSEC
0
EOF
