0
SECTION
2
HEADER
9
$INSUNITS
70
4
9
$ACADVER
1
AC1014
9
$HANDSEED
5
FFFF
0
ENDSEC
0
SECTION
2
TABLES
0
TABLE
2
VPORT
5
8
100
AcDbSymbolTable
0
ENDTAB
0
TABLE
2
LTYPE
5
5
100
AcDbSymbolTable
0
LTYPE
5
14
100
AcDbSymbolTableRecord
100
AcDbLinetypeTableRecord
2
BYBLOCK
70
0
0
LTYPE
5
15
100
AcDbSymbolTableRecord
100
AcDbLinetypeTableRecord
2
BYLAYER
70
0
0
ENDTAB
0
TABLE
2
LAYER
5
2
100
AcDbSymbolTable
70
2
0
LAYER
5
50
100
AcDbSymbolTableRecord
100
AcDbLayerTableRecord
2
0
70
0
6
CONTINUOUS
0
ENDTAB
0
TABLE
2
STYLE
5
3
100
AcDbSymbolTable
70
1
0
STYLE
5
11
100
AcDbSymbolTableRecord
100
AcDbTextStyleTableRecord
2
STANDARD
70
0
0
ENDTAB
0
TABLE
2
VIEW
5
6
100
AcDbSymbolTable
70
0
0
ENDTAB
0
TABLE
2
UCS
5
7
100
AcDbSymbolTable
70
0
0
ENDTAB
0
TABLE
2
APPID
5
9
100
AcDbSymbolTable
70
2
0
APPID
5
12
100
AcDbSymbolTableRecord
100
AcDbRegAppTableRecord
2
ACAD
70
0
0
ENDTAB
0
TABLE
2
DIMSTYLE
5
A
100
AcDbSymbolTable
70
1
0
ENDTAB
0
TABLE
2
BLOCK_RECORD
5
1
100
AcDbSymbolTable
70
1
0
BLOCK_RECORD
5
1F
100
AcDbSymbolTableRecord
100
AcDbBlockTableRecord
2
*MODEL_SPACE
0
BLOCK_RECORD
5
1B
100
AcDbSymbolTableRecord
100
AcDbBlockTableRecord
2
*PAPER_SPACE
0
ENDTAB
0
ENDSEC
0
SECTION
2
BLOCKS
0
BLOCK
5
20
100
AcDbEntity
100
AcDbBlockBegin
2
*MODEL_SPACE
0
ENDBLK
5
21
100
AcDbEntity
100
AcDbBlockEnd
0
BLOCK
5
1C
100
AcDbEntity
100
AcDbBlockBegin
2
*PAPER_SPACE
0
ENDBLK
5
1D
100
AcDbEntity
100
AcDbBlockEnd
0
ENDSEC
0
SECTION
2
ENTITIES
0
CIRCLE
5
100
100
AcDbEntity
8
0
100
AcDbCircle
10
8
20
8
30
0
40
0.99999999999999967
210
0
220
0
230
1
0
CIRCLE
5
101
100
AcDbEntity
8
0
100
AcDbCircle
10
-8
20
8
30
0
40
1.0000000000000007
210
0
220
0
230
1
0
CIRCLE
5
102
100
AcDbEntity
8
0
100
AcDbCircle
10
-8
20
-8
30
0
40
0.99999999999999989
210
0
220
0
230
1
0
CIRCLE
5
103
100
AcDbEntity
8
0
100
AcDbCircle
10
8
20
-8
30
0
40
0.99999999999999978
210
0
220
0
230
1
0
LWPOLYLINE
5
104
100
AcDbEntity
8
0
100
AcDbPolyline
90
76
70
1
43
0.0
10
12.000000000000027
20
-5.6862915010152353
10
12.00000000000002
20
5.6862915010152921
42
-0.19891236737965753
10
13.464466094067276
20
9.2218254069480246
10
44.53986502272538
20
40.297224335607609
42
-0.19768090353908996
10
49.493501914649201
20
42.347475786756959
42
0.00013890799432426576
10
49.497474683058293
20
42.347474683058373
42
0.28048543229970779
10
51.851719023002659
20
43.78090837255985
42
-0.15545284805401005
10
55.214040993556821
20
47.143230343113999
42
0.1894289082586422
10
56.491331471036467
20
48.601272517776906
10
58.046835747769101
20
52.929765629641423
42
0.63421059846899508
10
52.929765629641345
20
58.04683574776913
10
48.601272517776877
20
56.491331471036489
42
0.18942890825864317
10
47.14323034311397
20
55.214040993556857
42
-0.15545284805401074
10
43.780908372559793
20
51.851719023002687
42
0.28048543229970169
10
42.34747468305833
20
49.497474683058357
42
0.00013890799432426576
10
42.347475786756931
20
49.493501914649244
42
-0.19588281036838417
10
40.297224335606828
20
44.539865022726168
10
22.56663258545942
20
26.809273272578736
42
-0.66316293344363519
10
13.999734248080324
20
30.288230418964268
42
0.99307283899711707
10
8.5
20
30.250000000000007
10
6.5
20
17.977584752058824
42
-0.85022501653409743
10
-6.4999999999999929
20
17.977584752058831
10
-8.4999999999999822
20
30.250000000000014
42
0.99307283899712107
10
-13.999734248080294
20
30.28823041896424
42
-0.66316293344363586
10
-22.566632585459388
20
26.80927327257865
10
-40.297224335606863
20
44.539865022726133
42
-0.1958828103683844
10
-42.347475786756974
20
49.493501914649215
42
0.00013890799432426576
10
-42.34747468305838
20
49.497474683058314
42
0.2804854322997008
10
-43.780908372559857
20
51.851719023002623
42
-0.15545284805401063
10
-47.143230343114027
20
55.214040993556807
42
0.18942890825864317
10
-48.601272517776934
20
56.491331471036446
10
-52.929765629641395
20
58.04683574776908
42
0.63421059846899508
10
-58.046835747769158
20
52.929765629641366
10
-56.491331471036517
20
48.601272517776849
42
0.18942890825864384
10
-55.214040993556864
20
47.143230343113927
42
-0.15545284805400972
10
-51.851719023002715
20
43.780908372559793
42
0.28048543229970779
10
-49.497474683058329
20
42.34747468305833
42
0.00013890799432426576
10
-49.493501914649237
20
42.347475786755886
42
-0.19768090353908996
10
-44.53986502272614
20
40.297224335606842
10
-13.464466094064829
20
9.2218254069455483
42
-0.19891236737934961
10
-11.999999999997559
20
5.6862915010187685
10
-11.999999999984006
20
-5.6862915009945558
42
-0.19891236737990106
10
-13.464466094051275
20
-9.2218254069319894
10
-44.539865022725365
20
-40.297224335607609
42
-0.19768090353909018
10
-49.493501914649201
20
-42.347475786756974
42
0.00013890799432426576
10
-49.497474683058293
20
-42.34747468305838
42
0.28048543229970685
10
-51.851719023002659
20
-43.780908372559857
42
-0.15545284805400972
10
-55.214040993556814
20
-47.143230343113999
42
0.18942890825864384
10
-56.491331471036474
20
-48.601272517776906
10
-58.046835747769101
20
-52.929765629641423
42
0.63421059846899508
10
-52.929765629641345
20
-58.04683574776913
10
-48.601272517776877
20
-56.491331471036503
42
0.18942890825864464
10
-47.14323034311397
20
-55.214040993556843
42
-0.15545284805401041
10
-43.780908372559807
20
-51.85171902300268
42
0.2804854322997008
10
-42.347474683058337
20
-49.497474683058357
42
0.00013890799432426576
10
-42.347475786756931
20
-49.493501914649244
42
-0.1958828103683844
10
-40.29722433560682
20
-44.539865022726168
10
-29.30062191623767
20
-33.543262603362422
42
-0.28299724174832197
10
-1.0934894622812794
20
-26.824797857899366
42
0.16022298169832944
10
1.0934894622800972
20
-26.824797857895728
42
-0.28299724174832214
10
29.300621916240409
20
-33.543262603359693
10
40.297224335606863
20
-44.53986502272614
42
-0.19588281036838417
10
42.347475786756959
20
-49.493501914649215
42
0.00013890799432426576
10
42.347474683058373
20
-49.497474683058314
42
0.28048543229970169
10
43.78090837255985
20
-51.85171902300263
42
-0.15545284805401108
10
47.143230343114027
20
-55.214040993556814
42
0.18942890825864159
10
48.601272517776934
20
-56.491331471036439
10
52.929765629641395
20
-58.04683574776908
42
0.63421059846899508
10
58.046835747769158
20
-52.929765629641366
10
56.49133147103651
20
-48.601272517776849
42
0.1894289082586422
10
55.214040993556878
20
-47.143230343113927
42
-0.15545284805401016
10
51.851719023002723
20
-43.780908372559786
42
0.28048543229970863
10
49.497474683058329
20
-42.347474683058323
42
0.00013890799432426576
10
49.493501914649237
20
-42.347475786755886
42
-0.19768090353908971
10
44.53986502272614
20
-40.297224335606849
10
13.464466094067287
20
-9.2218254069479677
42
-0.19891236737965823
0
CIRCLE
5
105
100
AcDbEntity
8
0
100
AcDbCircle
10
0
20
-23.500000000000007
30
0
40
1.5000000000000004
210
0
220
0
230
1
0
LWPOLYLINE
5
106
100
AcDbEntity
8
0
100
AcDbPolyline
90
8
70
1
43
0.0
10
9.4999999999868727
20
-2.6334368340211589
42
-0.21342176528314272
10
9.1666666666535406
20
-3.3787928265201508
10
6.2500000000000009
20
-5.9875388002581742
42
-0.64823151951037461
10
4.9999999999999982
20
-5.4285218058832267
10
4.9999999999999991
20
5.428521825875241
42
-0.64823151951037306
10
6.25
20
5.9875388202501885
10
9.1666666666584788
20
3.3787928465077637
42
-0.21342176528363327
10
9.4999999999918128
20
2.6334368540068951
0
LWPOLYLINE
5
107
100
AcDbEntity
8
0
100
AcDbPolyline
90
8
70
1
43
0.0
10
-9.1666666666584788
20
3.3787928465077637
10
-6.25
20
5.9875388202501885
42
-0.64823151951037306
10
-5
20
5.428521825875241
10
-4.9999999999999991
20
-5.4285218058832267
42
-0.64823151951037461
10
-6.2500000000000009
20
-5.9875388002581742
10
-9.1666666666535406
20
-3.3787928265201512
42
-0.21342176528314272
10
-9.4999999999868727
20
-2.6334368340211589
10
-9.4999999999918128
20
2.6334368540068951
42
-0.21342176528363327
0
LWPOLYLINE
5
108
100
AcDbEntity
8
0
100
AcDbPolyline
90
8
70
1
43
0.0
10
-3.378792846507761
20
-14.166666666658486
10
-5.9875388202501858
20
-11.250000000000002
42
-0.64823151951037339
10
-5.4285218258752401
20
-10.000000000000004
10
5.4285218058832294
20
-10
42
-0.64823151951037428
10
5.9875388002581778
20
-11.250000000000002
10
3.3787928265201552
20
-14.166666666653541
42
-0.21342176528314294
10
2.6334368340211629
20
-14.499999999986874
10
-2.6334368540068924
20
-14.49999999999182
42
-0.21342176528363327
0
CIRCLE
5
109
100
AcDbEntity
8
0
100
AcDbCircle
10
11.250000000000002
20
30.250000000000007
30
0
40
1.4999999999999993
210
0
220
0
230
1
0
CIRCLE
5
110
100
AcDbEntity
8
0
100
AcDbCircle
10
-11.249999999999984
20
30.250000000000014
30
0
40
1.4999999999999993
210
0
220
0
230
1
0
CIRCLE
5
111
100
AcDbEntity
8
0
100
AcDbCircle
10
44.997474683058336
20
49.497474683058357
30
0
40
1
210
0
220
-0
230
1
0
CIRCLE
5
112
100
AcDbEntity
8
0
100
AcDbCircle
10
49.497474683058307
20
53.997474683058329
30
0
40
0.99999999999999967
210
0
220
-0
230
1
0
CIRCLE
5
113
100
AcDbEntity
8
0
100
AcDbCircle
10
53.997474683058286
20
49.497474683058336
30
0
40
1.0000000000000029
210
0
220
-0
230
1
0
CIRCLE
5
114
100
AcDbEntity
8
0
100
AcDbCircle
10
49.497474683058307
20
49.497474683058357
30
0
40
2.5000000000000022
210
0
220
-0
230
1
0
CIRCLE
5
115
100
AcDbEntity
8
0
100
AcDbCircle
10
49.497474683058329
20
44.997474683058357
30
0
40
1.0000000000000011
210
0
220
-0
230
1
0
CIRCLE
5
116
100
AcDbEntity
8
0
100
AcDbCircle
10
-49.497474683058364
20
49.497474683058307
30
0
40
2.5000000000000022
210
0
220
-0
230
1
0
CIRCLE
5
117
100
AcDbEntity
8
0
100
AcDbCircle
10
-53.997474683058336
20
49.497474683058286
30
0
40
1.0000000000000029
210
0
220
-0
230
1
0
CIRCLE
5
118
100
AcDbEntity
8
0
100
AcDbCircle
10
-49.497474683058364
20
44.997474683058314
30
0
40
1.0000000000000011
210
0
220
-0
230
1
0
CIRCLE
5
119
100
AcDbEntity
8
0
100
AcDbCircle
10
-44.997474683058385
20
49.497474683058307
30
0
40
1
210
0
220
-0
230
1
0
CIRCLE
5
120
100
AcDbEntity
8
0
100
AcDbCircle
10
-49.497474683058364
20
53.997474683058286
30
0
40
0.99999999999999967
210
0
220
-0
230
1
0
CIRCLE
5
121
100
AcDbEntity
8
0
100
AcDbCircle
10
49.497474683058364
20
-53.997474683058272
30
0
40
0.99999999999999967
210
0
220
-0
230
1
0
CIRCLE
5
122
100
AcDbEntity
8
0
100
AcDbCircle
10
49.497474683058371
20
-44.997474683058307
30
0
40
1.0000000000000011
210
0
220
-0
230
1
0
CIRCLE
5
123
100
AcDbEntity
8
0
100
AcDbCircle
10
49.497474683058357
20
-49.4974746830583
30
0
40
2.5000000000000022
210
0
220
-0
230
1
0
CIRCLE
5
124
100
AcDbEntity
8
0
100
AcDbCircle
10
53.997474683058329
20
-49.497474683058286
30
0
40
1.0000000000000029
210
0
220
-0
230
1
0
CIRCLE
5
125
100
AcDbEntity
8
0
100
AcDbCircle
10
44.997474683058378
20
-49.497474683058314
30
0
40
1
210
0
220
-0
230
1
0
CIRCLE
5
126
100
AcDbEntity
8
0
100
AcDbCircle
10
-53.997474683058293
20
-49.497474683058336
30
0
40
1.0000000000000029
210
0
220
-0
230
1
0
CIRCLE
5
127
100
AcDbEntity
8
0
100
AcDbCircle
10
-49.497474683058314
20
-49.497474683058364
30
0
40
2.5000000000000022
210
0
220
-0
230
1
0
CIRCLE
5
128
100
AcDbEntity
8
0
100
AcDbCircle
10
-49.497474683058307
20
-53.997474683058336
30
0
40
0.99999999999999967
210
0
220
-0
230
1
0
CIRCLE
5
129
100
AcDbEntity
8
0
100
AcDbCircle
10
-44.997474683058343
20
-49.497474683058343
30
0
40
1
210
0
220
-0
230
1
0
CIRCLE
5
130
100
AcDbEntity
8
0
100
AcDbCircle
10
-49.497474683058314
20
-44.997474683058371
30
0
40
1.0000000000000011
210
0
220
-0
230
1
0
LWPOLYLINE
5
131
100
AcDbEntity
8
0
100
AcDbPolyline
90
6
70
1
43
0.0
10
11.57543261688534
20
12.989646200331892
10
18.323991866730008
20
19.73820545017653
42
0.61803398772024976
10
17.758306444731048
20
21.435261724602782
42
-0.14795617718898116
10
13.032900644926775
20
23.634991934710577
42
0.5922170767681606
10
11.379454579047577
20
23.050302133997718
10
9.8813462176106146
20
13.857598185014135
42
0.72825028160384098
0
ARC
5
132
100
AcDbEntity
8
0
100
AcDbCircle
10
19.290255568304296
20
21.081693684286051
30
0
40
0.2667380250186675
210
0
220
0
230
1
100
AcDbArc
50
91.603439479571364
51
91.603439479571364
0
LWPOLYLINE
5
133
100
AcDbEntity
8
0
100
AcDbPolyline
90
6
70
1
43
0.0
10
-9.8813462176106075
20
13.857598185014137
42
-0.72825028160383998
10
-11.575432616885335
20
12.989646200331897
10
-18.323991866730008
20
19.738205450176537
42
-0.6180339877202492
10
-17.758306444731044
20
21.435261724602789
42
0.14795617718898124
10
-13.032900644926764
20
23.634991934710584
42
-0.5922170767681606
10
-11.379454579047568
20
23.050302133997725
0
LWPOLYLINE
5
134
100
AcDbEntity
8
0
100
AcDbPolyline
90
6
70
1
43
0.0
10
13.347169314374693
20
-17.589810001493941
10
16.935806233907382
20
-21.178446921026648
42
-0.75414133542297057
10
16.002289139143855
20
-22.859585719092497
42
0.083234953041134721
10
5.4163960139987202
20
-22.199191250005754
42
-0.59017380990526092
10
4.4158922163338206
20
-20.762351879924402
10
5.3271024347683493
20
-18.914243726965786
42
-0.51367861931228742
0
LWPOLYLINE
5
135
100
AcDbEntity
8
0
100
AcDbPolyline
90
6
70
1
43
0.0
10
-13.347169314374675
20
-17.589810001493969
10
-16.935806233907368
20
-21.178446921026662
42
0.75414133542297057
10
-16.002289139143823
20
-22.859585719092518
42
-0.083234953041134527
10
-5.4163960139987024
20
-22.199191250005757
42
0.59017380990526092
10
-4.4158922163338037
20
-20.76235187992441
10
-5.3271024347683387
20
-18.914243726965815
42
0.51367861931228698
0
ENDSEC
0
SECTION
2
OBJECTS
0
DICTIONARY
5
C
100
AcDbDictionary
3
ACAD_GROUP
350
D
3
ACAD_MLINESTYLE
350
17
0
DICTIONARY
5
D
100
AcDbDictionary
0
DICTIONARY
5
1A
330
C
100
AcDbDictionary
0
DICTIONARY
5
17
100
AcDbDictionary
0
ENDSEC
0
EOF
