  0
SECTION
  2
HEADER
  9
$ACADVER
  1
AC1014
  9
$ACADMAINTVER
 70
     9
  9
$DWGCODEPAGE
  3
ANSI_1252
  9
$INSBASE
 10
0.0
 20
0.0
 30
0.0
  9
$EXTMIN
 10
1.000000000000000E+20
 20
1.000000000000000E+20
 30
1.000000000000000E+20
  9
$EXTMAX
 10
-1.000000000000000E+20
 20
-1.000000000000000E+20
 30
-1.000000000000000E+20
  9
$LIMMIN
 10
0.0
 20
0.0
  9
$LIMMAX
 10
12.0
 20
9.0
  9
$ORTHOMODE
 70
     0
  9
$REGENMODE
 70
     1
  9
$FILLMODE
 70
     1
  9
$QTEXTMODE
 70
     0
  9
$MIRRTEXT
 70
     1
  9
$DRAGMODE
 70
     2
  9
$LTSCALE
 40
1.0
  9
$OSMODE
 70
    37
  9
$ATTMODE
 70
     1
  9
$TEXTSIZE
 40
0.2
  9
$TRACEWID
 40
0.05
  9
$TEXTSTYLE
  7
STANDARD
  9
$CLAYER
  8
0
  9
$CELTYPE
  6
BYLAYER
  9
$CECOLOR
 62
   256
  9
$CELTSCALE
 40
1.0
  9
$DELOBJ
 70
     1
  9
$DISPSILH
 70
     0
  9
$DIMSCALE
 40
1.0
  9
$DIMASZ
 40
0.18
  9
$DIMEXO
 40
0.0625
  9
$DIMDLI
 40
0.38
  9
$DIMRND
 40
0.0
  9
$DIMDLE
 40
0.0
  9
$DIMEXE
 40
0.18
  9
$DIMTP
 40
0.0
  9
$DIMTM
 40
0.0
  9
$DIMTXT
 40
0.18
  9
$DIMCEN
 40
0.09
  9
$DIMTSZ
 40
0.0
  9
$DIMTOL
 70
     0
  9
$DIMLIM
 70
     0
  9
$DIMTIH
 70
     1
  9
$DIMTOH
 70
     1
  9
$DIMSE1
 70
     0
  9
$DIMSE2
 70
     0
  9
$DIMTAD
 70
     0
  9
$DIMZIN
 70
     0
  9
$DIMBLK
  1

  9
$DIMASO
 70
     1
  9
$DIMSHO
 70
     1
  9
$DIMPOST
  1

  9
$DIMAPOST
  1

  9
$DIMALT
 70
     0
  9
$DIMALTD
 70
     2
  9
$DIMALTF
 40
25.4
  9
$DIMLFAC
 40
1.0
  9
$DIMTOFL
 70
     0
  9
$DIMTVP
 40
0.0
  9
$DIMTIX
 70
     0
  9
$DIMSOXD
 70
     0
  9
$DIMSAH
 70
     0
  9
$DIMBLK1
  1

  9
$DIMBLK2
  1

  9
$DIMSTYLE
  2
STANDARD
  9
$DIMCLRD
 70
     0
  9
$DIMCLRE
 70
     0
  9
$DIMCLRT
 70
     0
  9
$DIMTFAC
 40
1.0
  9
$DIMGAP
 40
0.09
  9
$DIMJUST
 70
     0
  9
$DIMSD1
 70
     0
  9
$DIMSD2
 70
     0
  9
$DIMTOLJ
 70
     1
  9
$DIMTZIN
 70
     0
  9
$DIMALTZ
 70
     0
  9
$DIMALTTZ
 70
     0
  9
$DIMFIT
 70
     3
  9
$DIMUPT
 70
     0
  9
$DIMUNIT
 70
     2
  9
$DIMDEC
 70
     4
  9
$DIMTDEC
 70
     4
  9
$DIMALTU
 70
     2
  9
$DIMALTTD
 70
     2
  9
$DIMTXSTY
  7
STANDARD
  9
$DIMAUNIT
 70
     0
  9
$LUNITS
 70
     2
  9
$LUPREC
 70
     4
  9
$SKETCHINC
 40
0.1
  9
$FILLETRAD
 40
0.5
  9
$AUNITS
 70
     0
  9
$AUPREC
 70
     0
  9
$MENU
  1
.
  9
$ELEVATION
 40
0.0
  9
$PELEVATION
 40
0.0
  9
$THICKNESS
 40
0.0
  9
$LIMCHECK
 70
     0
  9
$CHAMFERA
 40
0.0
  9
$CHAMFERB
 40
0.0
  9
$CHAMFERC
 40
0.0
  9
$CHAMFERD
 40
0.0
  9
$SKPOLY
 70
     0
  9
$TDCREATE
 40
2458742.908192928
  9
$TDUPDATE
 40
2458742.90819309
  9
$TDINDWG
 40
0.0000000116
  9
$TDUSRTIMER
 40
0.0000000116
  9
$USRTIMER
 70
     1
  9
$ANGBASE
 50
0.0
  9
$ANGDIR
 70
     0
  9
$PDMODE
 70
     0
  9
$PDSIZE
 40
0.0
  9
$PLINEWID
 40
0.0
  9
$COORDS
 70
     1
  9
$SPLFRAME
 70
     0
  9
$SPLINETYPE
 70
     6
  9
$SPLINESEGS
 70
     8
  9
$ATTDIA
 70
     0
  9
$ATTREQ
 70
     1
  9
$HANDLING
 70
     1
  9
$HANDSEED
  5
22B
  9
$SURFTAB1
 70
     6
  9
$SURFTAB2
 70
     6
  9
$SURFTYPE
 70
     6
  9
$SURFU
 70
     6
  9
$SURFV
 70
     6
  9
$UCSNAME
  2

  9
$UCSORG
 10
0.0
 20
0.0
 30
0.0
  9
$UCSXDIR
 10
1.0
 20
0.0
 30
0.0
  9
$UCSYDIR
 10
0.0
 20
1.0
 30
0.0
  9
$PUCSNAME
  2

  9
$PUCSORG
 10
0.0
 20
0.0
 30
0.0
  9
$PUCSXDIR
 10
1.0
 20
0.0
 30
0.0
  9
$PUCSYDIR
 10
0.0
 20
1.0
 30
0.0
  9
$USERI1
 70
     0
  9
$USERI2
 70
     0
  9
$USERI3
 70
     0
  9
$USERI4
 70
     0
  9
$USERI5
 70
     0
  9
$USERR1
 40
0.0
  9
$USERR2
 40
0.0
  9
$USERR3
 40
0.0
  9
$USERR4
 40
0.0
  9
$USERR5
 40
0.0
  9
$WORLDVIEW
 70
     1
  9
$SHADEDGE
 70
     3
  9
$SHADEDIF
 70
    70
  9
$TILEMODE
 70
     1
  9
$MAXACTVP
 70
    64
  9
$PINSBASE
 10
0.0
 20
0.0
 30
0.0
  9
$PLIMCHECK
 70
     0
  9
$PEXTMIN
 10
1.000000000000000E+20
 20
1.000000000000000E+20
 30
1.000000000000000E+20
  9
$PEXTMAX
 10
-1.000000000000000E+20
 20
-1.000000000000000E+20
 30
-1.000000000000000E+20
  9
$PLIMMIN
 10
0.0
 20
0.0
  9
$PLIMMAX
 10
12.0
 20
9.0
  9
$UNITMODE
 70
     0
  9
$VISRETAIN
 70
     1
  9
$PLINEGEN
 70
     0
  9
$PSLTSCALE
 70
     1
  9
$TREEDEPTH
 70
  3020
  9
$PICKSTYLE
 70
     1
  9
$CMLSTYLE
  2
STANDARD
  9
$CMLJUST
 70
     0
  9
$CMLSCALE
 40
1.0
  9
$PROXYGRAPHICS
 70
     1
  9
$MEASUREMENT
 70
     1
  0
ENDSEC
  0
SECTION
  2
CLASSES
  0
CLASS
  1
ACDBDICTIONARYWDFLT
  2
AcDbDictionaryWithDefault
  3
ObjectDBX Classes
 90
        0
280
     0
281
     0
  0
CLASS
  1
VISUALSTYLE
  2
AcDbVisualStyle
  3
ObjectDBX Classes
 90
     4095
280
     0
281
     0
  0
CLASS
  1
MATERIAL
  2
AcDbMaterial
  3
ObjectDBX Classes
 90
     1153
280
     0
281
     0
  0
CLASS
  1
SCALE
  2
AcDbScale
  3
ObjectDBX Classes
 90
     1153
280
     0
281
     0
  0
CLASS
  1
TABLESTYLE
  2
AcDbTableStyle
  3
ObjectDBX Classes
 90
     4095
280
     0
281
     0
  0
CLASS
  1
MLEADERSTYLE
  2
AcDbMLeaderStyle
  3
ACDB_MLEADERSTYLE_CLASS
 90
     4095
280
     0
281
     0
  0
CLASS
  1
SUN
  2
AcDbSun
  3
SCENEOE
 90
     1153
280
     0
281
     0
  0
CLASS
  1
DICTIONARYVAR
  2
AcDbDictionaryVar
  3
ObjectDBX Classes
 90
        0
280
     0
281
     0
  0
CLASS
  1
XRECORD
  2
AcDbXrecord
  3
ObjectDBX Classes
 90
        0
280
     0
281
     0
  0
CLASS
  1
LWPOLYLINE
  2
AcDbPolyline
  3
ObjectDBX Classes
 90
        0
280
     0
281
     1
  0
CLASS
  1
HATCH
  2
AcDbHatch
  3
ObjectDBX Classes
 90
        0
280
     0
281
     1
  0
CLASS
  1
ACDBPLACEHOLDER
  2
AcDbPlaceHolder
  3
ObjectDBX Classes
 90
        0
280
     0
281
     0
  0
CLASS
  1
LAYOUT
  2
AcDbLayout
  3
ObjectDBX Classes
 90
        0
280
     0
281
     0
  0
ENDSEC
  0
SECTION
  2
TABLES
  0
TABLE
  2
VPORT
  5
8
102
{ACAD_XDICTIONARY
360
220
102
}
330
0
100
AcDbSymbolTable
 70
     1
  0
VPORT
  5
29
330
8
100
AcDbSymbolTableRecord
100
AcDbViewportTableRecord
  2
*ACTIVE
 70
     0
 10
0.0
 20
0.0
 11
1.0
 21
1.0
 12
0.0
 22
0.0
 13
0.0
 23
0.0
 14
0.5
 24
0.5
 15
0.5
 25
0.5
 16
0.0
 26
0.0
 36
1.0
 17
0.0
 27
0.0
 37
-1000.0
 40
77.00231253252342
 41
1.75
 42
50.0
 43
231.9328125836577
 44
311.4135821232813
 50
0.0
 51
0.0
 71
     0
 72
   100
 73
     1
 74
     3
 75
     0
 76
     0
 77
     0
 78
     0
  0
ENDTAB
  0
TABLE
  2
LTYPE
  5
5
330
0
100
AcDbSymbolTable
 70
     1
  0
LTYPE
  5
14
330
5
100
AcDbSymbolTableRecord
100
AcDbLinetypeTableRecord
  2
BYBLOCK
 70
     0
  3

 72
    65
 73
     0
 40
0.0
  0
LTYPE
  5
15
330
5
100
AcDbSymbolTableRecord
100
AcDbLinetypeTableRecord
  2
BYLAYER
 70
     0
  3

 72
    65
 73
     0
 40
0.0
  0
LTYPE
  5
16
330
5
100
AcDbSymbolTableRecord
100
AcDbLinetypeTableRecord
  2
CONTINUOUS
 70
     0
  3
Solid line
 72
    65
 73
     0
 40
0.0
  0
ENDTAB
  0
TABLE
  2
LAYER
  5
2
330
0
100
AcDbSymbolTable
 70
     3
  0
LAYER
  5
10
330
2
100
AcDbSymbolTableRecord
100
AcDbLayerTableRecord
  2
0
 70
     0
 62
     7
  6
CONTINUOUS
  0
LAYER
  5
6E
330
2
100
AcDbSymbolTableRecord
100
AcDbLayerTableRecord
  2
PROFILEEDGES
 70
     0
 62
     7
  6
CONTINUOUS
  0
LAYER
  5
6F
330
2
100
AcDbSymbolTableRecord
100
AcDbLayerTableRecord
  2
SECTIONCUTEDGES
 70
     0
 62
     7
  6
CONTINUOUS
  0
ENDTAB
  0
TABLE
  2
STYLE
  5
3
330
0
100
AcDbSymbolTable
 70
     1
  0
STYLE
  5
11
330
3
100
AcDbSymbolTableRecord
100
AcDbTextStyleTableRecord
  2
STANDARD
 70
     0
 40
0.0
 41
1.0
 50
0.0
 71
     0
 42
0.2
  3
txt
  4

  0
ENDTAB
  0
TABLE
  2
VIEW
  5
6
330
0
100
AcDbSymbolTable
 70
     0
  0
ENDTAB
  0
TABLE
  2
UCS
  5
7
330
0
100
AcDbSymbolTable
 70
     0
  0
ENDTAB
  0
TABLE
  2
APPID
  5
9
330
0
100
AcDbSymbolTable
 70
     2
  0
APPID
  5
12
330
9
100
AcDbSymbolTableRecord
100
AcDbRegAppTableRecord
  2
ACAD
 70
     0
  0
APPID
  5
22A
330
9
100
AcDbSymbolTableRecord
100
AcDbRegAppTableRecord
  2
ACAD_MLEADERVER
 70
     0
  0
ENDTAB
  0
TABLE
  2
DIMSTYLE
  5
A
330
0
100
AcDbSymbolTable
 70
     1
  0
DIMSTYLE
105
27
330
A
100
AcDbSymbolTableRecord
100
AcDbDimStyleTableRecord
  2
STANDARD
 70
     0
  3

  4

  5

  6

  7

 40
1.0
 41
0.18
 42
0.0625
 43
0.38
 44
0.18
 45
0.0
 46
0.0
 47
0.0
 48
0.0
140
0.18
141
0.09
142
0.0
143
25.4
144
1.0
145
0.0
146
1.0
147
0.09
 71
     0
 72
     0
 73
     1
 74
     1
 75
     0
 76
     0
 77
     0
 78
     0
170
     0
171
     2
172
     0
173
     0
174
     0
175
     0
176
     0
177
     0
178
     0
270
     2
271
     4
272
     4
273
     2
274
     2
340
11
275
     0
280
     0
281
     0
282
     0
283
     1
284
     0
285
     0
286
     0
287
     3
288
     0
  0
ENDTAB
  0
TABLE
  2
BLOCK_RECORD
  5
1
330
0
100
AcDbSymbolTable
 70
     1
  0
BLOCK_RECORD
  5
1F
330
1
100
AcDbSymbolTableRecord
100
AcDbBlockTableRecord
  2
*MODEL_SPACE
  0
BLOCK_RECORD
  5
1B
330
1
100
AcDbSymbolTableRecord
100
AcDbBlockTableRecord
  2
*PAPER_SPACE
  0
ENDTAB
  0
ENDSEC
  0
SECTION
  2
BLOCKS
  0
BLOCK
  5
20
330
1F
100
AcDbEntity
  8
0
100
AcDbBlockBegin
  2
*MODEL_SPACE
 70
     0
 10
0.0
 20
0.0
 30
0.0
  3
*MODEL_SPACE
  1

  0
ENDBLK
  5
21
330
1F
100
AcDbEntity
  8
0
100
AcDbBlockEnd
  0
BLOCK
  5
1C
330
1B
100
AcDbEntity
 67
     1
  8
0
100
AcDbBlockBegin
  2
*PAPER_SPACE
 70
     0
 10
0.0
 20
0.0
 30
0.0
  3
*PAPER_SPACE
  1

  0
ENDBLK
  5
1D
330
1B
100
AcDbEntity
 67
     1
  8
0
100
AcDbBlockEnd
  0
ENDSEC
  0
SECTION
  2
ENTITIES
  0
LINE
  5
70
330
1F
100
AcDbEntity
  8
0
100
AcDbLine
 10
-18.06096311707871
 20
-27.6354313429184
 30
0.0
 11
-18.45875119892239
 21
-27.95477930805374
 31
0.0
  0
LINE
  5
71
330
1F
100
AcDbEntity
  8
0
100
AcDbLine
 10
-34.78897498503474
 20
-21.07028368643731
 30
0.0
 11
-34.59859467968294
 21
-20.74289162360689
 31
0.0
  0
LINE
  5
72
330
1F
100
AcDbEntity
  8
0
100
AcDbLine
 10
-22.29279285587163
 20
-13.86320691953304
 30
0.0
 11
-20.10417652034413
 21
-12.44897598851536
 31
0.0
  0
LINE
  5
73
330
1F
100
AcDbEntity
  8
0
100
AcDbLine
 10
-18.82797747013822
 20
-28.30676323107619
 30
0.0
 11
-19.16596588626333
 21
-28.68883361214735
 31
0.0
  0
LINE
  5
74
330
1F
100
AcDbEntity
  8
0
100
AcDbLine
 10
-17.63749020688956
 20
-27.35103126891844
 30
0.0
 11
-18.06096311707871
 21
-27.6354313429184
 31
0.0
  0
LINE
  5
75
330
1F
100
AcDbEntity
  8
0
100
AcDbLine
 10
-34.46069639526954
 20
-36.57609845294863
 30
0.0
 11
-34.85515579856584
 21
-36.54677284913172
 31
0.0
  0
LINE
  5
76
330
1F
100
AcDbEntity
  8
0
100
AcDbLine
 10
-21.2198082837914
 20
-33.13746081667885
 30
0.0
 11
-21.48260378860791
 21
-33.41017456574832
 31
0.0
  0
LINE
  5
77
330
1F
100
AcDbEntity
  8
0
100
AcDbLine
 10
-17.48186579439175
 20
-10.60957361627771
 30
0.0
 11
-17.13907937888503
 21
-10.3501049697361
 31
0.0
  0
LINE
  5
78
330
1F
100
AcDbEntity
  8
0
100
AcDbLine
 10
-19.73872123562748
 20
-29.53200713253972
 30
0.0
 11
-19.96934775854722
 21
-29.98701309290686
 31
0.0
  0
LINE
  5
79
330
1F
100
AcDbEntity
  8
0
100
AcDbLine
 10
-20.78994645571022
 20
-32.51516079100028
 30
0.0
 11
-20.98801993934729
 21
-32.83795776110391
 31
0.0
  0
LINE
  5
7A
330
1F
100
AcDbEntity
  8
0
100
AcDbLine
 10
-37.18825926821645
 20
-35.1907042917576
 30
0.0
 11
-37.40898626811993
 21
-34.86246430078766
 31
0.0
  0
LINE
  5
7B
330
1F
100
AcDbEntity
  8
0
100
AcDbLine
 10
-18.45875119892239
 20
-27.95477930805374
 30
0.0
 11
-18.82797747013822
 21
-28.30676323107619
 31
0.0
  0
LINE
  5
7C
330
1F
100
AcDbEntity
  8
0
100
AcDbLine
 10
-28.34639359217024
 20
-17.38094267593308
 30
0.0
 11
-25.5400083400441
 21
-15.83688424210122
 31
0.0
  0
LINE
  5
7D
330
1F
100
AcDbEntity
  8
0
100
AcDbLine
 10
-23.14335583158171
 20
-34.27294308627875
 30
0.0
 11
-33.67445255542048
 21
-36.50085320389946
 31
0.0
  0
LINE
  5
7E
330
1F
100
AcDbEntity
  8
0
100
AcDbLine
 10
-14.92791015011986
 20
-8.6763831969113
 30
0.0
 11
-12.4456622709061
 21
-6.651942509566472
 31
0.0
  0
LINE
  5
7F
330
1F
100
AcDbEntity
  8
0
100
AcDbLine
 10
-12.17922485730063
 20
-23.09341937408075
 30
0.0
 11
-12.20608377955011
 21
-23.47795808516246
 31
0.0
  0
LINE
  5
80
330
1F
100
AcDbEntity
  8
0
100
AcDbLine
 10
-36.64320632426049
 20
-35.76232973786868
 30
0.0
 11
-36.93190992340917
 21
-35.49194689724865
 31
0.0
  0
LINE
  5
81
330
1F
100
AcDbEntity
  8
0
100
AcDbLine
 10
-25.39560861537803
 20
-31.10988478473909
 30
0.0
 11
-25.32704883337416
 21
-31.37122604240968
 31
0.0
  0
LINE
  5
82
330
1F
100
AcDbEntity
  8
0
100
AcDbLine
 10
-13.20541785548368
 20
-25.51852994692703
 30
0.0
 11
-13.4927399429388
 21
-25.77551294824725
 31
0.0
  0
LINE
  5
83
330
1F
100
AcDbEntity
  8
0
100
AcDbLine
 10
-21.48260378860791
 20
-33.41017456574832
 30
0.0
 11
-21.77332639620223
 21
-33.65288785747815
 31
0.0
  0
LINE
  5
84
330
1F
100
AcDbEntity
  8
0
100
AcDbLine
 10
-37.40898626811993
 20
-34.86246430078766
 30
0.0
 11
-37.59126327440766
 21
-34.51142269552305
 31
0.0
  0
LINE
  5
85
330
1F
100
AcDbEntity
  8
0
100
AcDbLine
 10
-34.065446002964
 20
-36.56072696310008
 30
0.0
 11
-34.46069639526954
 21
-36.57609845294863
 31
0.0
  0
LINE
  5
86
330
1F
100
AcDbEntity
  8
0
100
AcDbLine
 10
-17.13907937888503
 20
-10.3501049697361
 30
0.0
 11
-17.11247975456953
 21
-10.34035580338292
 31
0.0
  0
LINE
  5
87
330
1F
100
AcDbEntity
  8
0
100
AcDbLine
 10
-37.83168915681615
 20
-33.75907014721257
 30
0.0
 11
-37.88676790696772
 21
-33.36737318934173
 31
0.0
  0
LINE
  5
88
330
1F
100
AcDbEntity
  8
0
100
AcDbLine
 10
-35.9838568908829
 20
-36.19718451291077
 30
0.0
 11
-36.32583840932502
 21
-35.9984154773646
 31
0.0
  0
LINE
  5
89
330
1F
100
AcDbEntity
  8
0
100
AcDbLine
 10
-37.59126327440766
 20
-34.51142269552305
 30
0.0
 11
-37.73276760960476
 21
-34.14204726506856
 31
0.0
  0
LINE
  5
8A
330
1F
100
AcDbEntity
  8
0
100
AcDbLine
 10
-9.156950321805935
 20
-14.29662330993332
 30
0.0
 11
-9.58108290530389
 21
-14.76383798764291
 31
0.0
  0
LINE
  5
8B
330
1F
100
AcDbEntity
  8
0
100
AcDbLine
 10
-20.10417652034413
 20
-12.44897598851536
 30
0.0
 11
-17.48186579439175
 21
-10.60957361627771
 31
0.0
  0
LINE
  5
8C
330
1F
100
AcDbEntity
  8
0
100
AcDbLine
 10
-20.98801993934729
 20
-32.83795776110391
 30
0.0
 11
-21.2198082837914
 21
-33.13746081667885
 31
0.0
  0
LINE
  5
8D
330
1F
100
AcDbEntity
  8
0
100
AcDbLine
 10
-35.24379071905903
 20
-36.47312746416134
 30
0.0
 11
-35.62163161342291
 21
-36.356096229138
 31
0.0
  0
LINE
  5
8E
330
1F
100
AcDbEntity
  8
0
100
AcDbLine
 10
-19.96934775854722
 20
-29.98701309290686
 30
0.0
 11
-20.16049021717311
 21
-30.45996437868185
 31
0.0
  0
LINE
  5
8F
330
1F
100
AcDbEntity
  8
0
100
AcDbLine
 10
-25.06033986366974
 20
-31.83881545396609
 30
0.0
 11
-24.87029513272901
 21
-32.03086082227107
 31
0.0
  0
LINE
  5
90
330
1F
100
AcDbEntity
  8
0
100
AcDbLine
 10
-12.53555540482425
 20
-24.58159479171539
 30
0.0
 11
-12.72390346692842
 21
-24.91792400940783
 31
0.0
  0
LINE
  5
91
330
1F
100
AcDbEntity
  8
0
100
AcDbLine
 10
-25.04990648508754
 20
-29.84620513427237
 30
0.0
 11
-25.20603145184562
 21
-30.06671179820104
 31
0.0
  0
LINE
  5
92
330
1F
100
AcDbEntity
  8
0
100
AcDbLine
 10
-22.08856998687359
 20
-33.86277272326249
 30
0.0
 11
-22.42464803471317
 21
-34.03736124917111
 31
0.0
  0
LINE
  5
93
330
1F
100
AcDbEntity
  8
0
100
AcDbLine
 10
-20.50380985169926
 20
-31.81504264437514
 30
0.0
 11
-20.62791177216743
 21
-32.17285722869818
 31
0.0
  0
LINE
  5
94
330
1F
100
AcDbEntity
  8
0
100
AcDbLine
 10
-34.37395359953082
 20
-20.43798760682412
 30
0.0
 11
-34.11768732628374
 21
-20.15913607117402
 31
0.0
  0
LINE
  5
95
330
1F
100
AcDbEntity
  8
0
100
AcDbLine
 10
-35.62163161342291
 20
-36.356096229138
 30
0.0
 11
-35.9838568908829
 21
-36.19718451291077
 31
0.0
  0
LINE
  5
96
330
1F
100
AcDbEntity
  8
0
100
AcDbLine
 10
-37.73276760960476
 20
-34.14204726506856
 30
0.0
 11
-37.83168915681615
 21
-33.75907014721257
 31
0.0
  0
LINE
  5
97
330
1F
100
AcDbEntity
  8
0
100
AcDbLine
 10
-33.67445255542048
 20
-36.50085320389946
 30
0.0
 11
-34.065446002964
 21
-36.56072696310008
 31
0.0
  0
LINE
  5
98
330
1F
100
AcDbEntity
  8
0
100
AcDbLine
 10
-36.32583840932502
 20
-35.9984154773646
 30
0.0
 11
-36.64320632426049
 21
-35.76232973786868
 31
0.0
  0
LINE
  5
99
330
1F
100
AcDbEntity
  8
0
100
AcDbLine
 10
-34.59859467968294
 20
-20.74289162360689
 30
0.0
 11
-34.37395359953082
 21
-20.43798760682412
 31
0.0
  0
LINE
  5
9A
330
1F
100
AcDbEntity
  8
0
100
AcDbLine
 10
-37.8631445867749
 20
-32.57788950052759
 30
0.0
 11
-37.7847470932419
 21
-32.19018737263868
 31
0.0
  0
LINE
  5
9B
330
1F
100
AcDbEntity
  8
0
100
AcDbLine
 10
-37.88676790696772
 20
-33.36737318934173
 30
0.0
 11
-37.89729765360979
 21
-32.97196504059725
 31
0.0
  0
LINE
  5
9C
330
1F
100
AcDbEntity
  8
0
100
AcDbLine
 10
-37.7847470932419
 20
-32.19018737263868
 30
0.0
 11
-35.05846791636506
 21
-21.7769740541726
 31
0.0
  0
LINE
  5
9D
330
1F
100
AcDbEntity
  8
0
100
AcDbLine
 10
-19.16596588626333
 20
-28.68883361214735
 30
0.0
 11
-19.47028346153786
 21
-29.09823368228875
 31
0.0
  0
LINE
  5
9E
330
1F
100
AcDbEntity
  8
0
100
AcDbLine
 10
-20.16049021717311
 20
-30.45996437868185
 30
0.0
 11
-20.31076499234896
 21
-30.94743495994224
 31
0.0
  0
LINE
  5
9F
330
1F
100
AcDbEntity
  8
0
100
AcDbLine
 10
-20.41909323704427
 20
-31.44592091597685
 30
0.0
 11
-20.50380985169926
 21
-31.81504264437514
 31
0.0
  0
LINE
  5
A0
330
1F
100
AcDbEntity
  8
0
100
AcDbLine
 10
-20.31076499234896
 20
-30.94743495994224
 30
0.0
 11
-20.41909323704427
 21
-31.44592091597685
 31
0.0
  0
LINE
  5
A1
330
1F
100
AcDbEntity
  8
0
100
AcDbLine
 10
-19.47028346153786
 20
-29.09823368228875
 30
0.0
 11
-19.73872123562748
 21
-29.53200713253972
 31
0.0
  0
LINE
  5
A2
330
1F
100
AcDbEntity
  8
0
100
AcDbLine
 10
-22.77762070959109
 20
-34.17462172903296
 30
0.0
 11
-23.14335583158171
 21
-34.27294308627875
 31
0.0
  0
LINE
  5
A3
330
1F
100
AcDbEntity
  8
0
100
AcDbLine
 10
-37.89729765360979
 20
-32.97196504059725
 30
0.0
 11
-37.8631445867749
 21
-32.57788950052759
 31
0.0
  0
LINE
  5
A4
330
1F
100
AcDbEntity
  8
0
100
AcDbLine
 10
-22.7913999120518
 20
-14.19217565392884
 30
0.0
 11
-22.29279285587163
 21
-13.86320691953304
 31
0.0
  0
LINE
  5
A5
330
1F
100
AcDbEntity
  8
0
100
AcDbLine
 10
-17.11247975456953
 20
-10.34035580338292
 30
0.0
 11
-14.92791015011986
 21
-8.6763831969113
 31
0.0
  0
LINE
  5
A6
330
1F
100
AcDbEntity
  8
0
100
AcDbLine
 10
-34.94286570274005
 20
-21.41633019790502
 30
0.0
 11
-34.78897498503474
 21
-21.07028368643731
 31
0.0
  0
LINE
  5
A7
330
1F
100
AcDbEntity
  8
0
100
AcDbLine
 10
-16.72587977195886
 20
-26.8950056355936
 30
0.0
 11
-17.19138352615286
 21
-27.10362307536749
 31
0.0
  0
LINE
  5
A8
330
1F
100
AcDbEntity
  8
0
100
AcDbLine
 10
-10.33683896978893
 20
-15.77376495931073
 30
0.0
 11
-10.66545826631912
 21
-16.31245697825421
 31
0.0
  0
LINE
  5
A9
330
1F
100
AcDbEntity
  8
0
100
AcDbLine
 10
-25.32149732634279
 20
-30.310975988852
 30
0.0
 11
-25.3927900584013
 21
-30.57158497377946
 31
0.0
  0
LINE
  5
AA
330
1F
100
AcDbEntity
  8
0
100
AcDbLine
 10
-25.32704883337416
 20
-31.37122604240968
 30
0.0
 11
-25.21414717181598
 21
-31.61668597361061
 31
0.0
  0
LINE
  5
AB
330
1F
100
AcDbEntity
  8
0
100
AcDbLine
 10
-21.77332639620223
 20
-33.65288785747815
 30
0.0
 11
-22.08856998687359
 21
-33.86277272326249
 31
0.0
  0
LINE
  5
AC
330
1F
100
AcDbEntity
  8
0
100
AcDbLine
 10
-20.62791177216743
 20
-32.17285722869818
 30
0.0
 11
-20.78994645571022
 21
-32.51516079100028
 31
0.0
  0
LINE
  5
AD
330
1F
100
AcDbEntity
  8
0
100
AcDbLine
 10
-22.42464803471317
 20
-34.03736124917111
 30
0.0
 11
-22.77762070959109
 21
-34.17462172903296
 31
0.0
  0
LINE
  5
AE
330
1F
100
AcDbEntity
  8
0
100
AcDbLine
 10
-34.85515579856584
 20
-36.54677284913172
 30
0.0
 11
-35.24379071905903
 21
-36.47312746416134
 31
0.0
  0
LINE
  5
AF
330
1F
100
AcDbEntity
  8
0
100
AcDbLine
 10
-24.39026787060763
 20
-29.38944763895586
 30
0.0
 11
-24.63573163642712
 21
-29.50235309518538
 31
0.0
  0
LINE
  5
B0
330
1F
100
AcDbEntity
  8
0
100
AcDbLine
 10
-23.08574983172762
 20
-29.51046885510297
 30
0.0
 11
-23.33001781704989
 21
-29.39499914598724
 31
0.0
  0
LINE
  5
B1
330
1F
100
AcDbEntity
  8
0
100
AcDbLine
 10
-36.93190992340917
 20
-35.49194689724865
 30
0.0
 11
-37.18825926821645
 21
-35.1907042917576
 31
0.0
  0
LINE
  5
B2
330
1F
100
AcDbEntity
  8
0
100
AcDbLine
 10
-12.27506422910903
 20
-23.8572178885144
 30
0.0
 11
-12.38533333316625
 21
-24.22658729812407
 31
0.0
  0
LINE
  5
B3
330
1F
100
AcDbEntity
  8
0
100
AcDbLine
 10
-11.97254989422313
 20
-20.24996485867724
 30
0.0
 11
-12.08726790651618
 21
-21.0653848983746
 31
0.0
  0
LINE
  5
B4
330
1F
100
AcDbEntity
  8
0
100
AcDbLine
 10
-15.75023431953198
 20
-26.59987047126671
 30
0.0
 11
-16.24433615209489
 21
-26.72667964146109
 31
0.0
  0
LINE
  5
B5
330
1F
100
AcDbEntity
  8
0
100
AcDbLine
 10
-23.33001781704989
 20
-29.39499914598724
 30
0.0
 11
-23.59062678200375
 21
-29.32370259928371
 31
0.0
  0
LINE
  5
B6
330
1F
100
AcDbEntity
  8
0
100
AcDbLine
 10
-12.4456622709061
 20
-6.651942509566472
 30
0.0
 11
-11.17793239777416
 21
-5.539170497945061
 31
0.0
  0
LINE
  5
B7
330
1F
100
AcDbEntity
  8
0
100
AcDbLine
 10
-35.05846791636506
 20
-21.7769740541726
 30
0.0
 11
-34.94286570274005
 21
-21.41633019790502
 31
0.0
  0
LINE
  5
B8
330
1F
100
AcDbEntity
  8
0
100
AcDbLine
 10
-8.704195630173416
 20
-13.85708573140629
 30
0.0
 11
-9.156950321805935
 21
-14.29662330993332
 31
0.0
  0
LINE
  5
B9
330
1F
100
AcDbEntity
  8
0
100
AcDbLine
 10
-10.66545826631912
 20
-16.31245697825421
 30
0.0
 11
-10.95944335105039
 21
-16.87080082490414
 31
0.0
  0
LINE
  5
BA
330
1F
100
AcDbEntity
  8
0
100
AcDbLine
 10
-25.20603145184562
 20
-30.06671179820104
 30
0.0
 11
-25.32149732634279
 21
-30.310975988852
 31
0.0
  0
LINE
  5
BB
330
1F
100
AcDbEntity
  8
0
100
AcDbLine
 10
-10.95944335105039
 20
-16.87080082490414
 30
0.0
 11
-11.21763439120034
 21
-17.44658238794391
 31
0.0
  0
LINE
  5
BC
330
1F
100
AcDbEntity
  8
0
100
AcDbLine
 10
-12.16141769071248
 20
-21.88548824123987
 30
0.0
 11
-12.19482081641616
 21
-22.70825400427554
 31
0.0
  0
LINE
  5
BD
330
1F
100
AcDbEntity
  8
0
100
AcDbLine
 10
-22.52139112871195
 20
-30.08076867052146
 30
0.0
 11
-22.67519843685819
 21
-29.85863919016604
 31
0.0
  0
LINE
  5
BE
330
1F
100
AcDbEntity
  8
0
100
AcDbLine
 10
-16.24433615209489
 20
-26.72667964146109
 30
0.0
 11
-16.72587977195886
 21
-26.8950056355936
 31
0.0
  0
LINE
  5
BF
330
1F
100
AcDbEntity
  8
0
100
AcDbLine
 10
-12.38533333316625
 20
-24.22658729812407
 30
0.0
 11
-12.53555540482425
 21
-24.58159479171539
 31
0.0
  0
LINE
  5
C0
330
1F
100
AcDbEntity
  8
0
100
AcDbLine
 10
-33.22425858780602
 20
-22.6516945736216
 30
0.0
 11
-33.13356026088806
 21
-23.18230521926425
 31
0.0
  0
LINE
  5
C1
330
1F
100
AcDbEntity
  8
0
100
AcDbLine
 10
-11.62264515376664
 20
-18.64118682078097
 30
0.0
 11
-11.81754885434125
 21
-19.44124081659403
 31
0.0
  0
LINE
  5
C2
330
1F
100
AcDbEntity
  8
0
100
AcDbLine
 10
28.73832138014852
 20
25.23766414978061
 30
0.0
 11
28.93036674845349
 21
25.42770888072131
 31
0.0
  0
LINE
  5
C3
330
1F
100
AcDbEntity
  8
0
100
AcDbLine
 10
-23.85965341031999
 20
-29.29874933201152
 30
0.0
 11
-24.12892659296337
 21
-29.32088404230699
 31
0.0
  0
LINE
  5
C4
330
1F
100
AcDbEntity
  8
0
100
AcDbLine
 10
-24.40552048347802
 20
-32.30245549814485
 30
0.0
 11
-24.14491151852417
 21
-32.37375204484837
 31
0.0
  0
LINE
  5
C5
330
1F
100
AcDbEntity
  8
0
100
AcDbLine
 10
-24.63573163642712
 20
-29.50235309518538
 30
0.0
 11
-24.85786111678258
 21
-29.65616040333166
 31
0.0
  0
LINE
  5
C6
330
1F
100
AcDbEntity
  8
0
100
AcDbLine
 10
-31.39713824946491
 20
-21.13478940542821
 30
0.0
 11
-31.66616483783389
 21
-21.10982850886609
 31
0.0
  0
LINE
  5
C7
330
1F
100
AcDbEntity
  8
0
100
AcDbLine
 10
-32.67680660019017
 20
-23.84194762841556
 30
0.0
 11
-32.45629993626146
 21
-23.99807259517361
 31
0.0
  0
LINE
  5
C8
330
1F
100
AcDbEntity
  8
0
100
AcDbLine
 10
-23.09980670404806
 20
-32.19510917823667
 30
0.0
 11
-22.87767718374537
 21
-32.04129424080051
 31
0.0
  0
LINE
  5
C9
330
1F
100
AcDbEntity
  8
0
100
AcDbLine
 10
29.20195951700482
 20
25.89248353995911
 30
0.0
 11
29.27325222908974
 21
26.1530887102416
 31
0.0
  0
LINE
  5
CA
330
1F
100
AcDbEntity
  8
0
100
AcDbLine
 10
-31.66616483783389
 20
-21.10982850886609
 30
0.0
 11
-31.93543806042453
 21
-21.13197084845148
 31
0.0
  0
LINE
  5
CB
330
1F
100
AcDbEntity
  8
0
100
AcDbLine
 10
-30.68419246585148
 20
-23.85238102697138
 30
0.0
 11
-30.49214709754652
 21
-23.66233629603063
 31
0.0
  0
LINE
  5
CC
330
1F
100
AcDbEntity
  8
0
100
AcDbLine
 10
-13.80658024960116
 20
-25.999344256559
 30
0.0
 11
-14.14312882271674
 21
-26.18729720122915
 31
0.0
  0
LINE
  5
CD
330
1F
100
AcDbEntity
  8
0
100
AcDbLine
 10
-12.20608377955011
 20
-23.47795808516246
 30
0.0
 11
-12.27506422910903
 21
-23.8572178885144
 31
0.0
  0
LINE
  5
CE
330
1F
100
AcDbEntity
  8
0
100
AcDbLine
 10
-24.85786111678258
 20
-29.65616040333166
 30
0.0
 11
-25.04990648508754
 21
-29.84620513427237
 31
0.0
  0
LINE
  5
CF
330
1F
100
AcDbEntity
  8
0
100
AcDbLine
 10
28.51619187981943
 20
25.08385302698936
 30
0.0
 11
28.73832138014852
 21
25.23766414978061
 31
0.0
  0
LINE
  5
D0
330
1F
100
AcDbEntity
  8
0
100
AcDbLine
 10
-22.87767718374537
 20
-32.04129424080051
 30
0.0
 11
-22.6856318154404
 21
-31.85124950985977
 31
0.0
  0
LINE
  5
D1
330
1F
100
AcDbEntity
  8
0
100
AcDbLine
 10
-12.94809787788363
 20
-25.23150510545968
 30
0.0
 11
-13.20541785548368
 21
-25.51852994692703
 31
0.0
  0
LINE
  5
D2
330
1F
100
AcDbEntity
  8
0
100
AcDbLine
 10
-22.34274824212661
 20
-31.12586967035266
 30
0.0
 11
-22.31779118018304
 21
-30.85684687665498
 31
0.0
  0
LINE
  5
D3
330
1F
100
AcDbEntity
  8
0
100
AcDbLine
 10
-33.19930148591524
 20
-22.38266415063399
 30
0.0
 11
-33.22425858780602
 21
-22.6516945736216
 31
0.0
  0
LINE
  5
D4
330
1F
100
AcDbEntity
  8
0
100
AcDbLine
 10
29.27325222908974
 20
26.1530887102416
 30
0.0
 11
29.2982093110069
 21
26.4221153185842
 31
0.0
  0
LINE
  5
D5
330
1F
100
AcDbEntity
  8
0
100
AcDbLine
 10
-33.01254287935954
 20
-21.87779097505561
 30
0.0
 11
-33.12800879380392
 21
-22.12206279499649
 31
0.0
  0
LINE
  5
D6
330
1F
100
AcDbEntity
  8
0
100
AcDbLine
 10
-31.93543806042453
 20
-21.13197084845148
 30
0.0
 11
-32.19677933806879
 21
-21.20053444510035
 31
0.0
  0
LINE
  5
D7
330
1F
100
AcDbEntity
  8
0
100
AcDbLine
 10
-30.89226507388654
 20
-21.32154801198391
 30
0.0
 11
-31.13652928451106
 21
-21.20608595213171
 31
0.0
  0
LINE
  5
D8
330
1F
100
AcDbEntity
  8
0
100
AcDbLine
 10
-14.8678068489982
 20
-26.44694936570583
 30
0.0
 11
-15.24714584088406
 21
-26.51549022305242
 31
0.0
  0
LINE
  5
D9
330
1F
100
AcDbEntity
  8
0
100
AcDbLine
 10
-25.21414717181598
 20
-31.61668597361061
 30
0.0
 11
-25.06033986366974
 21
-31.83881545396609
 31
0.0
  0
LINE
  5
DA
330
1F
100
AcDbEntity
  8
0
100
AcDbLine
 10
-24.12892659296337
 20
-29.32088404230699
 30
0.0
 11
-24.39026787060763
 21
-29.38944763895586
 31
0.0
  0
LINE
  5
DB
330
1F
100
AcDbEntity
  8
0
100
AcDbLine
 10
-9.58108290530389
 20
-14.76383798764291
 30
0.0
 11
-9.97490137510839
 21
-15.25687702615239
 31
0.0
  0
LINE
  5
DC
330
1F
100
AcDbEntity
  8
0
100
AcDbLine
 10
-14.49830730651958
 20
-26.33711191643861
 30
0.0
 11
-14.8678068489982
 21
-26.44694936570583
 31
0.0
  0
LINE
  5
DD
330
1F
100
AcDbEntity
  8
0
100
AcDbLine
 10
-24.14491151852417
 20
-32.37375204484837
 30
0.0
 11
-23.87588489020793
 21
-32.39870531212057
 31
0.0
  0
LINE
  5
DE
330
1F
100
AcDbEntity
  8
0
100
AcDbLine
 10
-30.21500093461494
 20
-22.1373154078669
 30
0.0
 11
-30.32790255622586
 21
-21.89184784737604
 31
0.0
  0
LINE
  5
DF
330
1F
100
AcDbEntity
  8
0
100
AcDbLine
 10
-31.68239635766908
 20
-24.20979211826507
 30
0.0
 11
-31.41312313507849
 21
-24.18764977867966
 31
0.0
  0
LINE
  5
E0
330
1F
100
AcDbEntity
  8
0
100
AcDbLine
 10
-17.19138352615286
 20
-27.10362307536749
 30
0.0
 11
-17.63749020688956
 21
-27.35103126891844
 31
0.0
  0
LINE
  5
E1
330
1F
100
AcDbEntity
  8
0
100
AcDbLine
 10
-22.86524316779894
 20
-29.6665938218611
 30
0.0
 11
-23.08574983172762
 21
-29.51046885510297
 31
0.0
  0
LINE
  5
E2
330
1F
100
AcDbEntity
  8
0
100
AcDbLine
 10
-22.67519843685819
 20
-29.85863919016604
 30
0.0
 11
-22.86524316779894
 21
-29.6665938218611
 31
0.0
  0
LINE
  5
E3
330
1F
100
AcDbEntity
  8
0
100
AcDbLine
 10
-13.4927399429388
 20
-25.77551294824725
 30
0.0
 11
-13.80658024960116
 21
-25.999344256559
 31
0.0
  0
LINE
  5
E4
330
1F
100
AcDbEntity
  8
0
100
AcDbLine
 10
-11.81754885434125
 20
-19.44124081659403
 30
0.0
 11
-11.97254989422313
 21
-20.24996485867724
 31
0.0
  0
LINE
  5
E5
330
1F
100
AcDbEntity
  8
0
100
AcDbLine
 10
-9.97490137510839
 20
-15.25687702615239
 30
0.0
 11
-10.33683896978893
 21
-15.77376495931073
 31
0.0
  0
LINE
  5
E6
330
1F
100
AcDbEntity
  8
0
100
AcDbLine
 10
-15.24714584088406
 20
-26.51549022305242
 30
0.0
 11
-15.75023431953198
 21
-26.59987047126671
 31
0.0
  0
LINE
  5
E7
330
1F
100
AcDbEntity
  8
0
100
AcDbLine
 10
-14.14312882271674
 20
-26.18729720122915
 30
0.0
 11
-14.49830730651958
 21
-26.33711191643861
 31
0.0
  0
LINE
  5
E8
330
1F
100
AcDbEntity
  8
0
100
AcDbLine
 10
-12.72390346692842
 20
-24.91792400940783
 30
0.0
 11
-12.94809787788363
 21
-25.23150510545968
 31
0.0
  0
LINE
  5
E9
330
1F
100
AcDbEntity
  8
0
100
AcDbLine
 10
28.28598074684396
 20
27.88395924459383
 30
0.0
 11
28.02537368921263
 21
27.9552557813105
 31
0.0
  0
LINE
  5
EA
330
1F
100
AcDbEntity
  8
0
100
AcDbLine
 10
-11.43899314325893
 20
-18.03749536542185
 30
0.0
 11
-11.62264515376664
 21
-18.64118682078097
 31
0.0
  0
LINE
  5
EB
330
1F
100
AcDbEntity
  8
0
100
AcDbLine
 10
-11.21763439120034
 20
-17.44658238794391
 30
0.0
 11
-11.43899314325893
 21
-18.03749536542185
 31
0.0
  0
LINE
  5
EC
330
1F
100
AcDbEntity
  8
0
100
AcDbLine
 10
-23.59062678200375
 20
-29.32370259928371
 30
0.0
 11
-23.85965341031999
 21
-29.29874933201152
 31
0.0
  0
LINE
  5
ED
330
1F
100
AcDbEntity
  8
0
100
AcDbLine
 10
-25.41774716029211
 20
-30.84061539676703
 30
0.0
 11
-25.39560861537803
 21
-31.10988478473909
 31
0.0
  0
LINE
  5
EE
330
1F
100
AcDbEntity
  8
0
100
AcDbLine
 10
-12.08726790651618
 20
-21.0653848983746
 30
0.0
 11
-12.16141769071248
 21
-21.88548824123987
 31
0.0
  0
LINE
  5
EF
330
1F
100
AcDbEntity
  8
0
100
AcDbLine
 10
-12.19482081641616
 20
-22.70825400427554
 30
0.0
 11
-12.17922485730063
 21
-23.09341937408075
 31
0.0
  0
LINE
  5
F0
330
1F
100
AcDbEntity
  8
0
100
AcDbLine
 10
29.08649362253406
 20
25.64821553466324
 30
0.0
 11
29.20195951700482
 21
25.89248353995911
 31
0.0
  0
LINE
  5
F1
330
1F
100
AcDbEntity
  8
0
100
AcDbLine
 10
28.93036674845349
 20
25.42770888072131
 30
0.0
 11
29.08649362253406
 21
25.64821553466324
 31
0.0
  0
LINE
  5
F2
330
1F
100
AcDbEntity
  8
0
100
AcDbLine
 10
-25.3927900584013
 20
-30.57158497377946
 30
0.0
 11
-25.41774716029211
 21
-30.84061539676703
 31
0.0
  0
LINE
  5
F3
330
1F
100
AcDbEntity
  8
0
100
AcDbLine
 10
-27.04264862401894
 20
-23.81028258578571
 30
0.0
 11
-26.90556639060957
 21
-24.20166885540052
 31
0.0
  0
LINE
  5
F4
330
1F
100
AcDbEntity
  8
0
100
AcDbLine
 10
26.22039090217708
 20
26.16907360084858
 30
0.0
 11
26.28895165781584
 21
25.90773615282952
 31
0.0
  0
LINE
  5
F5
330
1F
100
AcDbEntity
  8
0
100
AcDbLine
 10
-30.12430260769698
 20
-22.66792605350955
 30
0.0
 11
-30.21500093461494
 21
-22.1373154078669
 31
0.0
  0
LINE
  5
F6
330
1F
100
AcDbEntity
  8
0
100
AcDbLine
 10
29.20751100406257
 20
26.95272977887189
 30
0.0
 11
29.09460936247802
 21
27.19819352471774
 31
0.0
  0
LINE
  5
F7
330
1F
100
AcDbEntity
  8
0
100
AcDbLine
 10
-25.93252005302824
 20
-25.52708672993618
 30
0.0
 11
-25.60017696549835
 21
-25.7751223805912
 31
0.0
  0
LINE
  5
F8
330
1F
100
AcDbEntity
  8
0
100
AcDbLine
 10
-24.64978850874755
 20
-32.18699341831908
 30
0.0
 11
-24.40552048347802
 21
-32.30245549814485
 31
0.0
  0
LINE
  5
F9
330
1F
100
AcDbEntity
  8
0
100
AcDbLine
 10
-32.19677933806879
 20
-21.20053444510035
 30
0.0
 11
-32.44224306394104
 21
-21.31343227203994
 31
0.0
  0
LINE
  5
FA
330
1F
100
AcDbEntity
  8
0
100
AcDbLine
 10
-33.13356026088806
 20
-23.18230521926425
 30
0.0
 11
-33.02065863927714
 21
-23.4277727797551
 31
0.0
  0
LINE
  5
FB
330
1F
100
AcDbEntity
  8
0
100
AcDbLine
 10
-33.12800879380392
 20
-22.12206279499649
 30
0.0
 11
-33.19930148591524
 21
-22.38266415063399
 31
0.0
  0
LINE
  5
FC
330
1F
100
AcDbEntity
  8
0
100
AcDbLine
 10
28.5302487721135
 20
27.76849716476801
 30
0.0
 11
28.28598074684396
 21
27.88395924459383
 31
0.0
  0
LINE
  5
FD
330
1F
100
AcDbEntity
  8
0
100
AcDbLine
 10
-30.33601831614346
 20
-23.44182965207553
 30
0.0
 11
-30.22055240169907
 21
-23.19755783213465
 31
0.0
  0
LINE
  5
FE
330
1F
100
AcDbEntity
  8
0
100
AcDbLine
 10
-22.40848946715378
 20
-30.32622860172239
 30
0.0
 11
-22.52139112871195
 21
-30.08076867052146
 31
0.0
  0
LINE
  5
FF
330
1F
100
AcDbEntity
  8
0
100
AcDbLine
 10
-32.6643725442965
 20
-21.46723958018618
 30
0.0
 11
-32.85641791260147
 21
-21.65728431112694
 31
0.0
  0
LINE
  5
100
330
1F
100
AcDbEntity
  8
0
100
AcDbLine
 10
-32.45629993626146
 20
-23.99807259517361
 30
0.0
 11
-32.21203195093918
 21
-24.11354230428935
 31
0.0
  0
LINE
  5
101
330
1F
100
AcDbEntity
  8
0
100
AcDbLine
 10
-30.90632194620696
 20
-24.00618833511758
 30
0.0
 11
-30.68419246585148
 21
-23.85238102697138
 31
0.0
  0
LINE
  5
102
330
1F
100
AcDbEntity
  8
0
100
AcDbLine
 10
-26.4979762604025
 20
-24.92232634994448
 30
0.0
 11
-26.23319096580067
 21
-25.24148904279447
 31
0.0
  0
LINE
  5
103
330
1F
100
AcDbEntity
  8
0
100
AcDbLine
 10
27.21048094139958
 20
24.97650287745596
 30
0.0
 11
27.47108801900455
 21
24.90521015538428
 31
0.0
  0
LINE
  5
104
330
1F
100
AcDbEntity
  8
0
100
AcDbLine
 10
-27.13247572855714
 20
-23.4054335357993
 30
0.0
 11
-27.04264862401894
 21
-23.81028258578571
 31
0.0
  0
LINE
  5
105
330
1F
100
AcDbEntity
  8
0
100
AcDbLine
 10
26.40996808568311
 20
27.21225040203155
 30
0.0
 11
26.29450314487359
 21
26.96798239174226
 31
0.0
  0
LINE
  5
106
330
1F
100
AcDbEntity
  8
0
100
AcDbLine
 10
26.22320947912744
 20
26.70737722645323
 30
0.0
 11
26.19825237723663
 21
26.43834680346558
 31
0.0
  0
LINE
  5
107
330
1F
100
AcDbEntity
  8
0
100
AcDbLine
 10
-22.3399296851499
 20
-30.58756985939304
 30
0.0
 11
-22.40848946715378
 21
-30.32622860172239
 31
0.0
  0
LINE
  5
108
330
1F
100
AcDbEntity
  8
0
100
AcDbLine
 10
-24.05268480354834
 20
-26.33084766259477
 30
0.0
 11
-23.6384737037546
 21
-26.3509076620852
 31
0.0
  0
LINE
  5
109
330
1F
100
AcDbEntity
  8
0
100
AcDbLine
 10
-21.68977097342172
 20
-25.73256248391419
 30
0.0
 11
-21.36290302140688
 21
-25.47735059346731
 31
0.0
  0
LINE
  5
10A
330
1F
100
AcDbEntity
  8
0
100
AcDbLine
 10
-23.3452704299203
 20
-32.30800700517623
 30
0.0
 11
-23.09980670404806
 21
-32.19510917823667
 31
0.0
  0
LINE
  5
10B
330
1F
100
AcDbEntity
  8
0
100
AcDbLine
 10
-30.49214709754652
 20
-23.66233629603063
 30
0.0
 11
-30.33601831614346
 21
-23.44182965207553
 31
0.0
  0
LINE
  5
10C
330
1F
100
AcDbEntity
  8
0
100
AcDbLine
 10
29.27607080604007
 20
26.69139233584625
 30
0.0
 11
29.20751100406257
 21
26.95272977887189
 31
0.0
  0
LINE
  5
10D
330
1F
100
AcDbEntity
  8
0
100
AcDbLine
 10
-22.31779118018304
 20
-30.85684687665498
 30
0.0
 11
-22.3399296851499
 21
-30.58756985939304
 31
0.0
  0
LINE
  5
10E
330
1F
100
AcDbEntity
  8
0
100
AcDbLine
 10
-32.85641791260147
 20
-21.65728431112694
 30
0.0
 11
-33.01254287935954
 21
-21.87779097505561
 31
0.0
  0
LINE
  5
10F
330
1F
100
AcDbEntity
  8
0
100
AcDbLine
 10
-22.52950684868231
 20
-31.63074284593104
 30
0.0
 11
-22.41404097418515
 21
-31.38647865528008
 31
0.0
  0
LINE
  5
110
330
1F
100
AcDbEntity
  8
0
100
AcDbLine
 10
29.2982093110069
 20
26.4221153185842
 30
0.0
 11
29.27607080604007
 21
26.69139233584625
 31
0.0
  0
LINE
  5
111
330
1F
100
AcDbEntity
  8
0
100
AcDbLine
 10
-32.44224306394104
 20
-21.31343227203994
 30
0.0
 11
-32.6643725442965
 21
-21.46723958018618
 31
0.0
  0
LINE
  5
112
330
1F
100
AcDbEntity
  8
0
100
AcDbLine
 10
-27.00430781966381
 20
-21.76618956985891
 30
0.0
 11
-27.10925414967299
 21
-22.16738660201243
 31
0.0
  0
LINE
  5
113
330
1F
100
AcDbEntity
  8
0
100
AcDbLine
 10
28.00938878362542
 20
24.90239159341414
 30
0.0
 11
28.27072813397357
 21
24.97095138540481
 31
0.0
  0
LINE
  5
114
330
1F
100
AcDbEntity
  8
0
100
AcDbLine
 10
26.28895165781584
 20
25.90773615282952
 30
0.0
 11
26.40185234573913
 21
25.66227241197705
 31
0.0
  0
LINE
  5
115
330
1F
100
AcDbEntity
  8
0
100
AcDbLine
 10
-25.48917034793008
 20
-19.85682212662638
 30
0.0
 11
-25.83057937850892
 21
-20.09222036525892
 31
0.0
  0
LINE
  5
116
330
1F
100
AcDbEntity
  8
0
100
AcDbLine
 10
-32.8668513311309
 20
-23.64990226011058
 30
0.0
 11
-32.67680660019017
 21
-23.84194762841556
 31
0.0
  0
LINE
  5
117
330
1F
100
AcDbEntity
  8
0
100
AcDbLine
 10
-22.6856318154404
 20
-31.85124950985977
 30
0.0
 11
-22.52950684868231
 21
-31.63074284593104
 31
0.0
  0
LINE
  5
118
330
1F
100
AcDbEntity
  8
0
100
AcDbLine
 10
29.09460936247802
 20
27.19819352471774
 30
0.0
 11
28.9408001470093
 21
27.42032301505999
 31
0.0
  0
LINE
  5
119
330
1F
100
AcDbEntity
  8
0
100
AcDbLine
 10
-30.67175840995781
 20
-21.477672978742
 30
0.0
 11
-30.89226507388654
 21
-21.32154801198391
 31
0.0
  0
LINE
  5
11A
330
1F
100
AcDbEntity
  8
0
100
AcDbLine
 10
-23.87588489020793
 20
-32.39870531212057
 30
0.0
 11
-23.60661170756455
 21
-32.37657060182509
 31
0.0
  0
LINE
  5
11B
330
1F
100
AcDbEntity
  8
0
100
AcDbLine
 10
-33.02065863927714
 20
-23.4277727797551
 30
0.0
 11
-32.8668513311309
 21
-23.64990226011058
 31
0.0
  0
LINE
  5
11C
330
1F
100
AcDbEntity
  8
0
100
AcDbLine
 10
-31.41312313507849
 20
-24.18764977867966
 30
0.0
 11
-31.15178189738146
 21
-24.11909381132072
 31
0.0
  0
LINE
  5
11D
330
1F
100
AcDbEntity
  8
0
100
AcDbLine
 10
-26.90556639060957
 20
-24.20166885540052
 30
0.0
 11
-26.72315336454763
 21
-24.57408902938847
 31
0.0
  0
LINE
  5
11E
330
1F
100
AcDbEntity
  8
0
100
AcDbLine
 10
27.48707292459174
 20
27.95807434328063
 30
0.0
 11
27.22573355426999
 21
27.88951073664496
 31
0.0
  0
LINE
  5
11F
330
1F
100
AcDbEntity
  8
0
100
AcDbLine
 10
-26.41831935949165
 20
-20.67535550225698
 30
0.0
 11
-26.65639423625251
 21
-21.0148957706744
 31
0.0
  0
LINE
  5
120
330
1F
100
AcDbEntity
  8
0
100
AcDbLine
 10
-32.21203195093918
 20
-24.11354230428935
 30
0.0
 11
-31.95142294603811
 21
-24.18483122170294
 31
0.0
  0
LINE
  5
121
330
1F
100
AcDbEntity
  8
0
100
AcDbLine
 10
28.75075541606858
 20
27.61236838336498
 30
0.0
 11
28.5302487721135
 21
27.76849716476801
 31
0.0
  0
LINE
  5
122
330
1F
100
AcDbEntity
  8
0
100
AcDbLine
 10
-24.87029513272901
 20
-32.03086082227107
 30
0.0
 11
-24.64978850874755
 21
-32.18699341831908
 31
0.0
  0
LINE
  5
123
330
1F
100
AcDbEntity
  8
0
100
AcDbLine
 10
-30.22055240169907
 20
-23.19755783213465
 30
0.0
 11
-30.14925970958778
 21
-22.93695647649715
 31
0.0
  0
LINE
  5
124
330
1F
100
AcDbEntity
  8
0
100
AcDbLine
 10
-31.13652928451106
 20
-21.20608595213171
 30
0.0
 11
-31.39713824946491
 21
-21.13478940542821
 31
0.0
  0
LINE
  5
125
330
1F
100
AcDbEntity
  8
0
100
AcDbLine
 10
28.9408001470093
 20
27.42032301505999
 30
0.0
 11
28.75075541606858
 21
27.61236838336498
 31
0.0
  0
LINE
  5
126
330
1F
100
AcDbEntity
  8
0
100
AcDbLine
 10
-23.60661170756455
 20
-32.37657060182509
 30
0.0
 11
-23.3452704299203
 21
-32.30800700517623
 31
0.0
  0
LINE
  5
127
330
1F
100
AcDbEntity
  8
0
100
AcDbLine
 10
27.22573355426999
 20
27.88951073664496
 30
0.0
 11
26.98026982839772
 21
27.77661290970543
 31
0.0
  0
LINE
  5
128
330
1F
100
AcDbEntity
  8
0
100
AcDbLine
 10
28.27072813397357
 20
24.97095138540481
 30
0.0
 11
28.51619187981943
 21
25.08385302698936
 31
0.0
  0
LINE
  5
129
330
1F
100
AcDbEntity
  8
0
100
AcDbLine
 10
27.47108801900455
 20
24.90521015538428
 30
0.0
 11
27.74011558100842
 21
24.8802530684737
 31
0.0
  0
LINE
  5
12A
330
1F
100
AcDbEntity
  8
0
100
AcDbLine
 10
28.02537368921263
 20
27.9552557813105
 30
0.0
 11
27.75634708086999
 21
27.98021286322766
 31
0.0
  0
LINE
  5
12B
330
1F
100
AcDbEntity
  8
0
100
AcDbLine
 10
-30.48171367901709
 20
-21.669718347047
 30
0.0
 11
-30.67175840995781
 21
-21.477672978742
 31
0.0
  0
LINE
  5
12C
330
1F
100
AcDbEntity
  8
0
100
AcDbLine
 10
-25.60017696549835
 20
-25.7751223805912
 30
0.0
 11
-25.24083180578792
 21
-25.98211537883743
 31
0.0
  0
LINE
  5
12D
330
1F
100
AcDbEntity
  8
0
100
AcDbLine
 10
-31.95142294603811
 20
-24.18483122170294
 30
0.0
 11
-31.68239635766908
 21
-24.20979211826507
 31
0.0
  0
LINE
  5
12E
330
1F
100
AcDbEntity
  8
0
100
AcDbLine
 10
-30.14925970958778
 20
-22.93695647649715
 30
0.0
 11
-30.12430260769698
 21
-22.66792605350955
 31
0.0
  0
LINE
  5
12F
330
1F
100
AcDbEntity
  8
0
100
AcDbLine
 10
-22.04452274443894
 20
-25.94732172986988
 30
0.0
 11
-21.68977097342172
 21
-25.73256248391419
 31
0.0
  0
LINE
  5
130
330
1F
100
AcDbEntity
  8
0
100
AcDbLine
 10
-22.41404097418515
 20
-31.38647865528008
 30
0.0
 11
-22.34274824212661
 21
-31.12586967035266
 31
0.0
  0
LINE
  5
131
330
1F
100
AcDbEntity
  8
0
100
AcDbLine
 10
-30.32790255622586
 20
-21.89184784737604
 30
0.0
 11
-30.48171367901709
 21
-21.669718347047
 31
0.0
  0
LINE
  5
132
330
1F
100
AcDbEntity
  8
0
100
AcDbLine
 10
-31.15178189738146
 20
-24.11909381132072
 30
0.0
 11
-30.90632194620696
 21
-24.00618833511758
 31
0.0
  0
LINE
  5
133
330
1F
100
AcDbEntity
  8
0
100
AcDbLine
 10
-27.16601704398354
 20
-22.57818206076621
 30
0.0
 11
-27.17379188960957
 21
-22.99280462827272
 31
0.0
  0
LINE
  5
134
330
1F
100
AcDbEntity
  8
0
100
AcDbLine
 10
-26.8526456961172
 20
-21.3802214795247
 30
0.0
 11
-27.00430781966381
 21
-21.76618956985891
 31
0.0
  0
LINE
  5
135
330
1F
100
AcDbEntity
  8
0
100
AcDbLine
 10
27.74011558100842
 20
24.8802530684737
 30
0.0
 11
28.00938878362542
 21
24.90239159341414
 31
0.0
  0
LINE
  5
136
330
1F
100
AcDbEntity
  8
0
100
AcDbLine
 10
-27.17379188960957
 20
-22.99280462827272
 30
0.0
 11
-27.13247572855714
 21
-23.4054335357993
 31
0.0
  0
LINE
  5
137
330
1F
100
AcDbEntity
  8
0
100
AcDbLine
 10
-28.53736361004364
 20
-31.62856751161621
 30
0.0
 11
-28.31342129266569
 21
-31.42433107690294
 31
0.0
  0
LINE
  5
138
330
1F
100
AcDbEntity
  8
0
100
AcDbLine
 10
-31.35970445412173
 20
-26.60558804870669
 30
0.0
 11
-31.65814444579704
 21
-26.65890439341497
 31
0.0
  0
LINE
  5
139
330
1F
100
AcDbEntity
  8
0
100
AcDbLine
 10
-27.76920810387099
 20
-30.0471644261984
 30
0.0
 11
-27.79304750683709
 21
-29.7450106207885
 31
0.0
  0
LINE
  5
13A
330
1F
100
AcDbEntity
  8
0
100
AcDbLine
 10
-17.01711444334516
 20
-22.26020035071352
 30
0.0
 11
-17.13258031784232
 21
-22.50446454136447
 31
0.0
  0
LINE
  5
13B
330
1F
100
AcDbEntity
  8
0
100
AcDbLine
 10
-16.86098947658706
 20
-22.03969368678485
 30
0.0
 11
-17.01711444334516
 21
-22.26020035071352
 31
0.0
  0
LINE
  5
13C
330
1F
100
AcDbEntity
  8
0
100
AcDbLine
 10
-23.6384737037546
 20
-26.3509076620852
 30
0.0
 11
-23.22479882987701
 21
-26.3218385090791
 31
0.0
  0
LINE
  5
13D
330
1F
100
AcDbEntity
  8
0
100
AcDbLine
 10
-26.14175333004881
 20
-20.36635166336488
 30
0.0
 11
-26.41831935949165
 21
-20.67535550225698
 31
0.0
  0
LINE
  5
13E
330
1F
100
AcDbEntity
  8
0
100
AcDbLine
 10
26.56609495976369
 20
27.43275705597349
 30
0.0
 11
26.40996808568311
 21
27.21225040203155
 31
0.0
  0
LINE
  5
13F
330
1F
100
AcDbEntity
  8
0
100
AcDbLine
 10
-23.50725621051455
 20
-19.35500833556121
 30
0.0
 11
-23.92192785446124
 21
-19.35952054129318
 31
0.0
  0
LINE
  5
140
330
1F
100
AcDbEntity
  8
0
100
AcDbLine
 10
-21.58310961655229
 20
-20.04599314311277
 30
0.0
 11
-21.92956200611221
 21
-19.81807889980611
 31
0.0
  0
LINE
  5
141
330
1F
100
AcDbEntity
  8
0
100
AcDbLine
 10
-30.18885875722081
 20
-26.84603581527007
 30
0.0
 11
-30.46440756562162
 21
-26.71961420690296
 31
0.0
  0
LINE
  5
142
330
1F
100
AcDbEntity
  8
0
100
AcDbLine
 10
-32.45858684198234
 20
-27.07585397015151
 30
0.0
 11
-32.67332572342756
 21
-27.28985857625492
 31
0.0
  0
LINE
  5
143
330
1F
100
AcDbEntity
  8
0
100
AcDbLine
 10
-17.20387304990083
 20
-22.76507352629194
 30
0.0
 11
-17.22883015179162
 21
-23.03410394927951
 31
0.0
  0
LINE
  5
144
330
1F
100
AcDbEntity
  8
0
100
AcDbLine
 10
-32.85324805353453
 20
-27.53386156560036
 30
0.0
 11
-32.99422742254184
 21
-27.80225397386986
 31
0.0
  0
LINE
  5
145
330
1F
100
AcDbEntity
  8
0
100
AcDbLine
 10
-29.06433063975644
 20
-31.92461762630637
 30
0.0
 11
-28.78960117071512
 21
-31.79661403761105
 31
0.0
  0
LINE
  5
146
330
1F
100
AcDbEntity
  8
0
100
AcDbLine
 10
-17.13258031784232
 20
-22.50446454136447
 30
0.0
 11
-17.20387304990083
 21
-22.76507352629194
 31
0.0
  0
LINE
  5
147
330
1F
100
AcDbEntity
  8
0
100
AcDbLine
 10
-33.1516216216456
 20
-32.75453119539252
 30
0.0
 11
-32.98239430712765
 21
-32.76231434283635
 31
0.0
  0
LINE
  5
148
330
1F
100
AcDbEntity
  8
0
100
AcDbLine
 10
26.98026982839772
 20
27.77661290970543
 30
0.0
 11
26.75814128172991
 21
27.62280178192079
 31
0.0
  0
LINE
  5
149
330
1F
100
AcDbEntity
  8
0
100
AcDbLine
 10
-20.53325210083207
 20
-21.31144097721874
 30
0.0
 11
-20.73740435423894
 21
-20.95048092601913
 31
0.0
  0
LINE
  5
14A
330
1F
100
AcDbEntity
  8
0
100
AcDbLine
 10
-26.23319096580067
 20
-25.24148904279447
 30
0.0
 11
-25.93252005302824
 21
-25.52708672993618
 31
0.0
  0
LINE
  5
14B
330
1F
100
AcDbEntity
  8
0
100
AcDbLine
 10
-24.73516451642044
 20
-19.51484100865495
 30
0.0
 11
-25.12231577616966
 21
-19.6634583308906
 31
0.0
  0
LINE
  5
14C
330
1F
100
AcDbEntity
  8
0
100
AcDbLine
 10
-24.33315583391807
 20
-19.41304742148856
 30
0.0
 11
-24.73516451642044
 21
-19.51484100865495
 31
0.0
  0
LINE
  5
14D
330
1F
100
AcDbEntity
  8
0
100
AcDbLine
 10
-20.98281925452501
 20
-20.61619117701092
 30
0.0
 11
-21.26604241302222
 21
-20.31328195945157
 31
0.0
  0
LINE
  5
14E
330
1F
100
AcDbEntity
  8
0
100
AcDbLine
 10
-17.22883015179162
 20
-23.03410394927951
 30
0.0
 11
-17.20669160687755
 21
-23.30337333725157
 31
0.0
  0
LINE
  5
14F
330
1F
100
AcDbEntity
  8
0
100
AcDbLine
 10
-34.01751876326455
 20
-31.67672516868988
 30
0.0
 11
-34.01779926304058
 21
-31.84613672782134
 31
0.0
  0
LINE
  5
150
330
1F
100
AcDbEntity
  8
0
100
AcDbLine
 10
-27.79304750683709
 20
-29.7450106207885
 30
0.0
 11
-27.86226990401468
 21
-29.44993587805589
 31
0.0
  0
LINE
  5
151
330
1F
100
AcDbEntity
  8
0
100
AcDbLine
 10
-28.12950020949914
 20
-28.90778827141956
 30
0.0
 11
-28.32137431387156
 21
-28.67316071939102
 31
0.0
  0
LINE
  5
152
330
1F
100
AcDbEntity
  8
0
100
AcDbLine
 10
-32.99422742254184
 20
-27.80225397386986
 30
0.0
 11
-33.09301568752924
 21
-28.08886528467344
 31
0.0
  0
LINE
  5
153
330
1F
100
AcDbEntity
  8
0
100
AcDbLine
 10
27.75634708086999
 20
27.98021286322766
 30
0.0
 11
27.48707292459174
 21
27.95807434328063
 31
0.0
  0
LINE
  5
154
330
1F
100
AcDbEntity
  8
0
100
AcDbLine
 10
26.19825237723663
 20
26.43834680346558
 30
0.0
 11
26.22039090217708
 21
26.16907360084858
 31
0.0
  0
LINE
  5
155
330
1F
100
AcDbEntity
  8
0
100
AcDbLine
 10
-25.24083180578792
 20
-25.98211537883743
 30
0.0
 11
-24.85952765313185
 21
-26.14514773876782
 31
0.0
  0
LINE
  5
156
330
1F
100
AcDbEntity
  8
0
100
AcDbLine
 10
26.29450314487359
 20
26.96798239174226
 30
0.0
 11
26.22320947912744
 21
26.70737722645323
 31
0.0
  0
LINE
  5
157
330
1F
100
AcDbEntity
  8
0
100
AcDbLine
 10
-25.83057937850892
 20
-20.09222036525892
 30
0.0
 11
-26.14175333004881
 21
-20.36635166336488
 31
0.0
  0
LINE
  5
158
330
1F
100
AcDbEntity
  8
0
100
AcDbLine
 10
-21.92956200611221
 20
-19.81807889980611
 30
0.0
 11
-22.30053730877594
 21
-19.63274618969644
 31
0.0
  0
LINE
  5
159
330
1F
100
AcDbEntity
  8
0
100
AcDbLine
 10
-33.61810990110015
 20
-32.56541769131631
 30
0.0
 11
-33.47410874933394
 21
-32.65465098770553
 31
0.0
  0
LINE
  5
15A
330
1F
100
AcDbEntity
  8
0
100
AcDbLine
 10
-22.69083051248861
 20
-19.49258577811466
 30
0.0
 11
-23.50725621051455
 21
-19.35500833556121
 31
0.0
  0
LINE
  5
15B
330
1F
100
AcDbEntity
  8
0
100
AcDbLine
 10
26.40185234573913
 20
25.66227241197705
 30
0.0
 11
26.55566156120786
 21
25.44014292163478
 31
0.0
  0
LINE
  5
15C
330
1F
100
AcDbEntity
  8
0
100
AcDbLine
 10
26.96621293610369
 20
25.09196877192676
 30
0.0
 11
27.21048094139958
 21
24.97650287745596
 31
0.0
  0
LINE
  5
15D
330
1F
100
AcDbEntity
  8
0
100
AcDbLine
 10
-22.30053730877594
 20
-19.63274618969644
 30
0.0
 11
-22.69083051248861
 21
-19.49258577811466
 31
0.0
  0
LINE
  5
15E
330
1F
100
AcDbEntity
  8
0
100
AcDbLine
 10
26.55566156120786
 20
25.44014292163478
 30
0.0
 11
26.74570724580985
 21
25.24809754833644
 31
0.0
  0
LINE
  5
15F
330
1F
100
AcDbEntity
  8
0
100
AcDbLine
 10
-22.42219102628231
 20
-26.11861779968923
 30
0.0
 11
-22.04452274443894
 21
-25.94732172986988
 31
0.0
  0
LINE
  5
160
330
1F
100
AcDbEntity
  8
0
100
AcDbLine
 10
-21.36290302140688
 20
-25.47735059346731
 30
0.0
 11
-21.06851921199786
 21
-25.18527835365132
 31
0.0
  0
LINE
  5
161
330
1F
100
AcDbEntity
  8
0
100
AcDbLine
 10
-26.72315336454763
 20
-24.57408902938847
 30
0.0
 11
-26.4979762604025
 21
-24.92232634994448
 31
0.0
  0
LINE
  5
162
330
1F
100
AcDbEntity
  8
0
100
AcDbLine
 10
-24.85952765313185
 20
-26.14514773876782
 30
0.0
 11
-24.05268480354834
 21
-26.33084766259477
 31
0.0
  0
LINE
  5
163
330
1F
100
AcDbEntity
  8
0
100
AcDbLine
 10
26.74570724580985
 20
25.24809754833644
 30
0.0
 11
26.96621293610369
 21
25.09196877192676
 31
0.0
  0
LINE
  5
164
330
1F
100
AcDbEntity
  8
0
100
AcDbLine
 10
-33.09301568752924
 20
-28.08886528467344
 30
0.0
 11
-33.98864827932181
 21
-31.50979793446253
 31
0.0
  0
LINE
  5
165
330
1F
100
AcDbEntity
  8
0
100
AcDbLine
 10
-27.86226990401468
 20
-29.44993587805589
 30
0.0
 11
-27.97528564989368
 21
-29.16870825765645
 31
0.0
  0
LINE
  5
166
330
1F
100
AcDbEntity
  8
0
100
AcDbLine
 10
26.75814128172991
 20
27.62280178192079
 30
0.0
 11
26.56609495976369
 21
27.43275705597349
 31
0.0
  0
LINE
  5
167
330
1F
100
AcDbEntity
  8
0
100
AcDbLine
 10
-23.92192785446124
 20
-19.35952054129318
 30
0.0
 11
-24.33315583391807
 21
-19.41304742148856
 31
0.0
  0
LINE
  5
168
330
1F
100
AcDbEntity
  8
0
100
AcDbLine
 10
-28.78960117071512
 20
-31.79661403761105
 30
0.0
 11
-28.53736361004364
 21
-31.62856751161621
 31
0.0
  0
LINE
  5
169
330
1F
100
AcDbEntity
  8
0
100
AcDbLine
 10
-23.22479882987701
 20
-26.3218385090791
 30
0.0
 11
-22.81746453391444
 21
-26.24404469323229
 31
0.0
  0
LINE
  5
16A
330
1F
100
AcDbEntity
  8
0
100
AcDbLine
 10
-22.81746453391444
 20
-26.24404469323229
 30
0.0
 11
-22.42219102628231
 21
-26.11861779968923
 31
0.0
  0
LINE
  5
16B
330
1F
100
AcDbEntity
  8
0
100
AcDbLine
 10
-26.65639423625251
 20
-21.0148957706744
 30
0.0
 11
-26.8526456961172
 21
-21.3802214795247
 31
0.0
  0
LINE
  5
16C
330
1F
100
AcDbEntity
  8
0
100
AcDbLine
 10
-27.10925414967299
 20
-22.16738660201243
 30
0.0
 11
-27.16601704398354
 21
-22.57818206076621
 31
0.0
  0
LINE
  5
16D
330
1F
100
AcDbEntity
  8
0
100
AcDbLine
 10
-21.06851921199786
 20
-25.18527835365132
 30
0.0
 11
-20.81074178015424
 21
-24.86042885082081
 31
0.0
  0
LINE
  5
16E
330
1F
100
AcDbEntity
  8
0
100
AcDbLine
 10
-27.97528564989368
 20
-29.16870825765645
 30
0.0
 11
-28.12950020949914
 21
-28.90778827141956
 31
0.0
  0
LINE
  5
16F
330
1F
100
AcDbEntity
  8
0
100
AcDbLine
 10
-25.12231577616966
 20
-19.6634583308906
 30
0.0
 11
-25.48917034793008
 21
-19.85682212662638
 31
0.0
  0
LINE
  5
170
330
1F
100
AcDbEntity
  8
0
100
AcDbLine
 10
-21.26604241302222
 20
-20.31328195945157
 30
0.0
 11
-21.58310961655229
 21
-20.04599314311277
 31
0.0
  0
LINE
  5
171
330
1F
100
AcDbEntity
  8
0
100
AcDbLine
 10
-27.85881451345912
 20
-30.64491663991894
 30
0.0
 11
-27.79129894386746
 21
-30.34944395517826
 31
0.0
  0
LINE
  5
172
330
1F
100
AcDbEntity
  8
0
100
AcDbLine
 10
-27.97020480560564
 20
-30.92679271260149
 30
0.0
 11
-27.85881451345912
 21
-30.64491663991894
 31
0.0
  0
LINE
  5
173
330
1F
100
AcDbEntity
  8
0
100
AcDbLine
 10
-32.98239430712765
 20
-32.76231434283635
 30
0.0
 11
-32.8142794784444
 21
-32.74141237809321
 31
0.0
  0
LINE
  5
174
330
1F
100
AcDbEntity
  8
0
100
AcDbLine
 10
-31.05663625938928
 20
-26.59799663713046
 30
0.0
 11
-31.35970445412173
 21
-26.60558804870669
 31
0.0
  0
LINE
  5
175
330
1F
100
AcDbEntity
  8
0
100
AcDbLine
 10
-20.20940940904253
 20
-23.33008627400057
 30
0.0
 11
-20.17708143173489
 21
-22.91665276794274
 31
0.0
  0
LINE
  5
176
330
1F
100
AcDbEntity
  8
0
100
AcDbLine
 10
-32.67332572342756
 20
-27.28985857625492
 30
0.0
 11
-32.85324805353453
 21
-27.53386156560036
 31
0.0
  0
LINE
  5
177
330
1F
100
AcDbEntity
  8
0
100
AcDbLine
 10
-29.3552499028281
 20
-32.00963577114277
 30
0.0
 11
-29.06433063975644
 21
-31.92461762630637
 31
0.0
  0
LINE
  5
178
330
1F
100
AcDbEntity
  8
0
100
AcDbLine
 10
-32.8142794784444
 20
-32.74141237809321
 30
0.0
 11
-29.3552499028281
 21
-32.00963577114277
 31
0.0
  0
LINE
  5
179
330
1F
100
AcDbEntity
  8
0
100
AcDbLine
 10
32.25792814087902
 20
32.73110295023682
 30
0.0
 11
32.28537451367274
 21
32.76515466393138
 31
0.0
  0
LINE
  5
17A
330
1F
100
AcDbEntity
  8
0
100
AcDbLine
 10
-20.37322381537601
 20
-21.69402087921515
 30
0.0
 11
-20.53325210083207
 21
-21.31144097721874
 31
0.0
  0
LINE
  5
17B
330
1F
100
AcDbEntity
  8
0
100
AcDbLine
 10
-28.32137431387156
 20
-28.67316071939102
 30
0.0
 11
-29.71039876206732
 21
-27.21563439873652
 31
0.0
  0
LINE
  5
17C
330
1F
100
AcDbEntity
  8
0
100
AcDbLine
 10
32.50366337059086
 20
33.03597653745684
 30
0.0
 11
32.81993161524592
 21
33.26686201714055
 31
0.0
  0
LINE
  5
17D
330
1F
100
AcDbEntity
  8
0
100
AcDbLine
 10
-28.12290675554006
 20
-31.18860051927691
 30
0.0
 11
-27.97020480560564
 21
-30.92679271260149
 31
0.0
  0
LINE
  5
17E
330
1F
100
AcDbEntity
  8
0
100
AcDbLine
 10
-17.02523016331549
 20
-23.81017452612309
 30
0.0
 11
-16.87142285516925
 21
-24.03230400647853
 31
0.0
  0
LINE
  5
17F
330
1F
100
AcDbEntity
  8
0
100
AcDbLine
 10
-20.19388260629207
 20
-22.50229825347343
 30
0.0
 11
-20.25956871806796
 21
-22.09283768763461
 31
0.0
  0
LINE
  5
180
330
1F
100
AcDbEntity
  8
0
100
AcDbLine
 10
-33.93336609262099
 20
-32.17300694252341
 30
0.0
 11
-33.85108288645578
 21
-32.32108384718515
 31
0.0
  0
LINE
  5
181
330
1F
100
AcDbEntity
  8
0
100
AcDbLine
 10
-29.71039876206732
 20
-27.21563439873652
 30
0.0
 11
-29.93558108194497
 21
-27.01264745501327
 31
0.0
  0
LINE
  5
182
330
1F
100
AcDbEntity
  8
0
100
AcDbLine
 10
32.04792934309732
 20
32.11668113652003
 30
0.0
 11
32.09947363625307
 21
32.37301800723449
 31
0.0
  0
LINE
  5
183
330
1F
100
AcDbEntity
  8
0
100
AcDbLine
 10
-14.21957245865331
 20
-22.51971715423488
 30
0.0
 11
-14.33247412021148
 21
-22.27425722303395
 31
0.0
  0
LINE
  5
184
330
1F
100
AcDbEntity
  8
0
100
AcDbLine
 10
-33.47410874933394
 20
-32.65465098770553
 30
0.0
 11
-33.31711031211299
 21
-32.71830196232105
 31
0.0
  0
LINE
  5
185
330
1F
100
AcDbEntity
  8
0
100
AcDbLine
 10
-15.95599451002372
 20
-24.56724059736084
 30
0.0
 11
-15.68696788170748
 21
-24.59219386463304
 31
0.0
  0
LINE
  5
186
330
1F
100
AcDbEntity
  8
0
100
AcDbLine
 10
34.21660563547427
 20
30.61790808759399
 30
0.0
 11
34.13992412214508
 21
30.57604713765149
 31
0.0
  0
LINE
  5
187
330
1F
100
AcDbEntity
  8
0
100
AcDbLine
 10
-20.25956871806796
 20
-22.09283768763461
 30
0.0
 11
-20.37322381537601
 21
-21.69402087921515
 31
0.0
  0
LINE
  5
188
330
1F
100
AcDbEntity
  8
0
100
AcDbLine
 10
33.5028193799107
 20
30.45069820480628
 30
0.0
 11
33.4596152480756
 21
30.45744024582607
 31
0.0
  0
LINE
  5
189
330
1F
100
AcDbEntity
  8
0
100
AcDbLine
 10
-20.41893610219505
 20
-24.131070797187
 30
0.0
 11
-20.29040508348786
 21
-23.73679513901429
 31
0.0
  0
LINE
  5
18A
330
1F
100
AcDbEntity
  8
0
100
AcDbLine
 10
-31.65814444579704
 20
-26.65890439341497
 30
0.0
 11
-31.94509846085265
 21
-26.75670745244974
 31
0.0
  0
LINE
  5
18B
330
1F
100
AcDbEntity
  8
0
100
AcDbLine
 10
-34.01779926304058
 20
-31.84613672782134
 30
0.0
 11
-33.98947569630239
 21
-32.01315743565841
 31
0.0
  0
LINE
  5
18C
330
1F
100
AcDbEntity
  8
0
100
AcDbLine
 10
-27.79129894386746
 20
-30.34944395517826
 30
0.0
 11
-27.76920810387099
 21
-30.0471644261984
 31
0.0
  0
LINE
  5
18D
330
1F
100
AcDbEntity
  8
0
100
AcDbLine
 10
-20.73740435423894
 20
-20.95048092601913
 30
0.0
 11
-20.98281925452501
 21
-20.61619117701092
 31
0.0
  0
LINE
  5
18E
330
1F
100
AcDbEntity
  8
0
100
AcDbLine
 10
-14.89683278327991
 20
-21.70394977832552
 30
0.0
 11
-15.40170977350325
 21
-21.5171911517962
 31
0.0
  0
LINE
  5
18F
330
1F
100
AcDbEntity
  8
0
100
AcDbLine
 10
-14.6887601752449
 20
-24.23478279331295
 30
0.0
 11
-14.49671480693991
 21
-24.04473806237219
 31
0.0
  0
LINE
  5
190
330
1F
100
AcDbEntity
  8
0
100
AcDbLine
 10
-14.49671480693991
 20
-24.04473806237219
 30
0.0
 11
-14.34058984018182
 21
-23.82423139844352
 31
0.0
  0
LINE
  5
191
330
1F
100
AcDbEntity
  8
0
100
AcDbLine
 10
-15.15635342141983
 20
-24.5014955576887
 30
0.0
 11
-14.91088969554759
 21
-24.3885977307491
 31
0.0
  0
LINE
  5
192
330
1F
100
AcDbEntity
  8
0
100
AcDbLine
 10
-16.44681077333443
 20
-21.69583403838154
 30
0.0
 11
-16.66894029363711
 21
-21.84964897581771
 31
0.0
  0
LINE
  5
193
330
1F
100
AcDbEntity
  8
0
100
AcDbLine
 10
-30.75589885260883
 20
-26.63629971763774
 30
0.0
 11
-31.05663625938928
 21
-26.59799663713046
 31
0.0
  0
LINE
  5
194
330
1F
100
AcDbEntity
  8
0
100
AcDbLine
 10
-31.94509846085265
 20
-26.75670745244974
 30
0.0
 11
-32.21397437237871
 21
-26.89676578118521
 31
0.0
  0
LINE
  5
195
330
1F
100
AcDbEntity
  8
0
100
AcDbLine
 10
32.2402303830085
 20
32.69110826169381
 30
0.0
 11
32.19474779563861
 21
32.61650671527703
 31
0.0
  0
LINE
  5
196
330
1F
100
AcDbEntity
  8
0
100
AcDbLine
 10
-15.67073640181952
 20
-21.49223788452399
 30
0.0
 11
-15.94000958446289
 21
-21.51437259481948
 31
0.0
  0
LINE
  5
197
330
1F
100
AcDbEntity
  8
0
100
AcDbLine
 10
-17.13813182487367
 20
-23.56471459492216
 30
0.0
 11
-17.02523016331549
 21
-23.81017452612309
 31
0.0
  0
LINE
  5
198
330
1F
100
AcDbEntity
  8
0
100
AcDbLine
 10
32.81993161524592
 20
33.26686201714055
 30
0.0
 11
33.18518118888721
 21
33.40802338102618
 31
0.0
  0
LINE
  5
199
330
1F
100
AcDbEntity
  8
0
100
AcDbLine
 10
-20.81074178015424
 20
-24.86042885082081
 30
0.0
 11
-20.5931996136119
 21
-24.50737604245732
 31
0.0
  0
LINE
  5
19A
330
1F
100
AcDbEntity
  8
0
100
AcDbLine
 10
-20.17708143173489
 20
-22.91665276794274
 30
0.0
 11
-20.19388260629207
 21
-22.50229825347343
 31
0.0
  0
LINE
  5
19B
330
1F
100
AcDbEntity
  8
0
100
AcDbLine
 10
-17.20669160687755
 20
-23.30337333725157
 30
0.0
 11
-17.13813182487367
 21
-23.56471459492216
 31
0.0
  0
LINE
  5
19C
330
1F
100
AcDbEntity
  8
0
100
AcDbLine
 10
-16.20135086210714
 20
-21.58293619146833
 30
0.0
 11
-16.44681077333443
 21
-21.69583403838154
 31
0.0
  0
LINE
  5
19D
330
1F
100
AcDbEntity
  8
0
100
AcDbLine
 10
-33.31711031211299
 20
-32.71830196232105
 30
0.0
 11
-33.1516216216456
 21
-32.75453119539252
 31
0.0
  0
LINE
  5
19E
330
1F
100
AcDbEntity
  8
0
100
AcDbLine
 10
-16.87142285516925
 20
-24.03230400647853
 30
0.0
 11
-16.68137430958355
 21
-24.22434939475713
 31
0.0
  0
LINE
  5
19F
330
1F
100
AcDbEntity
  8
0
100
AcDbLine
 10
-33.74498051080571
 20
-32.45315670873825
 30
0.0
 11
-33.61810990110015
 21
-32.56541769131631
 31
0.0
  0
LINE
  5
1A0
330
1F
100
AcDbEntity
  8
0
100
AcDbLine
 10
-20.29040508348786
 20
-23.73679513901429
 30
0.0
 11
-20.20940940904253
 21
-23.33008627400057
 31
0.0
  0
LINE
  5
1A1
330
1F
100
AcDbEntity
  8
0
100
AcDbLine
 10
-32.21397437237871
 20
-26.89676578118521
 30
0.0
 11
-32.45858684198234
 21
-27.07585397015151
 31
0.0
  0
LINE
  5
1A2
330
1F
100
AcDbEntity
  8
0
100
AcDbLine
 10
-28.31342129266569
 20
-31.42433107690294
 30
0.0
 11
-28.12290675554006
 21
-31.18860051927691
 31
0.0
  0
LINE
  5
1A3
330
1F
100
AcDbEntity
  8
0
100
AcDbLine
 10
-30.46440756562162
 20
-26.71961420690296
 30
0.0
 11
-30.75589885260883
 21
-26.63629971763774
 31
0.0
  0
LINE
  5
1A4
330
1F
100
AcDbEntity
  8
0
100
AcDbLine
 10
-33.98864827932181
 20
-31.50979793446253
 30
0.0
 11
-34.01751876326455
 21
-31.67672516868988
 31
0.0
  0
LINE
  5
1A5
330
1F
100
AcDbEntity
  8
0
100
AcDbLine
 10
-20.5931996136119
 20
-24.50737604245732
 30
0.0
 11
-20.41893610219505
 21
-24.131070797187
 31
0.0
  0
LINE
  5
1A6
330
1F
100
AcDbEntity
  8
0
100
AcDbLine
 10
-29.93558108194497
 20
-27.01264745501327
 30
0.0
 11
-30.18885875722081
 21
-26.84603581527007
 31
0.0
  0
LINE
  5
1A7
330
1F
100
AcDbEntity
  8
0
100
AcDbLine
 10
-14.15101267664943
 20
-22.78105841190551
 30
0.0
 11
-14.21957245865331
 21
-22.51971715423488
 31
0.0
  0
LINE
  5
1A8
330
1F
100
AcDbEntity
  8
0
100
AcDbLine
 10
32.25792814087902
 20
32.73110295023682
 30
0.0
 11
32.2402303830085
 21
32.69110826169381
 31
0.0
  0
LINE
  5
1A9
330
1F
100
AcDbEntity
  8
0
100
AcDbLine
 10
32.79782219796012
 20
30.65183425752122
 30
0.0
 11
32.87243195678595
 21
30.60634666326301
 31
0.0
  0
LINE
  5
1AA
330
1F
100
AcDbEntity
  8
0
100
AcDbLine
 10
-33.85108288645578
 20
-32.32108384718515
 30
0.0
 11
-33.74498051080571
 21
-32.45315670873825
 31
0.0
  0
LINE
  5
1AB
330
1F
100
AcDbEntity
  8
0
100
AcDbLine
 10
32.28537451367274
 20
32.76515466393138
 30
0.0
 11
32.33085586340383
 21
32.83975418034559
 31
0.0
  0
LINE
  5
1AC
330
1F
100
AcDbEntity
  8
0
100
AcDbLine
 10
32.33085586340383
 20
32.83975418034559
 30
0.0
 11
32.50366337059086
 21
33.03597653745684
 31
0.0
  0
LINE
  5
1AD
330
1F
100
AcDbEntity
  8
0
100
AcDbLine
 10
32.64918449171733
 20
30.74245473102822
 30
0.0
 11
32.45296214459288
 21
30.91526414553774
 31
0.0
  0
LINE
  5
1AE
330
1F
100
AcDbEntity
  8
0
100
AcDbLine
 10
33.11592257215089
 20
30.51107249389063
 30
0.0
 11
32.87243195678595
 21
30.60634666326301
 31
0.0
  0
LINE
  5
1AF
330
1F
100
AcDbEntity
  8
0
100
AcDbLine
 10
32.72379277508391
 20
30.69696803631847
 30
0.0
 11
32.64918449171733
 21
30.74245473102822
 31
0.0
  0
LINE
  5
1B0
330
1F
100
AcDbEntity
  8
0
100
AcDbLine
 10
-33.98947569630239
 20
-32.01315743565841
 30
0.0
 11
-33.93336609262099
 21
-32.17300694252341
 31
0.0
  0
LINE
  5
1B1
330
1F
100
AcDbEntity
  8
0
100
AcDbLine
 10
34.25740819917943
 20
30.63367742986929
 30
0.0
 11
34.21660563547427
 21
30.61790808759399
 31
0.0
  0
LINE
  5
1B2
330
1F
100
AcDbEntity
  8
0
100
AcDbLine
 10
-14.22512396568468
 20
-23.57996720779256
 30
0.0
 11
-14.15383123362616
 21
-23.31935822286514
 31
0.0
  0
LINE
  5
1B3
330
1F
100
AcDbEntity
  8
0
100
AcDbLine
 10
-14.4862814283577
 20
-22.05212774267851
 30
0.0
 11
-14.67632615929844
 21
-21.86008237437353
 31
0.0
  0
LINE
  5
1B4
330
1F
100
AcDbEntity
  8
0
100
AcDbLine
 10
32.75783668048078
 20
30.66952795717126
 30
0.0
 11
32.72379277508391
 21
30.69696803631847
 31
0.0
  0
LINE
  5
1B5
330
1F
100
AcDbEntity
  8
0
100
AcDbLine
 10
32.75783668048078
 20
30.66952795717126
 30
0.0
 11
32.79782219796012
 21
30.65183425752122
 31
0.0
  0
LINE
  5
1B6
330
1F
100
AcDbEntity
  8
0
100
AcDbLine
 10
-15.94000958446289
 20
-21.51437259481948
 30
0.0
 11
-16.20135086210714
 21
-21.58293619146833
 31
0.0
  0
LINE
  5
1B7
330
1F
100
AcDbEntity
  8
0
100
AcDbLine
 10
-16.66894029363711
 20
-21.84964897581771
 30
0.0
 11
-16.86098947658706
 21
-22.03969368678485
 31
0.0
  0
LINE
  5
1B8
330
1F
100
AcDbEntity
  8
0
100
AcDbLine
 10
-14.34058984018182
 20
-23.82423139844352
 30
0.0
 11
-14.22512396568468
 21
-23.57996720779256
 31
0.0
  0
LINE
  5
1B9
330
1F
100
AcDbEntity
  8
0
100
AcDbLine
 10
32.04376824226902
 20
31.94264224196177
 30
0.0
 11
32.0416797128853
 21
31.85528907264677
 31
0.0
  0
LINE
  5
1BA
330
1F
100
AcDbEntity
  8
0
100
AcDbLine
 10
-14.12887417168257
 20
-23.05033542916746
 30
0.0
 11
-14.15101267664943
 21
-22.78105841190551
 31
0.0
  0
LINE
  5
1BB
330
1F
100
AcDbEntity
  8
0
100
AcDbLine
 10
32.03909838851403
 20
31.98612025080689
 30
0.0
 11
32.04376824226902
 21
31.94264224196177
 31
0.0
  0
LINE
  5
1BC
330
1F
100
AcDbEntity
  8
0
100
AcDbLine
 10
-14.67632615929844
 20
-21.86008237437353
 30
0.0
 11
-14.89683278327991
 21
-21.70394977832552
 31
0.0
  0
LINE
  5
1BD
330
1F
100
AcDbEntity
  8
0
100
AcDbLine
 10
-16.21660347497753
 20
-24.49594405065733
 30
0.0
 11
-15.95599451002372
 21
-24.56724059736084
 31
0.0
  0
LINE
  5
1BE
330
1F
100
AcDbEntity
  8
0
100
AcDbLine
 10
32.16444637269143
 20
31.34901646722718
 30
0.0
 11
32.08091698919034
 21
31.59677930284922
 31
0.0
  0
LINE
  5
1BF
330
1F
100
AcDbEntity
  8
0
100
AcDbLine
 10
32.0458407820149
 20
32.02932664139986
 30
0.0
 11
32.04792934309732
 21
32.11668113652003
 31
0.0
  0
LINE
  5
1C0
330
1F
100
AcDbEntity
  8
0
100
AcDbLine
 10
34.13992412214508
 20
30.57604713765149
 30
0.0
 11
33.89215936921373
 21
30.49251585681474
 31
0.0
  0
LINE
  5
1C1
330
1F
100
AcDbEntity
  8
0
100
AcDbLine
 10
34.31950313394457
 20
33.23101148983857
 30
0.0
 11
34.62437724792305
 21
32.9852767622866
 31
0.0
  0
LINE
  5
1C2
330
1F
100
AcDbEntity
  8
0
100
AcDbLine
 10
34.9778659662485
 20
31.52752310476534
 30
0.0
 11
34.81941167354633
 21
31.16943649677302
 31
0.0
  0
LINE
  5
1C3
330
1F
100
AcDbEntity
  8
0
100
AcDbLine
 10
-15.68696788170748
 20
-24.59219386463304
 30
0.0
 11
-15.41769469906406
 21
-24.57005915433757
 31
0.0
  0
LINE
  5
1C4
330
1F
100
AcDbEntity
  8
0
100
AcDbLine
 10
-15.40170977350325
 20
-21.5171911517962
 30
0.0
 11
-15.67073640181952
 21
-21.49223788452399
 31
0.0
  0
LINE
  5
1C5
330
1F
100
AcDbEntity
  8
0
100
AcDbLine
 10
-15.41769469906406
 20
-24.57005915433757
 30
0.0
 11
-15.15635342141983
 21
-24.5014955576887
 31
0.0
  0
LINE
  5
1C6
330
1F
100
AcDbEntity
  8
0
100
AcDbLine
 10
-14.15383123362616
 20
-23.31935822286514
 30
0.0
 11
-14.12887417168257
 21
-23.05033542916746
 31
0.0
  0
LINE
  5
1C7
330
1F
100
AcDbEntity
  8
0
100
AcDbLine
 10
34.99642356473394
 20
32.30375844183035
 30
0.0
 11
35.03824142591133
 21
31.91441919620294
 31
0.0
  0
LINE
  5
1C8
330
1F
100
AcDbEntity
  8
0
100
AcDbLine
 10
33.18518118888721
 20
33.40802338102618
 30
0.0
 11
33.57452043451465
 21
33.44984124220358
 31
0.0
  0
LINE
  5
1C9
330
1F
100
AcDbEntity
  8
0
100
AcDbLine
 10
34.62437724792305
 20
32.9852767622866
 30
0.0
 11
34.8552622008483
 21
32.66900801547168
 31
0.0
  0
LINE
  5
1CA
330
1F
100
AcDbEntity
  8
0
100
AcDbLine
 10
34.81941167354633
 20
31.16943649677302
 30
0.0
 11
34.57367644383449
 21
30.86456290955294
 31
0.0
  0
LINE
  5
1CB
330
1F
100
AcDbEntity
  8
0
100
AcDbLine
 10
33.4596152480756
 20
30.45744024582607
 30
0.0
 11
33.37225944286541
 21
30.45952820073488
 31
0.0
  0
LINE
  5
1CC
330
1F
100
AcDbEntity
  8
0
100
AcDbLine
 10
34.57367644383449
 20
30.86456290955294
 30
0.0
 11
34.3694212174257
 21
30.70133113375953
 31
0.0
  0
LINE
  5
1CD
330
1F
100
AcDbEntity
  8
0
100
AcDbLine
 10
34.3694212174257
 20
30.70133113375953
 30
0.0
 11
34.29273848686337
 21
30.65946951932134
 31
0.0
  0
LINE
  5
1CE
330
1F
100
AcDbEntity
  8
0
100
AcDbLine
 10
34.29273848686337
 20
30.65946951932134
 30
0.0
 11
34.25740819917943
 21
30.63367742986929
 31
0.0
  0
LINE
  5
1CF
330
1F
100
AcDbEntity
  8
0
100
AcDbLine
 10
33.89215936921373
 20
30.49251585681474
 30
0.0
 11
33.6336515167255
 21
30.45328047784541
 31
0.0
  0
LINE
  5
1D0
330
1F
100
AcDbEntity
  8
0
100
AcDbLine
 10
33.54629993316669
 20
30.45536833184946
 30
0.0
 11
33.6336515167255
 21
30.45328047784541
 31
0.0
  0
LINE
  5
1D1
330
1F
100
AcDbEntity
  8
0
100
AcDbLine
 10
33.5028193799107
 20
30.45069820480628
 30
0.0
 11
33.54629993316669
 21
30.45536833184946
 31
0.0
  0
LINE
  5
1D2
330
1F
100
AcDbEntity
  8
0
100
AcDbLine
 10
33.37225944286541
 20
30.45952820073488
 30
0.0
 11
33.11592257215089
 21
30.51107249389063
 31
0.0
  0
LINE
  5
1D3
330
1F
100
AcDbEntity
  8
0
100
AcDbLine
 10
32.45296214459288
 20
30.91526414553774
 30
0.0
 11
32.28973035881265
 21
31.11951746462409
 31
0.0
  0
LINE
  5
1D4
330
1F
100
AcDbEntity
  8
0
100
AcDbLine
 10
32.24786524142573
 20
31.19620725540758
 30
0.0
 11
32.28973035881265
 21
31.11951746462409
 31
0.0
  0
LINE
  5
1D5
330
1F
100
AcDbEntity
  8
0
100
AcDbLine
 10
32.22207761357705
 20
31.23153143153815
 30
0.0
 11
32.24786524142573
 21
31.19620725540758
 31
0.0
  0
LINE
  5
1D6
330
1F
100
AcDbEntity
  8
0
100
AcDbLine
 10
32.22207761357705
 20
31.23153143153815
 30
0.0
 11
32.20631015389667
 21
31.27232912410175
 31
0.0
  0
LINE
  5
1D7
330
1F
100
AcDbEntity
  8
0
100
AcDbLine
 10
32.20631015389667
 20
31.27232912410175
 30
0.0
 11
32.16444637269143
 21
31.34901646722718
 31
0.0
  0
LINE
  5
1D8
330
1F
100
AcDbEntity
  8
0
100
AcDbLine
 10
32.08091698919034
 20
31.59677930284922
 30
0.0
 11
32.0416797128853
 21
31.85528907264677
 31
0.0
  0
LINE
  5
1D9
330
1F
100
AcDbEntity
  8
0
100
AcDbLine
 10
32.03909838851403
 20
31.98612025080689
 30
0.0
 11
32.0458407820149
 21
32.02932664139986
 31
0.0
  0
LINE
  5
1DA
330
1F
100
AcDbEntity
  8
0
100
AcDbLine
 10
32.09947363625307
 20
32.37301800723449
 30
0.0
 11
32.19474779563861
 21
32.61650671527703
 31
0.0
  0
LINE
  5
1DB
330
1F
100
AcDbEntity
  8
0
100
AcDbLine
 10
33.57452043451465
 20
33.44984124220358
 30
0.0
 11
33.96141652595226
 21
33.38946578254075
 31
0.0
  0
LINE
  5
1DC
330
1F
100
AcDbEntity
  8
0
100
AcDbLine
 10
33.96141652595226
 20
33.38946578254075
 30
0.0
 11
34.31950313394457
 21
33.23101148983857
 31
0.0
  0
LINE
  5
1DD
330
1F
100
AcDbEntity
  8
0
100
AcDbLine
 10
34.8552622008483
 20
32.66900801547168
 30
0.0
 11
34.99642356473394
 21
32.30375844183035
 31
0.0
  0
LINE
  5
1DE
330
1F
100
AcDbEntity
  8
0
100
AcDbLine
 10
35.03824142591133
 20
31.91441919620294
 30
0.0
 11
34.9778659662485
 21
31.52752310476534
 31
0.0
  0
LINE
  5
1DF
330
1F
100
AcDbEntity
  8
0
100
AcDbLine
 10
-14.33247412021148
 20
-22.27425722303395
 30
0.0
 11
-14.4862814283577
 21
-22.05212774267851
 31
0.0
  0
LINE
  5
1E0
330
1F
100
AcDbEntity
  8
0
100
AcDbLine
 10
-14.91088969554759
 20
-24.3885977307491
 30
0.0
 11
-14.6887601752449
 21
-24.23478279331295
 31
0.0
  0
LINE
  5
1E1
330
1F
100
AcDbEntity
  8
0
100
AcDbLine
 10
-16.68137430958355
 20
-24.22434939475713
 30
0.0
 11
-16.21660347497753
 21
-24.49594405065733
 31
0.0
  0
LINE
  5
1E2
330
1F
100
AcDbEntity
  8
0
100
AcDbLine
 10
21.74369304831777
 20
27.50702414363043
 30
0.0
 11
24.2982076315484
 21
30.04925505323656
 31
0.0
  0
LINE
  5
1E3
330
1F
100
AcDbEntity
  8
0
100
AcDbLine
 10
21.74369304831777
 20
27.50702414363043
 30
0.0
 11
14.53846960207168
 21
20.0535712609154
 31
0.0
  0
LINE
  5
1E4
330
1F
100
AcDbEntity
  8
0
100
AcDbLine
 10
12.57851235347691
 20
5.950634859684603
 30
0.0
 11
-8.704195630173416
 21
-13.85708573140629
 31
0.0
  0
LINE
  5
1E5
330
1F
100
AcDbEntity
  8
0
100
AcDbLine
 10
27.53814178950881
 20
19.43896950392302
 30
0.0
 11
12.57851235347691
 21
5.950634859684603
 31
0.0
  0
LINE
  5
1E6
330
1F
100
AcDbEntity
  8
0
100
AcDbLine
 10
27.53814178950881
 20
19.43896950392302
 30
0.0
 11
37.64681038653887
 21
29.48437487532692
 31
0.0
  0
LINE
  5
1E7
330
1F
100
AcDbEntity
  8
0
100
AcDbLine
 10
30.93704731069951
 20
36.37807736902867
 30
0.0
 11
31.89967384925667
 21
36.5648124070105
 31
0.0
  0
LINE
  5
1E8
330
1F
100
AcDbEntity
  8
0
100
AcDbLine
 10
31.89967384925667
 20
36.5648124070105
 30
0.0
 11
32.88018007171711
 21
36.57609845294861
 31
0.0
  0
LINE
  5
1E9
330
1F
100
AcDbEntity
  8
0
100
AcDbLine
 10
32.88018007171711
 20
36.57609845294861
 30
0.0
 11
33.84684979817771
 21
36.41157044004877
 31
0.0
  0
LINE
  5
1EA
330
1F
100
AcDbEntity
  8
0
100
AcDbLine
 10
33.84684979817771
 20
36.41157044004877
 30
0.0
 11
34.76841441427479
 21
36.0765503131765
 31
0.0
  0
LINE
  5
1EB
330
1F
100
AcDbEntity
  8
0
100
AcDbLine
 10
34.76841441427479
 20
36.0765503131765
 30
0.0
 11
35.61506430892488
 21
35.58187488128991
 31
0.0
  0
LINE
  5
1EC
330
1F
100
AcDbEntity
  8
0
100
AcDbLine
 10
36.35941311806569
 20
34.94354528199725
 30
0.0
 11
36.97738358425548
 21
34.18220939691814
 31
0.0
  0
LINE
  5
1ED
330
1F
100
AcDbEntity
  8
0
100
AcDbLine
 10
36.97738358425548
 20
34.18220939691814
 30
0.0
 11
37.44898637746097
 21
33.322493960024
 31
0.0
  0
LINE
  5
1EE
330
1F
100
AcDbEntity
  8
0
100
AcDbLine
 10
37.44898637746097
 20
33.322493960024
 30
0.0
 11
37.75896668471972
 21
32.39220796307583
 31
0.0
  0
LINE
  5
1EF
330
1F
100
AcDbEntity
  8
0
100
AcDbLine
 10
37.75896668471972
 20
32.39220796307583
 30
0.0
 11
37.89729765360979
 21
31.42144312539642
 31
0.0
  0
LINE
  5
1F0
330
1F
100
AcDbEntity
  8
0
100
AcDbLine
 10
37.89729765360979
 20
31.42144312539642
 30
0.0
 11
37.85950472823849
 21
30.44160052484758
 31
0.0
  0
LINE
  5
1F1
330
1F
100
AcDbEntity
  8
0
100
AcDbLine
 10
37.85950472823849
 20
30.44160052484758
 30
0.0
 11
37.64681038653887
 21
29.48437487532692
 31
0.0
  0
LINE
  5
1F2
330
1F
100
AcDbEntity
  8
0
100
AcDbLine
 10
35.61506430892488
 20
35.58187488128991
 30
0.0
 11
36.35941311806569
 21
34.94354528199725
 31
0.0
  0
LINE
  5
1F3
330
1F
100
AcDbEntity
  8
0
100
AcDbLine
 10
-25.5400083400441
 20
-15.83688424210122
 30
0.0
 11
-22.7913999120518
 21
-14.19217565392884
 31
0.0
  0
LINE
  5
1F4
330
1F
100
AcDbEntity
  8
0
100
AcDbLine
 10
-28.34639359217024
 20
-17.38094267593308
 30
0.0
 11
-31.20687161024884
 21
-18.82232400595218
 31
0.0
  0
LINE
  5
1F5
330
1F
100
AcDbEntity
  8
0
100
AcDbLine
 10
-34.11768732628374
 20
-20.15913607117402
 30
0.0
 11
-31.20687161024884
 21
-18.82232400595218
 31
0.0
  0
LINE
  5
1F6
330
1F
100
AcDbEntity
  8
0
100
AcDbLine
 10
24.2982076315484
 20
30.04925505323656
 30
0.0
 11
30.93704731069951
 21
36.37807736902867
 31
0.0
  0
LINE
  5
1F7
330
1F
100
AcDbEntity
  8
0
100
AcDbLine
 10
-11.17793239777416
 20
-5.539170497945061
 30
0.0
 11
14.53846960207168
 21
20.0535712609154
 31
0.0
  0
ENDSEC
  0
SECTION
  2
OBJECTS
  0
DICTIONARY
  5
C
330
0
100
AcDbDictionary
  3
ACAD_GROUP
350
D
  3
ACAD_LAYOUT
350
1A
  3
ACAD_MATERIAL
350
43
  3
ACAD_MLEADERSTYLE
350
6B
  3
ACAD_MLINESTYLE
350
17
  3
ACAD_PLOTSETTINGS
350
19
  3
ACAD_SCALELIST
350
47
  3
ACAD_VISUALSTYLE
350
2A
  3
ACDBHEADERROUNDTRIPXREC
350
1F8
  3
ACDBVARIABLEDICTIONARY
350
219
  0
DICTIONARY
  5
220
330
8
100
AcDbDictionary
280
     1
  3
ACAD_XREC_ROUNDTRIP
360
221
  0
DICTIONARY
  5
D
102
{ACAD_REACTORS
330
C
102
}
330
C
100
AcDbDictionary
  0
DICTIONARY
  5
1A
102
{ACAD_REACTORS
330
C
102
}
330
C
100
AcDbDictionary
  0
DICTIONARY
  5
43
102
{ACAD_REACTORS
330
C
102
}
330
C
100
AcDbDictionary
  3
BYBLOCK
350
45
  3
BYLAYER
350
44
  3
GLOBAL
350
46
  0
DICTIONARY
  5
6B
102
{ACAD_REACTORS
330
C
102
}
330
C
100
AcDbDictionary
  3
STANDARD
350
6C
  0
DICTIONARY
  5
17
102
{ACAD_REACTORS
330
C
102
}
330
C
100
AcDbDictionary
  3
STANDARD
350
18
  0
DICTIONARY
  5
19
102
{ACAD_REACTORS
330
C
102
}
330
C
100
AcDbDictionary
  0
DICTIONARY
  5
47
102
{ACAD_REACTORS
330
C
102
}
330
C
100
AcDbDictionary
  3
A0
350
48
  3
A1
350
49
  3
A2
350
4A
  3
A3
350
4B
  3
A4
350
4C
  3
A5
350
4D
  3
A6
350
4E
  3
A7
350
4F
  3
A8
350
50
  3
A9
350
51
  3
B0
350
52
  3
B1
350
53
  3
B2
350
54
  3
B3
350
55
  3
B4
350
56
  3
B5
350
57
  3
B6
350
58
  3
B7
350
59
  3
B8
350
5A
  3
B9
350
5B
  3
C0
350
5C
  3
C1
350
5D
  3
C2
350
5E
  3
C3
350
5F
  3
C4
350
60
  3
C5
350
61
  3
C6
350
62
  3
C7
350
63
  3
C8
350
64
  3
C9
350
65
  3
D0
350
66
  3
D1
350
67
  3
D2
350
68
  0
DICTIONARY
  5
2A
102
{ACAD_REACTORS
330
C
102
}
330
C
100
AcDbDictionary
  3
2DWIREFRAME
350
2F
  3
BASIC
350
32
  3
BRIGHTEN
350
36
  3
COLORCHANGE
350
3A
  3
CONCEPTUAL
350
34
  3
DIM
350
35
  3
EDGECOLOROFF
350
3D
  3
FACEPATTERN
350
39
  3
FLAT
350
2B
  3
FLATWITHEDGES
350
2C
  3
GOURAUD
350
2D
  3
GOURAUDWITHEDGES
350
2E
  3
HIDDEN
350
31
  3
JITTEROFF
350
3B
  3
LINEPATTERN
350
38
  3
OVERHANGOFF
350
3C
  3
REALISTIC
350
33
  3
SHADED
350
42
  3
SHADED_WITH_EDGES
350
41
  3
SHADES_OF_GRAY
350
3E
  3
SKETCHY
350
3F
  3
THICKEN
350
37
  3
WIREFRAME
350
30
  3
X-RAY
350
40
  0
DICTIONARY
  5
1F8
102
{ACAD_REACTORS
330
C
102
}
330
C
100
AcDbDictionary
  3
CEPSNID
350
202
  3
CEPSNTYPE
350
201
  3
DIMSTYLEDATA
350
218
  3
FINGERPRINTGUID
350
203
  3
HYPERLINKBASE
350
1FB
  3
INSUNITS
350
200
  3
LAYOUTDICT
350
1FD
  3
LWETCUNION
350
1FF
  3
PLOTSETDICT
350
1FE
  3
PSVPSCALE
350
205
  3
PUCSBASE
350
208
  3
PUCSORGBACK
350
20E
  3
PUCSORGBOTTOM
350
20A
  3
PUCSORGFRONT
350
20D
  3
PUCSORGLEFT
350
20B
  3
PUCSORGRIGHT
350
20C
  3
PUCSORGTOP
350
209
  3
PUCSORTHOREF
350
206
  3
PUCSORTHOVIEW
350
207
  3
STYLESHEET
350
1FC
  3
TSTACKALIGN
350
1F9
  3
TSTACKSIZE
350
1FA
  3
UCSBASE
350
211
  3
UCSORGBACK
350
217
  3
UCSORGBOTTOM
350
213
  3
UCSORGFRONT
350
216
  3
UCSORGLEFT
350
214
  3
UCSORGRIGHT
350
215
  3
UCSORGTOP
350
212
  3
UCSORTHOREF
350
20F
  3
UCSORTHOVIEW
350
210
  3
VERSIONGUID
350
204
  0
DICTIONARY
  5
219
102
{ACAD_REACTORS
330
C
102
}
330
C
100
AcDbDictionary
  3
CANNOSCALE
350
222
  3
CMLEADERSTYLE
350
21B
  3
CTABLESTYLE
350
21A
  3
DIMASSOC
350
21E
  3
HIDETEXT
350
21F
  3
MSLTSCALE
350
223
  0
XRECORD
  5
221
102
{ACAD_REACTORS
330
220
102
}
330
220
100
AcDbXrecord
102
VTR_0.000_0.000_1.000_1.000_VISUALSTYLE
340
2F
102
VTR_0.000_0.000_1.000_1.000_GRIDDISPLAY
 70
     3
102
VTR_0.000_0.000_1.000_1.000_GRIDMAJOR
 70
     5
102
VTR_0.000_0.000_1.000_1.000_DEFAULTLIGHTING
280
     1
102
VTR_0.000_0.000_1.000_1.000_DEFAULTLIGHTINGTYPE
 70
     1
102
VTR_0.000_0.000_1.000_1.000_BRIGHTNESS
141
0.0
102
VTR_0.000_0.000_1.000_1.000_CONTRAST
142
0.0
  0
MATERIAL
  5
45
102
{ACAD_REACTORS
330
43
102
}
102
{ACAD_XDICTIONARY
360
226
102
}
330
43
100
AcDbMaterial
  1
BYBLOCK
  0
MATERIAL
  5
44
102
{ACAD_REACTORS
330
43
102
}
102
{ACAD_XDICTIONARY
360
224
102
}
330
43
100
AcDbMaterial
  1
BYLAYER
  0
MATERIAL
  5
46
102
{ACAD_REACTORS
330
43
102
}
102
{ACAD_XDICTIONARY
360
228
102
}
330
43
100
AcDbMaterial
  1
GLOBAL
  0
ACAD_PROXY_OBJECT
  5
6C
102
{ACAD_REACTORS
330
6B
102
}
330
6B
100
AcDbProxyObject
 90
      499
 91
      505
 93
      610
310
40901902A4063FBFFFFFE056BD1B81E855B9FC0AD7A3703D0AD73F4214DD185B99185C9900AD7A3703D0AC73F90141901A02B5E8DC0F42B1CFC02B5E8DC0F42B1CFE5764000000000000300FC0
340
14
340
0
340
11
340
0
 94
        0
1001
ACAD_MLEADERVER
1070
     2
  0
MLINESTYLE
  5
18
102
{ACAD_REACTORS
330
17
102
}
330
17
100
AcDbMlineStyle
  2
Standard
 70
     0
  3

 62
   256
 51
90.0
 52
90.0
 71
     2
 49
0.5
 62
   256
  6
BYLAYER
 49
-0.5
 62
   256
  6
BYLAYER
  0
ACAD_PROXY_OBJECT
  5
48
102
{ACAD_REACTORS
330
47
102
}
330
47
100
AcDbProxyObject
 90
      499
 91
      503
 93
       41
310
903313A31580
  0
ACAD_PROXY_OBJECT
  5
49
102
{ACAD_REACTORS
330
47
102
}
330
47
100
AcDbProxyObject
 90
      499
 91
      503
 93
      105
310
903313A324000000000000004000
  0
ACAD_PROXY_OBJECT
  5
4A
102
{ACAD_REACTORS
330
47
102
}
330
47
100
AcDbProxyObject
 90
      499
 91
      503
 93
      105
310
903313A344000000000000104000
  0
ACAD_PROXY_OBJECT
  5
4B
102
{ACAD_REACTORS
330
47
102
}
330
47
100
AcDbProxyObject
 90
      499
 91
      503
 93
      105
310
903313A354000000000000144000
  0
ACAD_PROXY_OBJECT
  5
4C
102
{ACAD_REACTORS
330
47
102
}
330
47
100
AcDbProxyObject
 90
      499
 91
      503
 93
      105
310
903313A384000000000000204000
  0
ACAD_PROXY_OBJECT
  5
4D
102
{ACAD_REACTORS
330
47
102
}
330
47
100
AcDbProxyObject
 90
      499
 91
      503
 93
      113
310
904313A31304000000000000244000
  0
ACAD_PROXY_OBJECT
  5
4E
102
{ACAD_REACTORS
330
47
102
}
330
47
100
AcDbProxyObject
 90
      499
 91
      503
 93
      113
310
904313A31364000000000000304000
  0
ACAD_PROXY_OBJECT
  5
4F
102
{ACAD_REACTORS
330
47
102
}
330
47
100
AcDbProxyObject
 90
      499
 91
      503
 93
      113
310
904313A32304000000000000344000
  0
ACAD_PROXY_OBJECT
  5
50
102
{ACAD_REACTORS
330
47
102
}
330
47
100
AcDbProxyObject
 90
      499
 91
      503
 93
      113
310
904313A333040000000000003E4000
  0
ACAD_PROXY_OBJECT
  5
51
102
{ACAD_REACTORS
330
47
102
}
330
47
100
AcDbProxyObject
 90
      499
 91
      503
 93
      113
310
904313A34304000000000000444000
  0
ACAD_PROXY_OBJECT
  5
52
102
{ACAD_REACTORS
330
47
102
}
330
47
100
AcDbProxyObject
 90
      499
 91
      503
 93
      113
310
904313A35304000000000000494000
  0
ACAD_PROXY_OBJECT
  5
53
102
{ACAD_REACTORS
330
47
102
}
330
47
100
AcDbProxyObject
 90
      499
 91
      503
 93
      121
310
905313A3130304000000000000594000
  0
ACAD_PROXY_OBJECT
  5
54
102
{ACAD_REACTORS
330
47
102
}
330
47
100
AcDbProxyObject
 90
      499
 91
      503
 93
      105
310
903323A310000000000000010100
  0
ACAD_PROXY_OBJECT
  5
55
102
{ACAD_REACTORS
330
47
102
}
330
47
100
AcDbProxyObject
 90
      499
 91
      503
 93
      105
310
903343A310000000000000410100
  0
ACAD_PROXY_OBJECT
  5
56
102
{ACAD_REACTORS
330
47
102
}
330
47
100
AcDbProxyObject
 90
      499
 91
      503
 93
      105
310
903383A310000000000000810100
  0
ACAD_PROXY_OBJECT
  5
57
102
{ACAD_REACTORS
330
47
102
}
330
47
100
AcDbProxyObject
 90
      499
 91
      503
 93
      113
310
90431303A310000000000000910100
  0
ACAD_PROXY_OBJECT
  5
58
102
{ACAD_REACTORS
330
47
102
}
330
47
100
AcDbProxyObject
 90
      499
 91
      503
 93
      121
310
9053130303A310000000000001650100
  0
ACAD_PROXY_OBJECT
  5
59
102
{ACAD_REACTORS
330
47
102
}
330
47
100
AcDbProxyObject
 90
      499
 91
      503
 93
      257
310
90E312F31323822203D2031272D3022000000000000200FC000000000000284000
  0
ACAD_PROXY_OBJECT
  5
5A
102
{ACAD_REACTORS
330
47
102
}
330
47
100
AcDbProxyObject
 90
      499
 91
      503
 93
      249
310
90D312F363422203D2031272D3022000000000000240FC000000000000284000
  0
ACAD_PROXY_OBJECT
  5
5B
102
{ACAD_REACTORS
330
47
102
}
330
47
100
AcDbProxyObject
 90
      499
 91
      503
 93
      249
310
90D312F333222203D2031272D3022000000000000280FC000000000000284000
  0
ACAD_PROXY_OBJECT
  5
5C
102
{ACAD_REACTORS
330
47
102
}
330
47
100
AcDbProxyObject
 90
      499
 91
      503
 93
      249
310
90D312F313622203D2031272D30220000000000002C0FC000000000000284000
  0
ACAD_PROXY_OBJECT
  5
5D
102
{ACAD_REACTORS
330
47
102
}
330
47
100
AcDbProxyObject
 90
      499
 91
      503
 93
      249
310
90D332F333222203D2031272D30220000000000002E0FC000000000000284000
  0
ACAD_PROXY_OBJECT
  5
5E
102
{ACAD_REACTORS
330
47
102
}
330
47
100
AcDbProxyObject
 90
      499
 91
      503
 93
      241
310
90C312F3822203D2031272D3022000000000000300FC000000000000284000
  0
ACAD_PROXY_OBJECT
  5
5F
102
{ACAD_REACTORS
330
47
102
}
330
47
100
AcDbProxyObject
 90
      499
 91
      503
 93
      249
310
90D332F313622203D2031272D3022000000000000320FC000000000000284000
  0
ACAD_PROXY_OBJECT
  5
60
102
{ACAD_REACTORS
330
47
102
}
330
47
100
AcDbProxyObject
 90
      499
 91
      503
 93
      241
310
90C312F3422203D2031272D3022000000000000340FC000000000000284000
  0
ACAD_PROXY_OBJECT
  5
61
102
{ACAD_REACTORS
330
47
102
}
330
47
100
AcDbProxyObject
 90
      499
 91
      503
 93
      241
310
90C332F3822203D2031272D3022000000000000360FC000000000000284000
  0
ACAD_PROXY_OBJECT
  5
62
102
{ACAD_REACTORS
330
47
102
}
330
47
100
AcDbProxyObject
 90
      499
 91
      503
 93
      241
310
90C312F3222203D2031272D3022000000000000380FC000000000000284000
  0
ACAD_PROXY_OBJECT
  5
63
102
{ACAD_REACTORS
330
47
102
}
330
47
100
AcDbProxyObject
 90
      499
 91
      503
 93
      241
310
90C332F3422203D2031272D30220000000000003A0FC000000000000284000
  0
ACAD_PROXY_OBJECT
  5
64
102
{ACAD_REACTORS
330
47
102
}
330
47
100
AcDbProxyObject
 90
      499
 91
      503
 93
      161
310
90A3122203D2031272D30224000000000000284000
  0
ACAD_PROXY_OBJECT
  5
65
102
{ACAD_REACTORS
330
47
102
}
330
47
100
AcDbProxyObject
 90
      499
 91
      503
 93
      257
310
90E312D312F3222203D2031272D30220000000000003E0FC000000000000284000
  0
ACAD_PROXY_OBJECT
  5
66
102
{ACAD_REACTORS
330
47
102
}
330
47
100
AcDbProxyObject
 90
      499
 91
      503
 93
      225
310
90A3322203D2031272D302200000000000002100000000000000284000
  0
ACAD_PROXY_OBJECT
  5
67
102
{ACAD_REACTORS
330
47
102
}
330
47
100
AcDbProxyObject
 90
      499
 91
      503
 93
      225
310
90A3622203D2031272D302200000000000006100000000000000284000
  0
ACAD_PROXY_OBJECT
  5
68
102
{ACAD_REACTORS
330
47
102
}
330
47
100
AcDbProxyObject
 90
      499
 91
      503
 93
      249
310
90D31272D3022203D2031272D30220000000000000A100000000000000284000
  0
ACAD_PROXY_OBJECT
  5
2F
102
{ACAD_REACTORS
330
2A
102
}
330
2A
100
AcDbProxyObject
 90
      499
 91
      501
 93
      436
310
42CC9915DA5C99599C985B595049028333333333333E33F0000000000000F90107901411070040501600405405064090741402480A0340
1001
ACAD
1000
AcDbSavedByObjectVersion
1070
     0
  0
ACAD_PROXY_OBJECT
  5
32
102
{ACAD_REACTORS
330
2A
102
}
330
2A
100
AcDbProxyObject
 90
      499
 91
      501
 93
      388
310
4150985CDA58D07406404333333333333E33F0000000000000F90107A41107004050150841D405064090741402480A0350
1001
ACAD
1000
AcDbSavedByObjectVersion
1070
     0
  0
ACAD_PROXY_OBJECT
  5
36
102
{ACAD_REACTORS
330
2A
102
}
330
2A
100
AcDbProxyObject
 90
      499
 91
      501
 93
      428
310
42109C9A59DA1D195B90C409028333333333333E33F0000000000000F9010790141107004050150841D405064090741402480A029950
1001
ACAD
1000
AcDbSavedByObjectVersion
1070
     0
  0
ACAD_PROXY_OBJECT
  5
3A
102
{ACAD_REACTORS
330
2A
102
}
330
2A
100
AcDbProxyObject
 90
      499
 91
      501
 93
      452
310
42D0DBDB1BDC90DA185B99D95104090240C333333333333E33F0000000000000F90108901411070040501508421405064090741402480A0350
1001
ACAD
1000
AcDbSavedByObjectVersion
1070
     0
  0
ACAD_PROXY_OBJECT
  5
34
102
{ACAD_REACTORS
330
2A
102
}
330
2A
100
AcDbProxyObject
 90
      499
 91
      501
 93
      500
310
4290DBDB98D95C1D1D585B10940D028333333333333E33F0000000000000F90107902409070040501000000000018199010841D405064090740C02480A0340
1001
ACAD
1000
AcDbSavedByObjectVersion
1070
     0
  0
ACAD_PROXY_OBJECT
  5
35
102
{ACAD_REACTORS
330
2A
102
}
330
2A
100
AcDbProxyObject
 90
      499
 91
      501
 93
      412
310
40D11A5B50B409028333333333333E33F0000000000000F9010790141107004050150841D405064090741402480A02677FFFFFD0
1001
ACAD
1000
AcDbSavedByObjectVersion
1070
     0
  0
ACAD_PROXY_OBJECT
  5
3D
102
{ACAD_REACTORS
330
2A
102
}
330
2A
100
AcDbProxyObject
 90
      499
 91
      501
 93
      452
310
43115919D950DBDB1BDC93D999916409028333333333333E33F0000000000000F9010790141107004050150841D405064090741402480A0350
1001
ACAD
1000
AcDbSavedByObjectVersion
1070
     0
  0
ACAD_PROXY_OBJECT
  5
39
102
{ACAD_REACTORS
330
2A
102
}
330
2A
100
AcDbProxyObject
 90
      499
 91
      501
 93
      444
310
42D19858D95C185D1D195C9B90F409028333333333333E33F0000000000000F9010790141107004050150841D405064090741402480A0350
1001
ACAD
1000
AcDbSavedByObjectVersion
1070
     0
  0
ACAD_PROXY_OBJECT
  5
2B
102
{ACAD_REACTORS
330
2A
102
}
330
2A
100
AcDbProxyObject
 90
      499
 91
      501
 93
      380
310
41119B185D240901404333333333333E33F0000000000000F9010740A907004050150841D405064090741402480A1B50
1001
ACAD
1000
AcDbSavedByObjectVersion
1070
     0
  0
ACAD_PROXY_OBJECT
  5
2C
102
{ACAD_REACTORS
330
2A
102
}
330
2A
100
AcDbProxyObject
 90
      499
 91
      501
 93
      468
310
43519B185D15DA5D1A115919D95CD0140901404333333333333E33F0000000000000F90107409019070040501600405405064090741402480A1B50
1001
ACAD
1000
AcDbSavedByObjectVersion
1070
     0
  0
ACAD_PROXY_OBJECT
  5
2D
102
{ACAD_REACTORS
330
2A
102
}
330
2A
100
AcDbProxyObject
 90
      499
 91
      501
 93
      404
310
41D1DBDD5C985D5910240902404333333333333E33F0000000000000F9010740A9070040501641D405064090741402480A1B50
1001
ACAD
1000
AcDbSavedByObjectVersion
1070
     0
  0
ACAD_PROXY_OBJECT
  5
2E
102
{ACAD_REACTORS
330
2A
102
}
330
2A
100
AcDbProxyObject
 90
      499
 91
      501
 93
      492
310
4411DBDD5C985D5915DA5D1A115919D95CD0340902404333333333333E33F0000000000000F90107409019070040501600405405064090741402480A1B50
1001
ACAD
1000
AcDbSavedByObjectVersion
1070
     0
  0
ACAD_PROXY_OBJECT
  5
31
102
{ACAD_REACTORS
330
2A
102
}
330
2A
100
AcDbProxyObject
 90
      499
 91
      501
 93
      476
310
41921A5919195B90640502408333333333333E33F0000000000000F901079024090700405020000000000001110200405405064090740C02480A0340
1001
ACAD
1000
AcDbSavedByObjectVersion
1070
     0
  0
ACAD_PROXY_OBJECT
  5
3B
102
{ACAD_REACTORS
330
2A
102
}
330
2A
100
AcDbProxyObject
 90
      499
 91
      501
 93
      428
310
42529A5D1D195C93D999914409028333333333333E33F0000000000000F9010790141107004050150A41D405064090741402480A0350
1001
ACAD
1000
AcDbSavedByObjectVersion
1070
     0
  0
ACAD_PROXY_OBJECT
  5
38
102
{ACAD_REACTORS
330
2A
102
}
330
2A
100
AcDbProxyObject
 90
      499
 91
      501
 93
      444
310
42D31A5B995C185D1D195C9B90E409028333333333333E33F0000000000000F9010790141107004050750841D405064090741402483A0350
1001
ACAD
1000
AcDbSavedByObjectVersion
1070
     0
  0
ACAD_PROXY_OBJECT
  5
3C
102
{ACAD_REACTORS
330
2A
102
}
330
2A
100
AcDbProxyObject
 90
      499
 91
      501
 93
      444
310
42D3DD995C9A185B99D3D999915409028333333333333E33F0000000000000F9010790141107004050150941D405064090741402480A0350
1001
ACAD
1000
AcDbSavedByObjectVersion
1070
     0
  0
ACAD_PROXY_OBJECT
  5
33
102
{ACAD_REACTORS
330
2A
102
}
330
2A
100
AcDbProxyObject
 90
      499
 91
      501
 93
      428
310
425499585B1A5CDD1A58D08409038333333333333E33F0000000000000F9010740A907004050150800405405064090740C02480A1B40
1001
ACAD
1000
AcDbSavedByObjectVersion
1070
     0
  0
ACAD_PROXY_OBJECT
  5
42
102
{ACAD_REACTORS
330
2A
102
}
330
2A
100
AcDbProxyObject
 90
      499
 91
      501
 93
      420
310
4194DA1859195911B40902404333333333333E33F0000000000000F9010740A41107004050150800405405064090840C02480A0B40
1001
ACAD
1000
AcDbSavedByObjectVersion
1070
     0
  0
ACAD_PROXY_OBJECT
  5
41
102
{ACAD_REACTORS
330
2A
102
}
330
2A
100
AcDbProxyObject
 90
      499
 91
      501
 93
      516
310
4454DA18591959081DDA5D1A08195919D95CD1A40902404333333333333E33F0000000000000F901074090142907004050250800405405064090740C02480A0B40
1001
ACAD
1000
AcDbSavedByObjectVersion
1070
     0
  0
ACAD_PROXY_OBJECT
  5
3E
102
{ACAD_REACTORS
330
2A
102
}
330
2A
100
AcDbProxyObject
 90
      499
 91
      501
 93
      532
310
4394DA1859195CC81BD98811DC985E5174090240C333333333333E33F0000000000000F901079024090741D01000000000000111010841D405064090740C02480A0340
1001
ACAD
1000
AcDbSavedByObjectVersion
1070
     0
  0
ACAD_PROXY_OBJECT
  5
3F
102
{ACAD_REACTORS
330
2A
102
}
330
2A
100
AcDbProxyObject
 90
      499
 91
      501
 93
      476
310
41D4DAD95D18DA1E51840502408333333333333E33F0000000000000F901079024090741D01000000000000111010B41D405064090741802480A0340
1001
ACAD
1000
AcDbSavedByObjectVersion
1070
     0
  0
ACAD_PROXY_OBJECT
  5
37
102
{ACAD_REACTORS
330
2A
102
}
330
2A
100
AcDbProxyObject
 90
      499
 91
      501
 93
      412
310
41D51A1A58DAD95B90D409028333333333333E33F0000000000000F9010790141107004050150C41D405064090741402480A0350
1001
ACAD
1000
AcDbSavedByObjectVersion
1070
     0
  0
ACAD_PROXY_OBJECT
  5
30
102
{ACAD_REACTORS
330
2A
102
}
330
2A
100
AcDbProxyObject
 90
      499
 91
      501
 93
      420
310
4255DA5C99599C985B595059028333333333333E33F0000000000000F90107901411070040501600405405064090740C02480A0340
1001
ACAD
1000
AcDbSavedByObjectVersion
1070
     0
  0
ACAD_PROXY_OBJECT
  5
40
102
{ACAD_REACTORS
330
2A
102
}
330
2A
100
AcDbProxyObject
 90
      499
 91
      501
 93
      404
310
41560B54985E51940902404000000000000E03F0000000000000F9010740501907004050150841D405064090740C02480A1B40
1001
ACAD
1000
AcDbSavedByObjectVersion
1070
     0
  0
XRECORD
  5
202
102
{ACAD_REACTORS
330
1F8
102
}
330
1F8
100
AcDbXrecord
340
0
  0
XRECORD
  5
201
102
{ACAD_REACTORS
330
1F8
102
}
330
1F8
100
AcDbXrecord
 90
        0
  0
XRECORD
  5
218
102
{ACAD_REACTORS
330
1F8
102
}
330
1F8
100
AcDbXrecord
1000
DSTYLE
1002
{
1070
   171
 70
     2
1070
   143
 40
25.4
1070
   274
 70
     2
1070
    41
 40
0.18
1070
   141
 40
0.09
1070
   271
 70
     4
1070
    43
 40
0.38
1070
   278
 70
    46
1070
    44
 40
0.18
1070
    42
 40
0.0625
1070
   147
 40
0.09
1070
    77
 70
     0
1070
   272
 70
     4
1070
    73
 70
     1
1070
   172
 70
     0
1070
    74
 70
     1
1070
   283
 70
     1
1070
   340
340
11
1070
   140
 40
0.18
1070
   284
 70
     0
1070
    78
 70
     0
1002
}
  0
XRECORD
  5
203
102
{ACAD_REACTORS
330
1F8
102
}
330
1F8
100
AcDbXrecord
  1
{644BB3AF-7DC3-49C4-804F-9EE63263F5C3}
  0
XRECORD
  5
1FB
102
{ACAD_REACTORS
330
1F8
102
}
330
1F8
100
AcDbXrecord
  1

  0
XRECORD
  5
200
102
{ACAD_REACTORS
330
1F8
102
}
330
1F8
100
AcDbXrecord
 90
        4
  0
XRECORD
  5
1FD
102
{ACAD_REACTORS
330
1F8
102
}
330
1F8
100
AcDbXrecord
340
1A
  0
XRECORD
  5
1FF
102
{ACAD_REACTORS
330
1F8
102
}
330
1F8
100
AcDbXrecord
 90
    10781
  0
XRECORD
  5
1FE
102
{ACAD_REACTORS
330
1F8
102
}
330
1F8
100
AcDbXrecord
340
19
  0
XRECORD
  5
205
102
{ACAD_REACTORS
330
1F8
102
}
330
1F8
100
AcDbXrecord
 40
0.0
  0
XRECORD
  5
208
102
{ACAD_REACTORS
330
1F8
102
}
330
1F8
100
AcDbXrecord
340
0
  0
XRECORD
  5
20E
102
{ACAD_REACTORS
330
1F8
102
}
330
1F8
100
AcDbXrecord
 10
0.0
 20
0.0
 30
0.0
  0
XRECORD
  5
20A
102
{ACAD_REACTORS
330
1F8
102
}
330
1F8
100
AcDbXrecord
 10
0.0
 20
0.0
 30
0.0
  0
XRECORD
  5
20D
102
{ACAD_REACTORS
330
1F8
102
}
330
1F8
100
AcDbXrecord
 10
0.0
 20
0.0
 30
0.0
  0
XRECORD
  5
20B
102
{ACAD_REACTORS
330
1F8
102
}
330
1F8
100
AcDbXrecord
 10
0.0
 20
0.0
 30
0.0
  0
XRECORD
  5
20C
102
{ACAD_REACTORS
330
1F8
102
}
330
1F8
100
AcDbXrecord
 10
0.0
 20
0.0
 30
0.0
  0
XRECORD
  5
209
102
{ACAD_REACTORS
330
1F8
102
}
330
1F8
100
AcDbXrecord
 10
0.0
 20
0.0
 30
0.0
  0
XRECORD
  5
206
102
{ACAD_REACTORS
330
1F8
102
}
330
1F8
100
AcDbXrecord
340
0
  0
XRECORD
  5
207
102
{ACAD_REACTORS
330
1F8
102
}
330
1F8
100
AcDbXrecord
 70
     0
  0
XRECORD
  5
1FC
102
{ACAD_REACTORS
330
1F8
102
}
330
1F8
100
AcDbXrecord
  1

  0
XRECORD
  5
1F9
102
{ACAD_REACTORS
330
1F8
102
}
330
1F8
100
AcDbXrecord
 90
        1
  0
XRECORD
  5
1FA
102
{ACAD_REACTORS
330
1F8
102
}
330
1F8
100
AcDbXrecord
 90
       70
  0
XRECORD
  5
211
102
{ACAD_REACTORS
330
1F8
102
}
330
1F8
100
AcDbXrecord
340
0
  0
XRECORD
  5
217
102
{ACAD_REACTORS
330
1F8
102
}
330
1F8
100
AcDbXrecord
 10
0.0
 20
0.0
 30
0.0
  0
XRECORD
  5
213
102
{ACAD_REACTORS
330
1F8
102
}
330
1F8
100
AcDbXrecord
 10
0.0
 20
0.0
 30
0.0
  0
XRECORD
  5
216
102
{ACAD_REACTORS
330
1F8
102
}
330
1F8
100
AcDbXrecord
 10
0.0
 20
0.0
 30
0.0
  0
XRECORD
  5
214
102
{ACAD_REACTORS
330
1F8
102
}
330
1F8
100
AcDbXrecord
 10
0.0
 20
0.0
 30
0.0
  0
XRECORD
  5
215
102
{ACAD_REACTORS
330
1F8
102
}
330
1F8
100
AcDbXrecord
 10
0.0
 20
0.0
 30
0.0
  0
XRECORD
  5
212
102
{ACAD_REACTORS
330
1F8
102
}
330
1F8
100
AcDbXrecord
 10
0.0
 20
0.0
 30
0.0
  0
XRECORD
  5
20F
102
{ACAD_REACTORS
330
1F8
102
}
330
1F8
100
AcDbXrecord
340
0
  0
XRECORD
  5
210
102
{ACAD_REACTORS
330
1F8
102
}
330
1F8
100
AcDbXrecord
 70
     0
  0
XRECORD
  5
204
102
{ACAD_REACTORS
330
1F8
102
}
330
1F8
100
AcDbXrecord
  1
{FAEB1C32-E019-11D5-929B-00C0DF256EC4}
  0
DICTIONARYVAR
  5
222
102
{ACAD_REACTORS
330
219
102
}
330
219
100
DictionaryVariables
280
     0
  1
1:1
  0
DICTIONARYVAR
  5
21B
102
{ACAD_REACTORS
330
219
102
}
330
219
100
DictionaryVariables
280
     0
  1
Standard
  0
DICTIONARYVAR
  5
21A
102
{ACAD_REACTORS
330
219
102
}
330
219
100
DictionaryVariables
280
     0
  1
Standard
  0
DICTIONARYVAR
  5
21E
102
{ACAD_REACTORS
330
219
102
}
330
219
100
DictionaryVariables
280
     0
  1
2
  0
DICTIONARYVAR
  5
21F
102
{ACAD_REACTORS
330
219
102
}
330
219
100
DictionaryVariables
280
     0
  1
1
  0
DICTIONARYVAR
  5
223
102
{ACAD_REACTORS
330
219
102
}
330
219
100
DictionaryVariables
280
     0
  1
1
  0
DICTIONARY
  5
226
330
45
100
AcDbDictionary
280
     1
  3
ACAD_XREC_ROUNDTRIP
360
227
  0
DICTIONARY
  5
224
330
44
100
AcDbDictionary
280
     1
  3
ACAD_XREC_ROUNDTRIP
360
225
  0
DICTIONARY
  5
228
330
46
100
AcDbDictionary
280
     1
  3
ACAD_XREC_ROUNDTRIP
360
229
  0
XRECORD
  5
227
102
{ACAD_REACTORS
330
226
102
}
330
226
100
AcDbXrecord
102
MATERIAL
148
0.0
149
0.0
149
0.0
 93
        0
 94
      127
282
     0
 72
     1
 77
     1
171
     1
175
     1
179
     1
273
     0
  0
XRECORD
  5
225
102
{ACAD_REACTORS
330
224
102
}
330
224
100
AcDbXrecord
102
MATERIAL
148
0.0
149
0.0
149
0.0
 93
        0
 94
      127
282
     0
 72
     1
 77
     1
171
     1
175
     1
179
     1
273
     0
  0
XRECORD
  5
229
102
{ACAD_REACTORS
330
228
102
}
330
228
100
AcDbXrecord
102
MATERIAL
148
0.0
149
0.0
149
0.0
 93
        0
 94
      127
282
     0
 72
     1
 77
     1
171
     1
175
     1
179
     1
273
     0
  0
ENDSEC
  0
EOF
