999
dxflib 3.12.2.0
  0
SECTION
  2
HEADER
  9
$ACADVER
  1
AC1015
  9
$HANDSEED
  5
FFFF
  9
$DIMADEC
 70
0
  9
$DIMASZ
 40
0.125
  9
$DIMAUNIT
 70
0
  9
$DIMAZIN
 70
2
  9
$DIMDEC
 70
4
  9
$DIMDSEP
 70
46
  9
$DIMEXE
 40
0.0625
  9
$DIMEXO
 40
0.03125
  9
$DIMGAP
 40
0.03125
  9
$DIMLUNIT
 70
2
  9
$DIMSCALE
 40
1.0
  9
$DIMTSZ
 40
0.0
  9
$DIMTXT
 40
0.125
  9
$DIMZIN
 70
8
  9
$DWGCODEPAGE
  3
ANSI_1252
  9
$INSUNITS
 70
4
  9
$LTSCALE
 40
1.0
  9
$MAXACTVP
 70
32
  9
$MEASUREMENT
 70
1
  9
$PDMODE
 70
0
  9
$PDSIZE
 40
0
  0
ENDSEC
  0
SECTION
  2
TABLES
  0
TABLE
  2
VPORT
  5
8
100
AcDbSymbolTable
 70
1
  0
VPORT
  5
30
100
AcDbSymbolTableRecord
100
AcDbViewportTableRecord
  2
*Active
 70
0
 10
0.0
 20
0.0
 11
1.0
 21
1.0
 12
286.30555555555549
 22
148.5
 13
0.0
 23
0.0
 14
10.0
 24
10.0
 15
10.0
 25
10.0
 16
0.0
 26
0.0
 36
1.0
 17
0.0
 27
0.0
 37
0.0
 40
297.0
 41
1.92798353909465
 42
50.0
 43
0.0
 44
0.0
 50
0.0
 51
0.0
 71
0
 72
100
 73
1
 74
3
 75
1
 76
1
 77
0
 78
0
281
0
 65
1
110
0.0
120
0.0
130
0.0
111
1.0
121
0.0
131
0.0
112
0.0
122
1.0
132
0.0
 79
0
146
0.0
  0
ENDTAB
  0
TABLE
  2
LTYPE
  5
5
100
AcDbSymbolTable
 70
41
  0
LTYPE
  5
16
100
AcDbSymbolTableRecord
100
AcDbLinetypeTableRecord
  2
Continuous
 70
0
  3
Solid line
 72
65
 73
0
 40
0.0
  0
LTYPE
  5
14
100
AcDbSymbolTableRecord
100
AcDbLinetypeTableRecord
  2
BYBLOCK
 70
0
  3

 72
65
 73
0
 40
0.0
  0
LTYPE
  5
31
100
AcDbSymbolTableRecord
100
AcDbLinetypeTableRecord
  2
ACAD_ISO11W100
 70
0
  3
ISO double-dash dot __ __ . __ __ . __ __ . __ _
 72
65
 73
6
 40
33.0
 49
12.0
 74
0
 49
-3.0
 74
0
 49
12.0
 74
0
 49
-3.0
 74
0
 49
0.0
 74
0
 49
-3.0
 74
0
  0
LTYPE
  5
32
100
AcDbSymbolTableRecord
100
AcDbLinetypeTableRecord
  2
ACAD_ISO02W100
 70
0
  3
ISO dash __ __ __ __ __ __ __ __ __ __ __ __ __
 72
65
 73
2
 40
15.0
 49
12.0
 74
0
 49
-3.0
 74
0
  0
LTYPE
  5
33
100
AcDbSymbolTableRecord
100
AcDbLinetypeTableRecord
  2
DASHED2
 70
0
  3
Dashed (.5x) _ _ _ _ _ _ _ _ _ _ _ _ _ _ _ _ _ 
 72
65
 73
2
 40
9.5249999999999986
 49
6.3499999999999996
 74
0
 49
-3.1749999999999998
 74
0
  0
LTYPE
  5
34
100
AcDbSymbolTableRecord
100
AcDbLinetypeTableRecord
  2
DOT2
 70
0
  3
Dot (.5x) ........................................
 72
65
 73
2
 40
3.1749999999999998
 49
0.0
 74
0
 49
-3.1749999999999998
 74
0
  0
LTYPE
  5
35
100
AcDbSymbolTableRecord
100
AcDbLinetypeTableRecord
  2
BORDER2
 70
0
  3
Border (.5x) __.__.__.__.__.__.__.__.__.__.__.
 72
65
 73
6
 40
22.224999999999998
 49
6.3499999999999996
 74
0
 49
-3.1749999999999998
 74
0
 49
6.3499999999999996
 74
0
 49
-3.1749999999999998
 74
0
 49
0.0
 74
0
 49
-3.1749999999999998
 74
0
  0
LTYPE
  5
36
100
AcDbSymbolTableRecord
100
AcDbLinetypeTableRecord
  2
HIDDEN
 70
0
  3
Hidden __ __ __ __ __ __ __ __ __ __ __ __ __ __
 72
65
 73
2
 40
9.5249999999999986
 49
6.3499999999999996
 74
0
 49
-3.1749999999999998
 74
0
  0
LTYPE
  5
37
100
AcDbSymbolTableRecord
100
AcDbLinetypeTableRecord
  2
ACAD_ISO05W100
 70
0
  3
ISO long-dash double-dot ____ .. ____ .. ____ . 
 72
65
 73
6
 40
33.0
 49
24.0
 74
0
 49
-3.0
 74
0
 49
0.0
 74
0
 49
-3.0
 74
0
 49
0.0
 74
0
 49
-3.0
 74
0
  0
LTYPE
  5
38
100
AcDbSymbolTableRecord
100
AcDbLinetypeTableRecord
  2
DIVIDE
 70
0
  3
Divide ____ . . ____ . . ____ . . ____ . . ____
 72
65
 73
6
 40
31.75
 49
12.699999999999999
 74
0
 49
-6.3499999999999996
 74
0
 49
0.0
 74
0
 49
-6.3499999999999996
 74
0
 49
0.0
 74
0
 49
-6.3499999999999996
 74
0
  0
LTYPE
  5
39
100
AcDbSymbolTableRecord
100
AcDbLinetypeTableRecord
  2
DIVIDE2
 70
0
  3
Divide (.5x) __..__..__..__..__..__..__..__.._
 72
65
 73
6
 40
15.875
 49
6.3499999999999996
 74
0
 49
-3.1749999999999998
 74
0
 49
0.0
 74
0
 49
-3.1749999999999998
 74
0
 49
0.0
 74
0
 49
-3.1749999999999998
 74
0
  0
LTYPE
  5
3A
100
AcDbSymbolTableRecord
100
AcDbLinetypeTableRecord
  2
DASHDOT2
 70
0
  3
Dash dot (.5x) _._._._._._._._._._._._._._._.
 72
65
 73
4
 40
12.699999999999999
 49
6.3499999999999996
 74
0
 49
-3.1749999999999998
 74
0
 49
0.0
 74
0
 49
-3.1749999999999998
 74
0
  0
LTYPE
  5
3B
100
AcDbSymbolTableRecord
100
AcDbLinetypeTableRecord
  2
DASHED
 70
0
  3
Dashed __ __ __ __ __ __ __ __ __ __ __ __ __ _
 72
65
 73
2
 40
19.049999999999997
 49
12.699999999999999
 74
0
 49
-6.3499999999999996
 74
0
  0
LTYPE
  5
3C
100
AcDbSymbolTableRecord
100
AcDbLinetypeTableRecord
  2
BORDER
 70
0
  3
Border __ __ . __ __ . __ __ . __ __ . __ __ .
 72
65
 73
6
 40
44.449999999999996
 49
12.699999999999999
 74
0
 49
-6.3499999999999996
 74
0
 49
12.699999999999999
 74
0
 49
-6.3499999999999996
 74
0
 49
0.0
 74
0
 49
-6.3499999999999996
 74
0
  0
LTYPE
  5
3D
100
AcDbSymbolTableRecord
100
AcDbLinetypeTableRecord
  2
ACAD_ISO07W100
 70
0
  3
ISO dot . . . . . . . . . . . . . . . . . . . . 
 72
65
 73
2
 40
3.0
 49
0.0
 74
0
 49
-3.0
 74
0
  0
LTYPE
  5
3E
100
AcDbSymbolTableRecord
100
AcDbLinetypeTableRecord
  2
ACAD_ISO03W100
 70
0
  3
ISO dash space __    __    __    __    __    __
 72
65
 73
2
 40
30.0
 49
12.0
 74
0
 49
-18.0
 74
0
  0
LTYPE
  5
3F
100
AcDbSymbolTableRecord
100
AcDbLinetypeTableRecord
  2
ACAD_ISO13W100
 70
0
  3
ISO double-dash double-dot __ __ . . __ __ . . _
 72
65
 73
8
 40
36.0
 49
12.0
 74
0
 49
-3.0
 74
0
 49
12.0
 74
0
 49
-3.0
 74
0
 49
0.0
 74
0
 49
-3.0
 74
0
 49
0.0
 74
0
 49
-3.0
 74
0
  0
LTYPE
  5
40
100
AcDbSymbolTableRecord
100
AcDbLinetypeTableRecord
  2
DOTX2
 70
0
  3
Dot (2x) .  .  .  .  .  .  .  .  .  .  .  .  .  .
 72
65
 73
2
 40
12.699999999999999
 49
0.0
 74
0
 49
-12.699999999999999
 74
0
  0
LTYPE
  5
41
100
AcDbSymbolTableRecord
100
AcDbLinetypeTableRecord
  2
HIDDEN2
 70
0
  3
Hidden (.5x) _ _ _ _ _ _ _ _ _ _ _ _ _ _ _ _ _ 
 72
65
 73
2
 40
4.7624999999999993
 49
3.1749999999999998
 74
0
 49
-1.5874999999999999
 74
0
  0
LTYPE
  5
42
100
AcDbSymbolTableRecord
100
AcDbLinetypeTableRecord
  2
CENTER2
 70
0
  3
Center (.5x) ___ _ ___ _ ___ _ ___ _ ___ _ ___
 72
65
 73
4
 40
28.575000000000003
 49
19.050000000000001
 74
0
 49
-3.1749999999999998
 74
0
 49
3.1749999999999998
 74
0
 49
-3.1749999999999998
 74
0
  0
LTYPE
  5
43
100
AcDbSymbolTableRecord
100
AcDbLinetypeTableRecord
  2
ACAD_ISO14W100
 70
0
  3
ISO dash triple-dot __ . . . __ . . . __ . . . _
 72
65
 73
8
 40
24.0
 49
12.0
 74
0
 49
-3.0
 74
0
 49
0.0
 74
0
 49
-3.0
 74
0
 49
0.0
 74
0
 49
-3.0
 74
0
 49
0.0
 74
0
 49
-3.0
 74
0
  0
LTYPE
  5
44
100
AcDbSymbolTableRecord
100
AcDbLinetypeTableRecord
  2
ACAD_ISO09W100
 70
0
  3
ISO long-dash double-short-dash ____ __ __ ____
 72
65
 73
6
 40
45.0
 49
24.0
 74
0
 49
-3.0
 74
0
 49
6.0
 74
0
 49
-3.0
 74
0
 49
6.0
 74
0
 49
-3.0
 74
0
  0
LTYPE
  5
45
100
AcDbSymbolTableRecord
100
AcDbLinetypeTableRecord
  2
CENTER
 70
0
  3
Center ____ _ ____ _ ____ _ ____ _ ____ _ ____
 72
65
 73
4
 40
50.800000000000004
 49
31.75
 74
0
 49
-6.3499999999999996
 74
0
 49
6.3499999999999996
 74
0
 49
-6.3499999999999996
 74
0
  0
LTYPE
  5
46
100
AcDbSymbolTableRecord
100
AcDbLinetypeTableRecord
  2
DASHDOTX2
 70
0
  3
Dash dot (2x) ____  .  ____  .  ____  .  ___
 72
65
 73
4
 40
50.799999999999997
 49
25.399999999999999
 74
0
 49
-12.699999999999999
 74
0
 49
0.0
 74
0
 49
-12.699999999999999
 74
0
  0
LTYPE
  5
47
100
AcDbSymbolTableRecord
100
AcDbLinetypeTableRecord
  2
PHANTOM2
 70
0
  3
Phantom (.5x) ___ _ _ ___ _ _ ___ _ _ ___ _ _
 72
65
 73
6
 40
31.750000000000004
 49
15.875
 74
0
 49
-3.1749999999999998
 74
0
 49
3.1749999999999998
 74
0
 49
-3.1749999999999998
 74
0
 49
3.1749999999999998
 74
0
 49
-3.1749999999999998
 74
0
  0
LTYPE
  5
48
100
AcDbSymbolTableRecord
100
AcDbLinetypeTableRecord
  2
CENTERX2
 70
0
  3
Center (2x) ________  __  ________  __  _____
 72
65
 73
4
 40
101.60000000000001
 49
63.5
 74
0
 49
-12.699999999999999
 74
0
 49
12.699999999999999
 74
0
 49
-12.699999999999999
 74
0
  0
LTYPE
  5
49
100
AcDbSymbolTableRecord
100
AcDbLinetypeTableRecord
  2
ACAD_ISO06W100
 70
0
  3
ISO long-dash triple-dot ____ ... ____ ... ____
 72
65
 73
8
 40
36.0
 49
24.0
 74
0
 49
-3.0
 74
0
 49
0.0
 74
0
 49
-3.0
 74
0
 49
0.0
 74
0
 49
-3.0
 74
0
 49
0.0
 74
0
 49
-3.0
 74
0
  0
LTYPE
  5
4A
100
AcDbSymbolTableRecord
100
AcDbLinetypeTableRecord
  2
ACAD_ISO10W100
 70
0
  3
ISO dash dot __ . __ . __ . __ . __ . __ . __ . 
 72
65
 73
4
 40
18.0
 49
12.0
 74
0
 49
-3.0
 74
0
 49
0.0
 74
0
 49
-3.0
 74
0
  0
LTYPE
  5
4B
100
AcDbSymbolTableRecord
100
AcDbLinetypeTableRecord
  2
HIDDENX2
 70
0
  3
Hidden (2x) ____ ____ ____ ____ ____ ____ ____ 
 72
65
 73
2
 40
19.049999999999997
 49
12.699999999999999
 74
0
 49
-6.3499999999999996
 74
0
  0
LTYPE
  5
4C
100
AcDbSymbolTableRecord
100
AcDbLinetypeTableRecord
  2
DIVIDEX2
 70
0
  3
Divide (2x) ________  .  .  ________  .  .  _
 72
65
 73
6
 40
63.5
 49
25.399999999999999
 74
0
 49
-12.699999999999999
 74
0
 49
0.0
 74
0
 49
-12.699999999999999
 74
0
 49
0.0
 74
0
 49
-12.699999999999999
 74
0
  0
LTYPE
  5
4D
100
AcDbSymbolTableRecord
100
AcDbLinetypeTableRecord
  2
ACAD_ISO12W100
 70
0
  3
ISO dash double-dot __ . . __ . . __ . . __ . . 
 72
65
 73
6
 40
21.0
 49
12.0
 74
0
 49
-3.0
 74
0
 49
0.0
 74
0
 49
-3.0
 74
0
 49
0.0
 74
0
 49
-3.0
 74
0
  0
LTYPE
  5
4E
100
AcDbSymbolTableRecord
100
AcDbLinetypeTableRecord
  2
PHANTOM
 70
0
  3
Phantom ______  __  __  ______  __  __  ______ 
 72
65
 73
6
 40
63.500000000000007
 49
31.75
 74
0
 49
-6.3499999999999996
 74
0
 49
6.3499999999999996
 74
0
 49
-6.3499999999999996
 74
0
 49
6.3499999999999996
 74
0
 49
-6.3499999999999996
 74
0
  0
LTYPE
  5
4F
100
AcDbSymbolTableRecord
100
AcDbLinetypeTableRecord
  2
PHANTOMX2
 70
0
  3
Phantom (2x) ____________    ____    ____   _
 72
65
 73
6
 40
127.00000000000001
 49
63.5
 74
0
 49
-12.699999999999999
 74
0
 49
12.699999999999999
 74
0
 49
-12.699999999999999
 74
0
 49
12.699999999999999
 74
0
 49
-12.699999999999999
 74
0
  0
LTYPE
  5
50
100
AcDbSymbolTableRecord
100
AcDbLinetypeTableRecord
  2
ACAD_ISO04W100
 70
0
  3
ISO long-dash dot ____ . ____ . ____ . ____ . _
 72
65
 73
4
 40
30.0
 49
24.0
 74
0
 49
-3.0
 74
0
 49
0.0
 74
0
 49
-3.0
 74
0
  0
LTYPE
  5
51
100
AcDbSymbolTableRecord
100
AcDbLinetypeTableRecord
  2
ACAD_ISO15W100
 70
0
  3
ISO double-dash triple-dot __ __ . . . __ __ . .
 72
65
 73
10
 40
39.0
 49
12.0
 74
0
 49
-3.0
 74
0
 49
12.0
 74
0
 49
-3.0
 74
0
 49
0.0
 74
0
 49
-3.0
 74
0
 49
0.0
 74
0
 49
-3.0
 74
0
 49
0.0
 74
0
 49
-3.0
 74
0
  0
LTYPE
  5
52
100
AcDbSymbolTableRecord
100
AcDbLinetypeTableRecord
  2
DOT
 70
0
  3
Dot . . . . . . . . . . . . . . . . . . . . . . . .
 72
65
 73
2
 40
6.3499999999999996
 49
0.0
 74
0
 49
-6.3499999999999996
 74
0
  0
LTYPE
  5
53
100
AcDbSymbolTableRecord
100
AcDbLinetypeTableRecord
  2
DASHEDX2
 70
0
  3
Dashed (2x) ____  ____  ____  ____  ____  ___
 72
65
 73
2
 40
38.099999999999994
 49
25.399999999999999
 74
0
 49
-12.699999999999999
 74
0
  0
LTYPE
  5
54
100
AcDbSymbolTableRecord
100
AcDbLinetypeTableRecord
  2
DASHDOT
 70
0
  3
Dash dot __ . __ . __ . __ . __ . __ . __ . __
 72
65
 73
4
 40
25.399999999999999
 49
12.699999999999999
 74
0
 49
-6.3499999999999996
 74
0
 49
0.0
 74
0
 49
-6.3499999999999996
 74
0
  0
LTYPE
  5
55
100
AcDbSymbolTableRecord
100
AcDbLinetypeTableRecord
  2
BORDERX2
 70
0
  3
Border (2x) ____  ____  .  ____  ____  .  ___
 72
65
 73
6
 40
88.899999999999991
 49
25.399999999999999
 74
0
 49
-12.699999999999999
 74
0
 49
25.399999999999999
 74
0
 49
-12.699999999999999
 74
0
 49
0.0
 74
0
 49
-12.699999999999999
 74
0
  0
LTYPE
  5
56
100
AcDbSymbolTableRecord
100
AcDbLinetypeTableRecord
  2
ACAD_ISO08W100
 70
0
  3
ISO long-dash short-dash ____ __ ____ __ ____ _
 72
65
 73
4
 40
36.0
 49
24.0
 74
0
 49
-3.0
 74
0
 49
6.0
 74
0
 49
-3.0
 74
0
  0
LTYPE
  5
15
100
AcDbSymbolTableRecord
100
AcDbLinetypeTableRecord
  2
BYLAYER
 70
0
  3

 72
65
 73
0
 40
0.0
  0
ENDTAB
  0
TABLE
  2
LAYER
  5
2
100
AcDbSymbolTable
 70
1
  0
LAYER
  5
10
100
AcDbSymbolTableRecord
100
AcDbLayerTableRecord
  2
0
 70
0
 62
7
420
16777215
  6
Continuous
370
25
390
F
  0
ENDTAB
  0
TABLE
  2
STYLE
  5
3
100
AcDbSymbolTable
 70
1
  0
STYLE
  5
57
100
AcDbSymbolTableRecord
100
AcDbTextStyleTableRecord
  2
Standard
 70
0
 40
0.0
 41
1.0
 50
0.0
 71
0
 42
2.5
  3

  4

1001
ACAD
1000
txt
1071
0
  0
ENDTAB
  0
TABLE
  2
VIEW
  5
6
100
AcDbSymbolTable
 70
0
  0
ENDTAB
  0
TABLE
  2
UCS
  5
7
100
AcDbSymbolTable
 70
0
  0
ENDTAB
  0
TABLE
  2
APPID
  5
9
100
AcDbSymbolTable
 70
1
  0
APPID
  5
12
100
AcDbSymbolTableRecord
100
AcDbRegAppTableRecord
  2
ACAD
 70
0
  0
APPID
  5
58
100
AcDbSymbolTableRecord
100
AcDbRegAppTableRecord
  2
QCAD
 70
0
  0
ENDTAB
  0
TABLE
  2
DIMSTYLE
  5
A
100
AcDbSymbolTable
 70
1
100
AcDbDimStyleTable
 71
0
  0
DIMSTYLE
105
27
100
AcDbSymbolTableRecord
100
AcDbDimStyleTableRecord
  2
Standard
 41
0.125
 42
0.03125
 43
3.75
 44
0.0625
 70
0
 73
0
 74
0
 77
1
 78
8
140
0.125
141
2.5
143
0.03937007874016
147
0.03125
171
3
172
1
271
2
272
2
274
3
278
44
283
0
284
8
340
57
  0
ENDTAB
  0
TABLE
  2
BLOCK_RECORD
  5
1
100
AcDbSymbolTable
 70
1
  0
BLOCK_RECORD
  5
1F
100
AcDbSymbolTableRecord
100
AcDbBlockTableRecord
  2
*Model_Space
340
22
  0
BLOCK_RECORD
  5
1B
100
AcDbSymbolTableRecord
100
AcDbBlockTableRecord
  2
*Paper_Space
340
1E
  0
BLOCK_RECORD
  5
23
100
AcDbSymbolTableRecord
100
AcDbBlockTableRecord
  2
*Paper_Space0
340
26
  0
ENDTAB
  0
ENDSEC
  0
SECTION
  2
BLOCKS
  0
BLOCK
  5
20
100
AcDbEntity
  8
0
100
AcDbBlockBegin
  2
*Model_Space
 70
0
 10
0.0
 20
0.0
 30
0.0
  3
*Model_Space
  1

  0
ENDBLK
  5
21
100
AcDbEntity
  8
0
100
AcDbBlockEnd
  0
BLOCK
  5
1C
100
AcDbEntity
 67
1
  8
0
100
AcDbBlockBegin
  2
*Paper_Space
 70
0
 10
0.0
 20
0.0
 30
0.0
  3
*Paper_Space
  1

  0
ENDBLK
  5
1D
100
AcDbEntity
 67
1
  8
0
100
AcDbBlockEnd
  0
BLOCK
  5
24
100
AcDbEntity
  8
0
100
AcDbBlockBegin
  2
*Paper_Space0
 70
0
 10
0.0
 20
0.0
 30
0.0
  3
*Paper_Space0
  1

  0
ENDBLK
  5
25
100
AcDbEntity
  8
0
100
AcDbBlockEnd
  0
ENDSEC
  0
SECTION
  2
ENTITIES
  0
CIRCLE
  5
59
100
AcDbEntity
  8
0
 62
256
370
-1
 48
1.0
  6
BYLAYER
100
AcDbCircle
 10
18.0
 20
38.0
 30
0.0
 40
2.25
  0
CIRCLE
  5
5A
100
AcDbEntity
  8
0
 62
256
370
-1
 48
1.0
  6
BYLAYER
100
AcDbCircle
 10
36.0
 20
38.0
 30
0.0
 40
2.25
  0
CIRCLE
  5
5B
100
AcDbEntity
  8
0
 62
256
370
-1
 48
1.0
  6
BYLAYER
100
AcDbCircle
 10
18.0
 20
1.7999999999999936
 30
0.0
 40
2.25
  0
CIRCLE
  5
5C
100
AcDbEntity
  8
0
 62
256
370
-1
 48
1.0
  6
BYLAYER
100
AcDbCircle
 10
36.0
 20
1.7999999999999972
 30
0.0
 40
2.25
  0
CIRCLE
  5
5D
100
AcDbEntity
  8
0
 62
256
370
-1
 48
1.0
  6
BYLAYER
100
AcDbCircle
 10
54.0
 20
38.0
 30
0.0
 40
2.25
  0
CIRCLE
  5
5E
100
AcDbEntity
  8
0
 62
256
370
-1
 48
1.0
  6
BYLAYER
100
AcDbCircle
 10
0.0
 20
1.7999999999999972
 30
0.0
 40
2.25
  0
CIRCLE
  5
5F
100
AcDbEntity
  8
0
 62
256
370
-1
 48
1.0
  6
BYLAYER
100
AcDbCircle
 10
54.0
 20
1.7999999999999972
 30
0.0
 40
2.25
  0
CIRCLE
  5
60
100
AcDbEntity
  8
0
 62
256
370
-1
 48
1.0
  6
BYLAYER
100
AcDbCircle
 10
0.0
 20
38.0
 30
0.0
 40
2.25
  0
LINE
  5
61
100
AcDbEntity
  8
0
 62
256
370
-1
 48
1.0
  6
BYLAYER
100
AcDbLine
 10
-1.9999999999999902
 20
24.0
 30
0.0
 11
-2.0
 21
30.0
 31
0.0
  0
LINE
  5
62
100
AcDbEntity
  8
0
 62
256
370
-1
 48
1.0
  6
BYLAYER
100
AcDbLine
 10
20.0
 20
52.0
 30
0.0
 11
19.999999999999993
 21
46.0
 31
0.0
  0
LINE
  5
63
100
AcDbEntity
  8
0
 62
256
370
-1
 48
1.0
  6
BYLAYER
100
AcDbLine
 10
34.0
 20
52.0
 30
0.0
 11
34.000000000000007
 21
46.0
 31
0.0
  0
LINE
  5
64
100
AcDbEntity
  8
0
 62
256
370
-1
 48
1.0
  6
BYLAYER
100
AcDbLine
 10
-2.0
 20
52.0
 30
0.0
 11
-1.9999999999999891
 21
46.0
 31
0.0
  0
LINE
  5
65
100
AcDbEntity
  8
0
 62
256
370
-1
 48
1.0
  6
BYLAYER
100
AcDbLine
 10
19.999999999999989
 20
24.0
 30
0.0
 11
20.0
 21
30.0
 31
0.0
  0
LINE
  5
66
100
AcDbEntity
  8
0
 62
256
370
-1
 48
1.0
  6
BYLAYER
100
AcDbLine
 10
34.0
 20
-12.200000000000003
 30
0.0
 11
34.000000000000007
 21
-6.1999999999999993
 31
0.0
  0
LINE
  5
67
100
AcDbEntity
  8
0
 62
256
370
-1
 48
1.0
  6
BYLAYER
100
AcDbLine
 10
19.999999999999996
 20
-12.200000000000003
 30
0.0
 11
19.999999999999993
 21
-6.2000000000000028
 31
0.0
  0
LINE
  5
68
100
AcDbEntity
  8
0
 62
256
370
-1
 48
1.0
  6
BYLAYER
100
AcDbLine
 10
-2.0
 20
-12.200000000000003
 30
0.0
 11
-1.9999999999999964
 21
-6.1999999999999993
 31
0.0
  0
LINE
  5
69
100
AcDbEntity
  8
0
 62
256
370
-1
 48
1.0
  6
BYLAYER
100
AcDbLine
 10
19.999999999999989
 20
15.799999999999997
 30
0.0
 11
20.0
 21
9.7999999999999972
 31
0.0
  0
LINE
  5
6A
100
AcDbEntity
  8
0
 62
256
370
-1
 48
1.0
  6
BYLAYER
100
AcDbLine
 10
56.000000000000007
 20
52.0
 30
0.0
 11
56.0
 21
46.0
 31
0.0
  0
LINE
  5
6B
100
AcDbEntity
  8
0
 62
256
370
-1
 48
1.0
  6
BYLAYER
100
AcDbLine
 10
55.999999999999986
 20
24.0
 30
0.0
 11
56.0
 21
30.000000000000007
 31
0.0
  0
LINE
  5
6C
100
AcDbEntity
  8
0
 62
256
370
-1
 48
1.0
  6
BYLAYER
100
AcDbLine
 10
34.000000000000014
 20
24.0
 30
0.0
 11
34.0
 21
30.0
 31
0.0
  0
LINE
  5
6D
100
AcDbEntity
  8
0
 62
256
370
-1
 48
1.0
  6
BYLAYER
100
AcDbLine
 10
56.000000000000007
 20
-12.200000000000003
 30
0.0
 11
56.0
 21
-6.2000000000000064
 31
0.0
  0
LINE
  5
6E
100
AcDbEntity
  8
0
 62
256
370
-1
 48
1.0
  6
BYLAYER
100
AcDbLine
 10
-1.9999999999999893
 20
15.800000000000002
 30
0.0
 11
-2.0
 21
9.7999999999999972
 31
0.0
  0
LINE
  5
6F
100
AcDbEntity
  8
0
 62
256
370
-1
 48
1.0
  6
BYLAYER
100
AcDbLine
 10
55.999999999999986
 20
15.800000000000011
 30
0.0
 11
56.0
 21
9.7999999999999936
 31
0.0
  0
LINE
  5
70
100
AcDbEntity
  8
0
 62
256
370
-1
 48
1.0
  6
BYLAYER
100
AcDbLine
 10
34.000000000000014
 20
15.799999999999997
 30
0.0
 11
34.0
 21
9.7999999999999972
 31
0.0
  0
LINE
  5
71
100
AcDbEntity
  8
0
 62
256
370
-1
 48
1.0
  6
BYLAYER
100
AcDbLine
 10
2.0000000000000075
 20
24.000000000000004
 30
0.0
 11
2.0
 21
30.0
 31
0.0
  0
LINE
  5
72
100
AcDbEntity
  8
0
 62
256
370
-1
 48
1.0
  6
BYLAYER
100
AcDbLine
 10
16.0
 20
52.0
 30
0.0
 11
15.999999999999996
 21
46.0
 31
0.0
  0
LINE
  5
73
100
AcDbEntity
  8
0
 62
256
370
-1
 48
1.0
  6
BYLAYER
100
AcDbLine
 10
38.000000000000007
 20
52.0
 30
0.0
 11
38.0
 21
46.0
 31
0.0
  0
LINE
  5
74
100
AcDbEntity
  8
0
 62
256
370
-1
 48
1.0
  6
BYLAYER
100
AcDbLine
 10
15.999999999999991
 20
24.0
 30
0.0
 11
16.0
 21
30.000000000000004
 31
0.0
  0
LINE
  5
75
100
AcDbEntity
  8
0
 62
256
370
-1
 48
1.0
  6
BYLAYER
100
AcDbLine
 10
2.0
 20
52.0
 30
0.0
 11
2.0000000000000062
 21
46.0
 31
0.0
  0
LINE
  5
76
100
AcDbEntity
  8
0
 62
256
370
-1
 48
1.0
  6
BYLAYER
100
AcDbLine
 10
38.0
 20
-12.200000000000003
 30
0.0
 11
38.0
 21
-6.2000000000000099
 31
0.0
  0
LINE
  5
77
100
AcDbEntity
  8
0
 62
256
370
-1
 48
1.0
  6
BYLAYER
100
AcDbLine
 10
16.0
 20
-12.200000000000003
 30
0.0
 11
15.999999999999998
 21
-6.2000000000000028
 31
0.0
  0
LINE
  5
78
100
AcDbEntity
  8
0
 62
256
370
-1
 48
1.0
  6
BYLAYER
100
AcDbLine
 10
15.999999999999991
 20
15.799999999999997
 30
0.0
 11
16.0
 21
9.7999999999999936
 31
0.0
  0
LINE
  5
79
100
AcDbEntity
  8
0
 62
256
370
-1
 48
1.0
  6
BYLAYER
100
AcDbLine
 10
2.0000000000000036
 20
-12.200000000000003
 30
0.0
 11
2.0000000000000089
 21
-6.2000000000000028
 31
0.0
  0
LINE
  5
7A
100
AcDbEntity
  8
0
 62
256
370
-1
 48
1.0
  6
BYLAYER
100
AcDbLine
 10
51.999999999999986
 20
24.0
 30
0.0
 11
52.0
 21
30.000000000000007
 31
0.0
  0
LINE
  5
7B
100
AcDbEntity
  8
0
 62
256
370
-1
 48
1.0
  6
BYLAYER
100
AcDbLine
 10
52.0
 20
52.0
 30
0.0
 11
52.000000000000007
 21
46.0
 31
0.0
  0
LINE
  5
7C
100
AcDbEntity
  8
0
 62
256
370
-1
 48
1.0
  6
BYLAYER
100
AcDbLine
 10
38.000000000000014
 20
24.000000000000004
 30
0.0
 11
38.0
 21
30.000000000000007
 31
0.0
  0
LINE
  5
7D
100
AcDbEntity
  8
0
 62
256
370
-1
 48
1.0
  6
BYLAYER
100
AcDbLine
 10
2.0000000000000071
 20
15.800000000000001
 30
0.0
 11
1.9999999999999982
 21
9.7999999999999989
 31
0.0
  0
LINE
  5
7E
100
AcDbEntity
  8
0
 62
256
370
-1
 48
1.0
  6
BYLAYER
100
AcDbLine
 10
51.999999999999986
 20
15.799999999999983
 30
0.0
 11
52.0
 21
9.7999999999999829
 31
0.0
  0
LINE
  5
7F
100
AcDbEntity
  8
0
 62
256
370
-1
 48
1.0
  6
BYLAYER
100
AcDbLine
 10
52.0
 20
-12.199999999999996
 30
0.0
 11
52.000000000000007
 21
-6.2000000000000099
 31
0.0
  0
LINE
  5
80
100
AcDbEntity
  8
0
 62
256
370
-1
 48
1.0
  6
BYLAYER
100
AcDbLine
 10
38.000000000000014
 20
15.799999999999995
 30
0.0
 11
38.0
 21
9.7999999999999901
 31
0.0
  0
ARC
  5
81
100
AcDbEntity
  8
0
 62
256
370
-1
 48
1.0
  6
BYLAYER
100
AcDbCircle
 10
0.0000000000000093
 20
24.0
 30
0.0
 40
2.0
100
AcDbArc
 50
180.0
 51
240.00000000000003
  0
ARC
  5
82
100
AcDbEntity
  8
0
 62
256
370
-1
 48
1.0
  6
BYLAYER
100
AcDbCircle
 10
17.999999999999989
 20
24.0
 30
0.0
 40
2.0
100
AcDbArc
 50
300.0
 51
0.0
  0
ARC
  5
83
100
AcDbEntity
  8
0
 62
256
370
-1
 48
1.0
  6
BYLAYER
100
AcDbCircle
 10
17.999999999999989
 20
15.799999999999997
 30
0.0
 40
2.0
100
AcDbArc
 50
0.0
 51
60.000000000000057
  0
ARC
  5
84
100
AcDbEntity
  8
0
 62
256
370
-1
 48
1.0
  6
BYLAYER
100
AcDbCircle
 10
53.999999999999986
 20
24.0
 30
0.0
 40
2.0
100
AcDbArc
 50
300.0
 51
0.0
  0
ARC
  5
85
100
AcDbEntity
  8
0
 62
256
370
-1
 48
1.0
  6
BYLAYER
100
AcDbCircle
 10
36.000000000000014
 20
24.0
 30
0.0
 40
2.0
100
AcDbArc
 50
180.0
 51
240.00000000000003
  0
ARC
  5
86
100
AcDbEntity
  8
0
 62
256
370
-1
 48
1.0
  6
BYLAYER
100
AcDbCircle
 10
0.0000000000000107
 20
15.799999999999997
 30
0.0
 40
2.0
100
AcDbArc
 50
119.99999999999997
 51
180.0
  0
ARC
  5
87
100
AcDbEntity
  8
0
 62
256
370
-1
 48
1.0
  6
BYLAYER
100
AcDbCircle
 10
53.999999999999986
 20
15.79999999999999
 30
0.0
 40
2.0
100
AcDbArc
 50
0.0
 51
60.000000000000057
  0
ARC
  5
88
100
AcDbEntity
  8
0
 62
256
370
-1
 48
1.0
  6
BYLAYER
100
AcDbCircle
 10
36.000000000000014
 20
15.799999999999986
 30
0.0
 40
2.0
100
AcDbArc
 50
119.99999999999997
 51
180.0
  0
ARC
  5
89
100
AcDbEntity
  8
0
 62
256
370
-1
 48
1.0
  6
BYLAYER
100
AcDbCircle
 10
-1.4999999999999916
 20
18.39807621135332
 30
0.0
 40
1.0
100
AcDbArc
 50
300.00000000000006
 51
0.0
  0
ARC
  5
8A
100
AcDbEntity
  8
0
 62
256
370
-1
 48
1.0
  6
BYLAYER
100
AcDbCircle
 10
-1.4999999999999911
 20
21.401923788646684
 30
0.0
 40
1.0
100
AcDbArc
 50
0.0
 51
59.999999999999943
  0
ARC
  5
8B
100
AcDbEntity
  8
0
 62
256
370
-1
 48
1.0
  6
BYLAYER
100
AcDbCircle
 10
19.499999999999986
 20
21.401923788646684
 30
0.0
 40
1.0
100
AcDbArc
 50
120.00000000000007
 51
180.0
  0
ARC
  5
8C
100
AcDbEntity
  8
0
 62
256
370
-1
 48
1.0
  6
BYLAYER
100
AcDbCircle
 10
34.500000000000014
 20
18.398076211353334
 30
0.0
 40
1.0
100
AcDbArc
 50
300.00000000000006
 51
0.0
  0
ARC
  5
8D
100
AcDbEntity
  8
0
 62
256
370
-1
 48
1.0
  6
BYLAYER
100
AcDbCircle
 10
19.499999999999986
 20
18.398076211353313
 30
0.0
 40
1.0
100
AcDbArc
 50
180.0
 51
239.99999999999994
  0
ARC
  5
8E
100
AcDbEntity
  8
0
 62
256
370
-1
 48
1.0
  6
BYLAYER
100
AcDbCircle
 10
55.499999999999986
 20
21.401923788646684
 30
0.0
 40
1.0
100
AcDbArc
 50
120.00000000000007
 51
180.0
  0
ARC
  5
8F
100
AcDbEntity
  8
0
 62
256
370
-1
 48
1.0
  6
BYLAYER
100
AcDbCircle
 10
34.500000000000014
 20
21.401923788646684
 30
0.0
 40
1.0
100
AcDbArc
 50
0.0
 51
59.999999999999936
  0
ARC
  5
90
100
AcDbEntity
  8
0
 62
256
370
-1
 48
1.0
  6
BYLAYER
100
AcDbCircle
 10
55.499999999999986
 20
18.398076211353498
 30
0.0
 40
1.0
100
AcDbArc
 50
180.0
 51
239.99999999999994
  0
ARC
  5
91
100
AcDbEntity
  8
0
 62
256
370
-1
 48
1.0
  6
BYLAYER
100
AcDbCircle
 10
0.0000000000000093
 20
24.0
 30
0.0
 40
2.0
100
AcDbArc
 50
300.0
 51
0.0
  0
ARC
  5
92
100
AcDbEntity
  8
0
 62
256
370
-1
 48
1.0
  6
BYLAYER
100
AcDbCircle
 10
17.999999999999989
 20
24.0
 30
0.0
 40
2.0
100
AcDbArc
 50
180.0
 51
240.00000000000003
  0
ARC
  5
93
100
AcDbEntity
  8
0
 62
256
370
-1
 48
1.0
  6
BYLAYER
100
AcDbCircle
 10
17.999999999999989
 20
15.799999999999997
 30
0.0
 40
2.0
100
AcDbArc
 50
119.99999999999997
 51
180.0
  0
ARC
  5
94
100
AcDbEntity
  8
0
 62
256
370
-1
 48
1.0
  6
BYLAYER
100
AcDbCircle
 10
36.000000000000014
 20
24.0
 30
0.0
 40
2.0
100
AcDbArc
 50
300.0
 51
0.0
  0
ARC
  5
95
100
AcDbEntity
  8
0
 62
256
370
-1
 48
1.0
  6
BYLAYER
100
AcDbCircle
 10
53.999999999999986
 20
24.0
 30
0.0
 40
2.0
100
AcDbArc
 50
180.0
 51
240.00000000000003
  0
ARC
  5
96
100
AcDbEntity
  8
0
 62
256
370
-1
 48
1.0
  6
BYLAYER
100
AcDbCircle
 10
0.0000000000000107
 20
15.799999999999997
 30
0.0
 40
2.0
100
AcDbArc
 50
0.0
 51
60.000000000000057
  0
ARC
  5
97
100
AcDbEntity
  8
0
 62
256
370
-1
 48
1.0
  6
BYLAYER
100
AcDbCircle
 10
53.999999999999986
 20
15.79999999999999
 30
0.0
 40
2.0
100
AcDbArc
 50
119.99999999999997
 51
180.0
  0
ARC
  5
98
100
AcDbEntity
  8
0
 62
256
370
-1
 48
1.0
  6
BYLAYER
100
AcDbCircle
 10
36.000000000000014
 20
15.799999999999986
 30
0.0
 40
2.0
100
AcDbArc
 50
0.0
 51
60.000000000000057
  0
ARC
  5
99
100
AcDbEntity
  8
0
 62
256
370
-1
 48
1.0
  6
BYLAYER
100
AcDbCircle
 10
1.5000000000000102
 20
21.401923788646684
 30
0.0
 40
1.0
100
AcDbArc
 50
120.00000000000007
 51
180.0
  0
ARC
  5
9A
100
AcDbEntity
  8
0
 62
256
370
-1
 48
1.0
  6
BYLAYER
100
AcDbCircle
 10
16.499999999999986
 20
21.40192378864668
 30
0.0
 40
1.0
100
AcDbArc
 50
0.0
 51
59.999999999999936
  0
ARC
  5
9B
100
AcDbEntity
  8
0
 62
256
370
-1
 48
1.0
  6
BYLAYER
100
AcDbCircle
 10
16.499999999999986
 20
18.398076211353317
 30
0.0
 40
1.0
100
AcDbArc
 50
300.00000000000006
 51
0.0
  0
ARC
  5
9C
100
AcDbEntity
  8
0
 62
256
370
-1
 48
1.0
  6
BYLAYER
100
AcDbCircle
 10
52.499999999999986
 20
21.401923788646684
 30
0.0
 40
1.0
100
AcDbArc
 50
0.0
 51
59.999999999999936
  0
ARC
  5
9D
100
AcDbEntity
  8
0
 62
256
370
-1
 48
1.0
  6
BYLAYER
100
AcDbCircle
 10
37.500000000000014
 20
21.401923788646684
 30
0.0
 40
1.0
100
AcDbArc
 50
120.00000000000007
 51
180.0
  0
ARC
  5
9E
100
AcDbEntity
  8
0
 62
256
370
-1
 48
1.0
  6
BYLAYER
100
AcDbCircle
 10
52.499999999999986
 20
18.398076211353402
 30
0.0
 40
1.0
100
AcDbArc
 50
300.00000000000006
 51
0.0
  0
ARC
  5
9F
100
AcDbEntity
  8
0
 62
256
370
-1
 48
1.0
  6
BYLAYER
100
AcDbCircle
 10
37.500000000000014
 20
18.398076211353345
 30
0.0
 40
1.0
100
AcDbArc
 50
180.0
 51
239.99999999999994
  0
ARC
  5
A0
100
AcDbEntity
  8
0
 62
256
370
-1
 48
1.0
  6
BYLAYER
100
AcDbCircle
 10
1.5000000000000102
 20
18.398076211353331
 30
0.0
 40
1.0
100
AcDbArc
 50
180.0
 51
239.99999999999994
  0
LINE
  5
A1
100
AcDbEntity
  8
0
 62
256
370
-1
 48
1.0
  6
BYLAYER
100
AcDbLine
 10
1.4999999999999889
 20
19.399999999999988
 30
0.0
 11
8.9999999999999893
 21
19.399999999999988
 31
0.0
  0
LINE
  5
A2
100
AcDbEntity
  8
0
 62
256
370
-1
 48
1.0
  6
BYLAYER
100
AcDbLine
 10
52.500000000000014
 20
20.400000000000009
 30
0.0
 11
45.0
 21
20.400000000000006
 31
0.0
  0
LINE
  5
A3
100
AcDbEntity
  8
0
 62
256
370
-1
 48
1.0
  6
BYLAYER
100
AcDbLine
 10
1.4999999999999889
 20
20.400000000000006
 30
0.0
 11
9.0
 21
20.399999999999999
 31
0.0
  0
LINE
  5
A4
100
AcDbEntity
  8
0
 62
256
370
-1
 48
1.0
  6
BYLAYER
100
AcDbLine
 10
34.500000000000014
 20
20.400000000000009
 30
0.0
 11
27.0
 21
20.400000000000009
 31
0.0
  0
LINE
  5
A5
100
AcDbEntity
  8
0
 62
256
370
-1
 48
1.0
  6
BYLAYER
100
AcDbLine
 10
34.500000000000014
 20
19.399999999999988
 30
0.0
 11
27.000000000000011
 21
19.399999999999984
 31
0.0
  0
LINE
  5
A6
100
AcDbEntity
  8
0
 62
256
370
-1
 48
1.0
  6
BYLAYER
100
AcDbLine
 10
52.500000000000014
 20
19.399999999999988
 30
0.0
 11
45.000000000000014
 21
19.399999999999991
 31
0.0
  0
LINE
  5
A7
100
AcDbEntity
  8
0
 62
256
370
-1
 48
1.0
  6
BYLAYER
100
AcDbLine
 10
37.499999999999986
 20
20.400000000000009
 30
0.0
 11
45.0
 21
20.400000000000006
 31
0.0
  0
LINE
  5
A8
100
AcDbEntity
  8
0
 62
256
370
-1
 48
1.0
  6
BYLAYER
100
AcDbLine
 10
37.499999999999986
 20
19.399999999999988
 30
0.0
 11
44.999999999999986
 21
19.399999999999991
 31
0.0
  0
LINE
  5
A9
100
AcDbEntity
  8
0
 62
256
370
-1
 48
1.0
  6
BYLAYER
100
AcDbLine
 10
16.500000000000011
 20
19.399999999999988
 30
0.0
 11
9.0000000000000107
 21
19.399999999999988
 31
0.0
  0
LINE
  5
AA
100
AcDbEntity
  8
0
 62
256
370
-1
 48
1.0
  6
BYLAYER
100
AcDbLine
 10
19.499999999999989
 20
20.400000000000009
 30
0.0
 11
27.0
 21
20.400000000000009
 31
0.0
  0
LINE
  5
AB
100
AcDbEntity
  8
0
 62
256
370
-1
 48
1.0
  6
BYLAYER
100
AcDbLine
 10
19.499999999999989
 20
19.399999999999988
 30
0.0
 11
26.999999999999989
 21
19.399999999999984
 31
0.0
  0
LINE
  5
AC
100
AcDbEntity
  8
0
 62
256
370
-1
 48
1.0
  6
BYLAYER
100
AcDbLine
 10
16.500000000000011
 20
20.400000000000009
 30
0.0
 11
9.0
 21
20.399999999999999
 31
0.0
  0
ARC
  5
AD
100
AcDbEntity
  8
0
 62
256
370
-1
 48
1.0
  6
BYLAYER
100
AcDbCircle
 10
1.4999999999999889
 20
18.399999999999999
 30
0.0
 40
1.0
100
AcDbArc
 50
90.000000000000057
 51
180.0
  0
ARC
  5
AE
100
AcDbEntity
  8
0
 62
256
370
-1
 48
1.0
  6
BYLAYER
100
AcDbCircle
 10
1.4999999999999898
 20
21.400000000000006
 30
0.0
 40
1.0
100
AcDbArc
 50
180.0
 51
269.99999999999994
  0
ARC
  5
AF
100
AcDbEntity
  8
0
 62
256
370
-1
 48
1.0
  6
BYLAYER
100
AcDbCircle
 10
52.500000000000014
 20
18.399999999999974
 30
0.0
 40
1.0
100
AcDbArc
 50
0.0
 51
89.999999999999957
  0
ARC
  5
B0
100
AcDbEntity
  8
0
 62
256
370
-1
 48
1.0
  6
BYLAYER
100
AcDbCircle
 10
52.500000000000014
 20
21.400000000000006
 30
0.0
 40
1.0
100
AcDbArc
 50
270.00000000000006
 51
0.0
  0
ARC
  5
B1
100
AcDbEntity
  8
0
 62
256
370
-1
 48
1.0
  6
BYLAYER
100
AcDbCircle
 10
37.499999999999986
 20
18.399999999999988
 30
0.0
 40
1.0
100
AcDbArc
 50
90.000000000000043
 51
180.0
  0
ARC
  5
B2
100
AcDbEntity
  8
0
 62
256
370
-1
 48
1.0
  6
BYLAYER
100
AcDbCircle
 10
34.500000000000014
 20
21.400000000000006
 30
0.0
 40
1.0
100
AcDbArc
 50
270.00000000000006
 51
0.0
  0
ARC
  5
B3
100
AcDbEntity
  8
0
 62
256
370
-1
 48
1.0
  6
BYLAYER
100
AcDbCircle
 10
37.499999999999986
 20
21.400000000000006
 30
0.0
 40
1.0
100
AcDbArc
 50
180.0
 51
269.99999999999994
  0
ARC
  5
B4
100
AcDbEntity
  8
0
 62
256
370
-1
 48
1.0
  6
BYLAYER
100
AcDbCircle
 10
19.499999999999989
 20
18.399999999999995
 30
0.0
 40
1.0
100
AcDbArc
 50
90.000000000000043
 51
180.0
  0
ARC
  5
B5
100
AcDbEntity
  8
0
 62
256
370
-1
 48
1.0
  6
BYLAYER
100
AcDbCircle
 10
16.500000000000011
 20
21.400000000000006
 30
0.0
 40
1.0
100
AcDbArc
 50
270.00000000000006
 51
0.0
  0
ARC
  5
B6
100
AcDbEntity
  8
0
 62
256
370
-1
 48
1.0
  6
BYLAYER
100
AcDbCircle
 10
16.500000000000011
 20
18.399999999999995
 30
0.0
 40
1.0
100
AcDbArc
 50
0.0
 51
89.999999999999943
  0
ARC
  5
B7
100
AcDbEntity
  8
0
 62
256
370
-1
 48
1.0
  6
BYLAYER
100
AcDbCircle
 10
34.500000000000014
 20
18.399999999999988
 30
0.0
 40
1.0
100
AcDbArc
 50
0.0
 51
89.999999999999957
  0
ARC
  5
B8
100
AcDbEntity
  8
0
 62
256
370
-1
 48
1.0
  6
BYLAYER
100
AcDbCircle
 10
19.499999999999989
 20
21.400000000000006
 30
0.0
 40
1.0
100
AcDbArc
 50
180.0
 51
269.99999999999994
  0
LINE
  5
B9
100
AcDbEntity
  8
0
 62
256
370
-1
 48
1.0
  6
BYLAYER
100
AcDbLine
 10
-0.4999999999999911
 20
21.401923788646684
 30
0.0
 11
-0.4999999999999916
 21
18.39807621135332
 31
0.0
  0
CIRCLE
  5
BA
100
AcDbEntity
  8
0
 62
256
370
-1
 48
1.0
  6
BYLAYER
100
AcDbCircle
 10
22.242640687119295
 20
42.242640687119277
 30
0.0
 40
1.0
  0
CIRCLE
  5
BB
100
AcDbEntity
  8
0
 62
256
370
-1
 48
1.0
  6
BYLAYER
100
AcDbCircle
 10
-4.2426406871192945
 20
42.242640687119277
 30
0.0
 40
1.0
  0
CIRCLE
  5
BC
100
AcDbEntity
  8
0
 62
256
370
-1
 48
1.0
  6
BYLAYER
100
AcDbCircle
 10
22.242640687119291
 20
-2.4426406871192796
 30
0.0
 40
1.0
  0
CIRCLE
  5
BD
100
AcDbEntity
  8
0
 62
256
370
-1
 48
1.0
  6
BYLAYER
100
AcDbCircle
 10
58.242640687119291
 20
42.242640687119277
 30
0.0
 40
1.0
  0
CIRCLE
  5
BE
100
AcDbEntity
  8
0
 62
256
370
-1
 48
1.0
  6
BYLAYER
100
AcDbCircle
 10
31.757359312880709
 20
42.242640687119277
 30
0.0
 40
1.0
  0
CIRCLE
  5
BF
100
AcDbEntity
  8
0
 62
256
370
-1
 48
1.0
  6
BYLAYER
100
AcDbCircle
 10
-4.2426406871192981
 20
-2.4426406871192725
 30
0.0
 40
1.0
  0
CIRCLE
  5
C0
100
AcDbEntity
  8
0
 62
256
370
-1
 48
1.0
  6
BYLAYER
100
AcDbCircle
 10
58.242640687119291
 20
-2.4426406871192725
 30
0.0
 40
1.0
  0
CIRCLE
  5
C1
100
AcDbEntity
  8
0
 62
256
370
-1
 48
1.0
  6
BYLAYER
100
AcDbCircle
 10
31.757359312880709
 20
-2.4426406871192761
 30
0.0
 40
1.0
  0
CIRCLE
  5
C2
100
AcDbEntity
  8
0
 62
256
370
-1
 48
1.0
  6
BYLAYER
100
AcDbCircle
 10
13.757359312880721
 20
42.242640687119291
 30
0.0
 40
1.0
  0
CIRCLE
  5
C3
100
AcDbEntity
  8
0
 62
256
370
-1
 48
1.0
  6
BYLAYER
100
AcDbCircle
 10
4.2426406871192803
 20
42.242640687119291
 30
0.0
 40
1.0
  0
CIRCLE
  5
C4
100
AcDbEntity
  8
0
 62
256
370
-1
 48
1.0
  6
BYLAYER
100
AcDbCircle
 10
13.75735931288072
 20
-2.4426406871192938
 30
0.0
 40
1.0
  0
CIRCLE
  5
C5
100
AcDbEntity
  8
0
 62
256
370
-1
 48
1.0
  6
BYLAYER
100
AcDbCircle
 10
49.757359312880723
 20
42.242640687119291
 30
0.0
 40
1.0
  0
CIRCLE
  5
C6
100
AcDbEntity
  8
0
 62
256
370
-1
 48
1.0
  6
BYLAYER
100
AcDbCircle
 10
40.242640687119277
 20
42.242640687119291
 30
0.0
 40
1.0
  0
CIRCLE
  5
C7
100
AcDbEntity
  8
0
 62
256
370
-1
 48
1.0
  6
BYLAYER
100
AcDbCircle
 10
4.2426406871192803
 20
-2.4426406871192903
 30
0.0
 40
1.0
  0
CIRCLE
  5
C8
100
AcDbEntity
  8
0
 62
256
370
-1
 48
1.0
  6
BYLAYER
100
AcDbCircle
 10
49.757359312880723
 20
-2.4426406871192974
 30
0.0
 40
1.0
  0
CIRCLE
  5
C9
100
AcDbEntity
  8
0
 62
256
370
-1
 48
1.0
  6
BYLAYER
100
AcDbCircle
 10
40.242640687119277
 20
-2.4426406871192938
 30
0.0
 40
1.0
  0
CIRCLE
  5
CA
100
AcDbEntity
  8
0
 62
256
370
-1
 48
1.0
  6
BYLAYER
100
AcDbCircle
 10
13.757359312880707
 20
33.757359312880716
 30
0.0
 40
1.0
  0
CIRCLE
  5
CB
100
AcDbEntity
  8
0
 62
256
370
-1
 48
1.0
  6
BYLAYER
100
AcDbCircle
 10
4.2426406871192928
 20
33.757359312880716
 30
0.0
 40
1.0
  0
CIRCLE
  5
CC
100
AcDbEntity
  8
0
 62
256
370
-1
 48
1.0
  6
BYLAYER
100
AcDbCircle
 10
13.757359312880707
 20
6.0426406871192793
 30
0.0
 40
1.0
  0
CIRCLE
  5
CD
100
AcDbEntity
  8
0
 62
256
370
-1
 48
1.0
  6
BYLAYER
100
AcDbCircle
 10
49.757359312880709
 20
33.757359312880716
 30
0.0
 40
1.0
  0
CIRCLE
  5
CE
100
AcDbEntity
  8
0
 62
256
370
-1
 48
1.0
  6
BYLAYER
100
AcDbCircle
 10
40.242640687119291
 20
33.757359312880716
 30
0.0
 40
1.0
  0
CIRCLE
  5
CF
100
AcDbEntity
  8
0
 62
256
370
-1
 48
1.0
  6
BYLAYER
100
AcDbCircle
 10
4.242640687119291
 20
6.0426406871192828
 30
0.0
 40
1.0
  0
CIRCLE
  5
D0
100
AcDbEntity
  8
0
 62
256
370
-1
 48
1.0
  6
BYLAYER
100
AcDbCircle
 10
49.757359312880709
 20
6.042640687119281
 30
0.0
 40
1.0
  0
CIRCLE
  5
D1
100
AcDbEntity
  8
0
 62
256
370
-1
 48
1.0
  6
BYLAYER
100
AcDbCircle
 10
40.242640687119291
 20
6.042640687119281
 30
0.0
 40
1.0
  0
CIRCLE
  5
D2
100
AcDbEntity
  8
0
 62
256
370
-1
 48
1.0
  6
BYLAYER
100
AcDbCircle
 10
22.242640687119277
 20
33.757359312880681
 30
0.0
 40
1.0
  0
CIRCLE
  5
D3
100
AcDbEntity
  8
0
 62
256
370
-1
 48
1.0
  6
BYLAYER
100
AcDbCircle
 10
-4.2426406871192786
 20
33.757359312880716
 30
0.0
 40
1.0
  0
CIRCLE
  5
D4
100
AcDbEntity
  8
0
 62
256
370
-1
 48
1.0
  6
BYLAYER
100
AcDbCircle
 10
22.242640687119277
 20
6.0426406871193166
 30
0.0
 40
1.0
  0
CIRCLE
  5
D5
100
AcDbEntity
  8
0
 62
256
370
-1
 48
1.0
  6
BYLAYER
100
AcDbCircle
 10
-4.2426406871192768
 20
6.042640687119281
 30
0.0
 40
1.0
  0
CIRCLE
  5
D6
100
AcDbEntity
  8
0
 62
256
370
-1
 48
1.0
  6
BYLAYER
100
AcDbCircle
 10
58.242640687119277
 20
33.757359312880673
 30
0.0
 40
1.0
  0
CIRCLE
  5
D7
100
AcDbEntity
  8
0
 62
256
370
-1
 48
1.0
  6
BYLAYER
100
AcDbCircle
 10
31.757359312880723
 20
33.757359312880681
 30
0.0
 40
1.0
  0
CIRCLE
  5
D8
100
AcDbEntity
  8
0
 62
256
370
-1
 48
1.0
  6
BYLAYER
100
AcDbCircle
 10
58.242640687119277
 20
6.042640687119329
 30
0.0
 40
1.0
  0
CIRCLE
  5
D9
100
AcDbEntity
  8
0
 62
256
370
-1
 48
1.0
  6
BYLAYER
100
AcDbCircle
 10
31.757359312880723
 20
6.0426406871193183
 30
0.0
 40
1.0
  0
SPLINE
  5
DA
100
AcDbEntity
  8
0
 62
256
370
-1
 48
1.0
  6
BYLAYER
100
AcDbSpline
 70
8
 71
3
 72
14
 73
10
 74
0
 40
0.0
 40
0.0
 40
0.0
 40
0.0
 40
1.0
 40
2.0
 40
3.0
 40
4.0
 40
5.0
 40
6.0
 40
7.0
 40
7.0
 40
7.0
 40
7.0
 10
15.999999999999996
 20
46.0
 30
0.0
 10
16.063590360224538
 20
45.419074929033812
 30
0.0
 10
15.500000000000002
 20
44.299999999999997
 30
0.0
 10
13.9
 20
44.599999999999994
 30
0.0
 10
12.459992007531547
 20
44.521017295397392
 30
0.0
 10
11.141325102445153
 20
43.020465299954253
 30
0.0
 10
11.391417101685679
 20
41.212982214534108
 30
0.0
 10
12.096221826818061
 20
40.314924580897689
 30
0.0
 10
13.100000000000001
 20
39.399999999999999
 30
0.0
 10
13.0
 20
38.0
 30
0.0
  0
SPLINE
  5
DB
100
AcDbEntity
  8
0
 62
256
370
-1
 48
1.0
  6
BYLAYER
100
AcDbSpline
 70
8
 71
3
 72
14
 73
10
 74
0
 40
0.0
 40
0.0
 40
0.0
 40
0.0
 40
1.0
 40
2.0
 40
3.0
 40
4.0
 40
5.0
 40
6.0
 40
7.0
 40
7.0
 40
7.0
 40
7.0
 10
20.0
 20
30.0
 30
0.0
 10
19.936409639775462
 20
30.580925070966192
 30
0.0
 10
20.5
 20
31.700000000000003
 30
0.0
 10
22.100000000000001
 20
31.400000000000013
 30
0.0
 10
23.540007992468453
 20
31.478982704602615
 30
0.0
 10
24.858674897554845
 20
32.97953470004574
 30
0.0
 10
24.608582898314324
 20
34.787017785465878
 30
0.0
 10
23.903778173181941
 20
35.685075419102311
 30
0.0
 10
22.899999999999999
 20
36.600000000000001
 30
0.0
 10
23.0
 20
38.0
 30
0.0
  0
SPLINE
  5
DC
100
AcDbEntity
  8
0
 62
256
370
-1
 48
1.0
  6
BYLAYER
100
AcDbSpline
 70
8
 71
3
 72
14
 73
10
 74
0
 40
0.0
 40
0.0
 40
0.0
 40
0.0
 40
1.0
 40
2.0
 40
3.0
 40
4.0
 40
5.0
 40
6.0
 40
7.0
 40
7.0
 40
7.0
 40
7.0
 10
20.0
 20
46.0
 30
0.0
 10
19.936409639775462
 20
45.419074929033812
 30
0.0
 10
20.5
 20
44.299999999999997
 30
0.0
 10
22.100000000000001
 20
44.599999999999987
 30
0.0
 10
23.54000799246845
 20
44.521017295397399
 30
0.0
 10
24.858674897554849
 20
43.020465299954253
 30
0.0
 10
24.608582898314324
 20
41.212982214534115
 30
0.0
 10
23.903778173181941
 20
40.314924580897689
 30
0.0
 10
22.899999999999999
 20
39.399999999999991
 30
0.0
 10
23.0
 20
38.0
 30
0.0
  0
SPLINE
  5
DD
100
AcDbEntity
  8
0
 62
256
370
-1
 48
1.0
  6
BYLAYER
100
AcDbSpline
 70
8
 71
3
 72
14
 73
10
 74
0
 40
0.0
 40
0.0
 40
0.0
 40
0.0
 40
1.0
 40
2.0
 40
3.0
 40
4.0
 40
5.0
 40
6.0
 40
7.0
 40
7.0
 40
7.0
 40
7.0
 10
16.0
 20
30.000000000000004
 30
0.0
 10
16.063590360224531
 20
30.580925070966188
 30
0.0
 10
15.499999999999996
 20
31.699999999999999
 30
0.0
 10
13.9
 20
31.400000000000009
 30
0.0
 10
12.459992007531543
 20
31.478982704602608
 30
0.0
 10
11.141325102445151
 20
32.979534700045747
 30
0.0
 10
11.391417101685677
 20
34.787017785465892
 30
0.0
 10
12.096221826818059
 20
35.685075419102311
 30
0.0
 10
13.100000000000001
 20
36.600000000000001
 30
0.0
 10
13.0
 20
38.0
 30
0.0
  0
SPLINE
  5
DE
100
AcDbEntity
  8
0
 62
256
370
-1
 48
1.0
  6
BYLAYER
100
AcDbSpline
 70
8
 71
3
 72
14
 73
10
 74
0
 40
0.0
 40
0.0
 40
0.0
 40
0.0
 40
1.0
 40
2.0
 40
3.0
 40
4.0
 40
5.0
 40
6.0
 40
7.0
 40
7.0
 40
7.0
 40
7.0
 10
-2.0
 20
46.0
 30
0.0
 10
-1.936409639775464
 20
45.419074929033812
 30
0.0
 10
-2.5
 20
44.299999999999997
 30
0.0
 10
-4.0999999999999996
 20
44.599999999999994
 30
0.0
 10
-5.5400079924684524
 20
44.521017295397392
 30
0.0
 10
-6.8586748975548462
 20
43.020465299954253
 30
0.0
 10
-6.6085828983143227
 20
41.212982214534108
 30
0.0
 10
-5.9037781731819408
 20
40.314924580897689
 30
0.0
 10
-4.8999999999999995
 20
39.399999999999999
 30
0.0
 10
-5.0
 20
38.0
 30
0.0
  0
SPLINE
  5
DF
100
AcDbEntity
  8
0
 62
256
370
-1
 48
1.0
  6
BYLAYER
100
AcDbSpline
 70
8
 71
3
 72
14
 73
10
 74
0
 40
0.0
 40
0.0
 40
0.0
 40
0.0
 40
1.0
 40
2.0
 40
3.0
 40
4.0
 40
5.0
 40
6.0
 40
7.0
 40
7.0
 40
7.0
 40
7.0
 10
2.0000000000000013
 20
30.0
 30
0.0
 10
1.936409639775468
 20
30.580925070966188
 30
0.0
 10
2.5000000000000031
 20
31.700000000000003
 30
0.0
 10
4.1000000000000005
 20
31.400000000000006
 30
0.0
 10
5.540007992468456
 20
31.478982704602608
 30
0.0
 10
6.8586748975548479
 20
32.979534700045747
 30
0.0
 10
6.6085828983143227
 20
34.787017785465892
 30
0.0
 10
5.9037781731819408
 20
35.685075419102311
 30
0.0
 10
4.8999999999999995
 20
36.600000000000001
 30
0.0
 10
5.0
 20
38.0
 30
0.0
  0
SPLINE
  5
E0
100
AcDbEntity
  8
0
 62
256
370
-1
 48
1.0
  6
BYLAYER
100
AcDbSpline
 70
8
 71
3
 72
14
 73
10
 74
0
 40
0.0
 40
0.0
 40
0.0
 40
0.0
 40
1.0
 40
2.0
 40
3.0
 40
4.0
 40
5.0
 40
6.0
 40
7.0
 40
7.0
 40
7.0
 40
7.0
 10
2.0000000000000013
 20
46.0
 30
0.0
 10
1.9364096397754647
 20
45.419074929033812
 30
0.0
 10
2.5
 20
44.299999999999997
 30
0.0
 10
4.1000000000000005
 20
44.599999999999994
 30
0.0
 10
5.5400079924684533
 20
44.521017295397392
 30
0.0
 10
6.8586748975548479
 20
43.020465299954253
 30
0.0
 10
6.6085828983143227
 20
41.212982214534108
 30
0.0
 10
5.9037781731819408
 20
40.314924580897689
 30
0.0
 10
4.8999999999999995
 20
39.399999999999999
 30
0.0
 10
5.0
 20
38.0
 30
0.0
  0
SPLINE
  5
E1
100
AcDbEntity
  8
0
 62
256
370
-1
 48
1.0
  6
BYLAYER
100
AcDbSpline
 70
8
 71
3
 72
14
 73
10
 74
0
 40
0.0
 40
0.0
 40
0.0
 40
0.0
 40
1.0
 40
2.0
 40
3.0
 40
4.0
 40
5.0
 40
6.0
 40
7.0
 40
7.0
 40
7.0
 40
7.0
 10
-1.9999999999999996
 20
30.0
 30
0.0
 10
-1.936409639775464
 20
30.580925070966188
 30
0.0
 10
-2.5000000000000004
 20
31.700000000000003
 30
0.0
 10
-4.0999999999999996
 20
31.400000000000006
 30
0.0
 10
-5.5400079924684542
 20
31.478982704602608
 30
0.0
 10
-6.8586748975548462
 20
32.979534700045747
 30
0.0
 10
-6.6085828983143227
 20
34.787017785465892
 30
0.0
 10
-5.9037781731819408
 20
35.685075419102311
 30
0.0
 10
-4.8999999999999995
 20
36.600000000000001
 30
0.0
 10
-5.0
 20
38.0
 30
0.0
  0
SPLINE
  5
E2
100
AcDbEntity
  8
0
 62
256
370
-1
 48
1.0
  6
BYLAYER
100
AcDbSpline
 70
8
 71
3
 72
14
 73
10
 74
0
 40
0.0
 40
0.0
 40
0.0
 40
0.0
 40
1.0
 40
2.0
 40
3.0
 40
4.0
 40
5.0
 40
6.0
 40
7.0
 40
7.0
 40
7.0
 40
7.0
 10
38.0
 20
9.7999999999999901
 30
0.0
 10
37.936409639775469
 20
9.219074929033809
 30
0.0
 10
38.5
 20
8.100000000000005
 30
0.0
 10
40.100000000000001
 20
8.3999999999999808
 30
0.0
 10
41.54000799246846
 20
8.3210172953974038
 30
0.0
 10
42.858674897554849
 20
6.8204652999551563
 30
0.0
 10
42.608582898314324
 20
5.0129822145341176
 30
0.0
 10
41.903778173181941
 20
4.1149245808976929
 30
0.0
 10
40.899999999999999
 20
3.2000000000000028
 30
0.0
 10
41.0
 20
1.8000000000000007
 30
0.0
  0
SPLINE
  5
E3
100
AcDbEntity
  8
0
 62
256
370
-1
 48
1.0
  6
BYLAYER
100
AcDbSpline
 70
8
 71
3
 72
14
 73
10
 74
0
 40
0.0
 40
0.0
 40
0.0
 40
0.0
 40
1.0
 40
2.0
 40
3.0
 40
4.0
 40
5.0
 40
6.0
 40
7.0
 40
7.0
 40
7.0
 40
7.0
 10
20.0
 20
9.7999999999999972
 30
0.0
 10
19.936409639775462
 20
9.2190749290338037
 30
0.0
 10
20.5
 20
8.0999999999999943
 30
0.0
 10
22.100000000000001
 20
8.3999999999999826
 30
0.0
 10
23.540007992468453
 20
8.3210172953973824
 30
0.0
 10
24.858674897554845
 20
6.8204652999542574
 30
0.0
 10
24.608582898314324
 20
5.0129822145341212
 30
0.0
 10
23.903778173181941
 20
4.1149245808976875
 30
0.0
 10
22.899999999999999
 20
3.1999999999999957
 30
0.0
 10
23.0
 20
1.7999999999999972
 30
0.0
  0
SPLINE
  5
E4
100
AcDbEntity
  8
0
 62
256
370
-1
 48
1.0
  6
BYLAYER
100
AcDbSpline
 70
8
 71
3
 72
14
 73
10
 74
0
 40
0.0
 40
0.0
 40
0.0
 40
0.0
 40
1.0
 40
2.0
 40
3.0
 40
4.0
 40
5.0
 40
6.0
 40
7.0
 40
7.0
 40
7.0
 40
7.0
 10
20.0
 20
-6.2000000000000028
 30
0.0
 10
19.936409639775462
 20
-5.6190749290338147
 30
0.0
 10
20.5
 20
-4.5
 30
0.0
 10
22.099999999999998
 20
-4.7999999999999901
 30
0.0
 10
23.54000799246845
 20
-4.7210172953974023
 30
0.0
 10
24.858674897554849
 20
-3.2204652999542525
 30
0.0
 10
24.608582898314324
 20
-1.412982214534118
 30
0.0
 10
23.903778173181944
 20
-0.5149245808976914
 30
0.0
 10
22.899999999999999
 20
0.4000000000000057
 30
0.0
 10
23.0
 20
1.7999999999999972
 30
0.0
  0
SPLINE
  5
E5
100
AcDbEntity
  8
0
 62
256
370
-1
 48
1.0
  6
BYLAYER
100
AcDbSpline
 70
8
 71
3
 72
14
 73
10
 74
0
 40
0.0
 40
0.0
 40
0.0
 40
0.0
 40
1.0
 40
2.0
 40
3.0
 40
4.0
 40
5.0
 40
6.0
 40
7.0
 40
7.0
 40
7.0
 40
7.0
 10
15.999999999999998
 20
-6.2000000000000028
 30
0.0
 10
16.063590360224538
 20
-5.6190749290338111
 30
0.0
 10
15.500000000000004
 20
-4.4999999999999964
 30
0.0
 10
13.900000000000002
 20
-4.7999999999999936
 30
0.0
 10
12.459992007531547
 20
-4.7210172953973952
 30
0.0
 10
11.141325102445151
 20
-3.220465299954256
 30
0.0
 10
11.391417101685679
 20
-1.4129822145341109
 30
0.0
 10
12.096221826818059
 20
-0.5149245808976914
 30
0.0
 10
13.100000000000001
 20
0.3999999999999986
 30
0.0
 10
13.000000000000002
 20
1.7999999999999972
 30
0.0
  0
SPLINE
  5
E6
100
AcDbEntity
  8
0
 62
256
370
-1
 48
1.0
  6
BYLAYER
100
AcDbSpline
 70
8
 71
3
 72
14
 73
10
 74
0
 40
0.0
 40
0.0
 40
0.0
 40
0.0
 40
1.0
 40
2.0
 40
3.0
 40
4.0
 40
5.0
 40
6.0
 40
7.0
 40
7.0
 40
7.0
 40
7.0
 10
16.0
 20
9.7999999999999936
 30
0.0
 10
16.063590360224531
 20
9.219074929033809
 30
0.0
 10
15.499999999999995
 20
8.0999999999999996
 30
0.0
 10
13.9
 20
8.3999999999999879
 30
0.0
 10
12.459992007531543
 20
8.3210172953973895
 30
0.0
 10
11.141325102445148
 20
6.8204652999542521
 30
0.0
 10
11.391417101685679
 20
5.0129822145341052
 30
0.0
 10
12.096221826818059
 20
4.1149245808976858
 30
0.0
 10
13.100000000000001
 20
3.1999999999999922
 30
0.0
 10
13.000000000000002
 20
1.7999999999999972
 30
0.0
  0
SPLINE
  5
E7
100
AcDbEntity
  8
0
 62
256
370
-1
 48
1.0
  6
BYLAYER
100
AcDbSpline
 70
8
 71
3
 72
14
 73
10
 74
0
 40
0.0
 40
0.0
 40
0.0
 40
0.0
 40
1.0
 40
2.0
 40
3.0
 40
4.0
 40
5.0
 40
6.0
 40
7.0
 40
7.0
 40
7.0
 40
7.0
 10
2.0000000000000018
 20
9.8000000000000007
 30
0.0
 10
1.9364096397754675
 20
9.219074929033809
 30
0.0
 10
2.5000000000000036
 20
8.0999999999999961
 30
0.0
 10
4.1000000000000032
 20
8.3999999999999897
 30
0.0
 10
5.5400079924684587
 20
8.3210172953973895
 30
0.0
 10
6.8586748975548488
 20
6.8204652999542539
 30
0.0
 10
6.6085828983143262
 20
5.0129822145341034
 30
0.0
 10
5.9037781731819372
 20
4.1149245808976911
 30
0.0
 10
4.9000000000000004
 20
3.1999999999999922
 30
0.0
 10
5.0000000000000018
 20
1.7999999999999972
 30
0.0
  0
SPLINE
  5
E8
100
AcDbEntity
  8
0
 62
256
370
-1
 48
1.0
  6
BYLAYER
100
AcDbSpline
 70
8
 71
3
 72
14
 73
10
 74
0
 40
0.0
 40
0.0
 40
0.0
 40
0.0
 40
1.0
 40
2.0
 40
3.0
 40
4.0
 40
5.0
 40
6.0
 40
7.0
 40
7.0
 40
7.0
 40
7.0
 10
1.9999999999999964
 20
-6.1999999999999993
 30
0.0
 10
1.9364096397754658
 20
-5.6190749290338147
 30
0.0
 10
2.5000000000000071
 20
-4.5000000000000071
 30
0.0
 10
4.1000000000000014
 20
-4.7999999999999972
 30
0.0
 10
5.5400079924684551
 20
-4.7210172953973952
 30
0.0
 10
6.8586748975548524
 20
-3.220465299954256
 30
0.0
 10
6.6085828983143191
 20
-1.4129822145341109
 30
0.0
 10
5.9037781731819479
 20
-0.5149245808976986
 30
0.0
 10
4.9000000000000004
 20
0.4000000000000021
 30
0.0
 10
5.0000000000000018
 20
1.7999999999999972
 30
0.0
  0
SPLINE
  5
E9
100
AcDbEntity
  8
0
 62
256
370
-1
 48
1.0
  6
BYLAYER
100
AcDbSpline
 70
8
 71
3
 72
14
 73
10
 74
0
 40
0.0
 40
0.0
 40
0.0
 40
0.0
 40
1.0
 40
2.0
 40
3.0
 40
4.0
 40
5.0
 40
6.0
 40
7.0
 40
7.0
 40
7.0
 40
7.0
 10
-2.0
 20
9.7999999999999972
 30
0.0
 10
-1.9364096397754622
 20
9.219074929033809
 30
0.0
 10
-2.4999999999999964
 20
8.0999999999999961
 30
0.0
 10
-4.1000000000000014
 20
8.399999999999995
 30
0.0
 10
-5.5400079924684533
 20
8.3210172953973824
 30
0.0
 10
-6.8586748975548453
 20
6.8204652999542503
 30
0.0
 10
-6.608582898314328
 20
5.0129822145341123
 30
0.0
 10
-5.9037781731819408
 20
4.1149245808976858
 30
0.0
 10
-4.8999999999999986
 20
3.1999999999999957
 30
0.0
 10
-5.0000000000000036
 20
1.8000000000000007
 30
0.0
  0
SPLINE
  5
EA
100
AcDbEntity
  8
0
 62
256
370
-1
 48
1.0
  6
BYLAYER
100
AcDbSpline
 70
8
 71
3
 72
14
 73
10
 74
0
 40
0.0
 40
0.0
 40
0.0
 40
0.0
 40
1.0
 40
2.0
 40
3.0
 40
4.0
 40
5.0
 40
6.0
 40
7.0
 40
7.0
 40
7.0
 40
7.0
 10
56.0
 20
30.000000000000007
 30
0.0
 10
55.936409639775462
 20
30.580925070966192
 30
0.0
 10
56.5
 20
31.699999999999992
 30
0.0
 10
58.100000000000001
 20
31.400000000000016
 30
0.0
 10
59.540007992468453
 20
31.478982704602601
 30
0.0
 10
60.858674897554849
 20
32.979534700044837
 30
0.0
 10
60.608582898314324
 20
34.787017785465864
 30
0.0
 10
59.903778173181941
 20
35.685075419102304
 30
0.0
 10
58.899999999999999
 20
36.599999999999994
 30
0.0
 10
59.0
 20
38.0
 30
0.0
  0
SPLINE
  5
EB
100
AcDbEntity
  8
0
 62
256
370
-1
 48
1.0
  6
BYLAYER
100
AcDbSpline
 70
8
 71
3
 72
14
 73
10
 74
0
 40
0.0
 40
0.0
 40
0.0
 40
0.0
 40
1.0
 40
2.0
 40
3.0
 40
4.0
 40
5.0
 40
6.0
 40
7.0
 40
7.0
 40
7.0
 40
7.0
 10
-2.0
 20
-6.2000000000000028
 30
0.0
 10
-1.9364096397754658
 20
-5.6190749290338076
 30
0.0
 10
-2.5
 20
-4.4999999999999964
 30
0.0
 10
-4.0999999999999979
 20
-4.7999999999999972
 30
0.0
 10
-5.5400079924684498
 20
-4.7210172953973881
 30
0.0
 10
-6.8586748975548453
 20
-3.2204652999542489
 30
0.0
 10
-6.608582898314328
 20
-1.4129822145341109
 30
0.0
 10
-5.9037781731819408
 20
-0.5149245808976914
 30
0.0
 10
-4.899999999999995
 20
0.399999999999995
 30
0.0
 10
-5.0000000000000036
 20
1.8000000000000007
 30
0.0
  0
SPLINE
  5
EC
100
AcDbEntity
  8
0
 62
256
370
-1
 48
1.0
  6
BYLAYER
100
AcDbSpline
 70
8
 71
3
 72
14
 73
10
 74
0
 40
0.0
 40
0.0
 40
0.0
 40
0.0
 40
1.0
 40
2.0
 40
3.0
 40
4.0
 40
5.0
 40
6.0
 40
7.0
 40
7.0
 40
7.0
 40
7.0
 10
56.0
 20
46.0
 30
0.0
 10
55.936409639775462
 20
45.419074929033812
 30
0.0
 10
56.5
 20
44.299999999999997
 30
0.0
 10
58.100000000000001
 20
44.59999999999998
 30
0.0
 10
59.540007992468446
 20
44.521017295397399
 30
0.0
 10
60.858674897554856
 20
43.020465299954246
 30
0.0
 10
60.608582898314324
 20
41.212982214534108
 30
0.0
 10
59.903778173181941
 20
40.314924580897689
 30
0.0
 10
58.899999999999999
 20
39.399999999999991
 30
0.0
 10
59.0
 20
38.0
 30
0.0
  0
SPLINE
  5
ED
100
AcDbEntity
  8
0
 62
256
370
-1
 48
1.0
  6
BYLAYER
100
AcDbSpline
 70
8
 71
3
 72
14
 73
10
 74
0
 40
0.0
 40
0.0
 40
0.0
 40
0.0
 40
1.0
 40
2.0
 40
3.0
 40
4.0
 40
5.0
 40
6.0
 40
7.0
 40
7.0
 40
7.0
 40
7.0
 10
52.0
 20
30.000000000000007
 30
0.0
 10
52.063590360224531
 20
30.580925070966192
 30
0.0
 10
51.5
 20
31.699999999999989
 30
0.0
 10
49.899999999999999
 20
31.400000000000016
 30
0.0
 10
48.45999200753154
 20
31.478982704602601
 30
0.0
 10
47.141325102445151
 20
32.979534700044802
 30
0.0
 10
47.391417101685676
 20
34.787017785465878
 30
0.0
 10
48.096221826818059
 20
35.685075419102304
 30
0.0
 10
49.100000000000001
 20
36.599999999999994
 30
0.0
 10
49.0
 20
38.0
 30
0.0
  0
SPLINE
  5
EE
100
AcDbEntity
  8
0
 62
256
370
-1
 48
1.0
  6
BYLAYER
100
AcDbSpline
 70
8
 71
3
 72
14
 73
10
 74
0
 40
0.0
 40
0.0
 40
0.0
 40
0.0
 40
1.0
 40
2.0
 40
3.0
 40
4.0
 40
5.0
 40
6.0
 40
7.0
 40
7.0
 40
7.0
 40
7.0
 10
52.000000000000007
 20
46.0
 30
0.0
 10
52.063590360224538
 20
45.419074929033812
 30
0.0
 10
51.5
 20
44.299999999999997
 30
0.0
 10
49.899999999999999
 20
44.599999999999994
 30
0.0
 10
48.45999200753154
 20
44.521017295397385
 30
0.0
 10
47.141325102445151
 20
43.020465299954253
 30
0.0
 10
47.391417101685676
 20
41.212982214534101
 30
0.0
 10
48.096221826818059
 20
40.314924580897681
 30
0.0
 10
49.100000000000001
 20
39.399999999999999
 30
0.0
 10
49.0
 20
38.0
 30
0.0
  0
SPLINE
  5
EF
100
AcDbEntity
  8
0
 62
256
370
-1
 48
1.0
  6
BYLAYER
100
AcDbSpline
 70
8
 71
3
 72
14
 73
10
 74
0
 40
0.0
 40
0.0
 40
0.0
 40
0.0
 40
1.0
 40
2.0
 40
3.0
 40
4.0
 40
5.0
 40
6.0
 40
7.0
 40
7.0
 40
7.0
 40
7.0
 10
38.0
 20
46.0
 30
0.0
 10
37.936409639775462
 20
45.419074929033812
 30
0.0
 10
38.5
 20
44.299999999999997
 30
0.0
 10
40.100000000000001
 20
44.599999999999994
 30
0.0
 10
41.54000799246846
 20
44.521017295397385
 30
0.0
 10
42.858674897554849
 20
43.020465299954253
 30
0.0
 10
42.608582898314324
 20
41.212982214534101
 30
0.0
 10
41.903778173181941
 20
40.314924580897681
 30
0.0
 10
40.899999999999999
 20
39.399999999999999
 30
0.0
 10
41.0
 20
38.0
 30
0.0
  0
SPLINE
  5
F0
100
AcDbEntity
  8
0
 62
256
370
-1
 48
1.0
  6
BYLAYER
100
AcDbSpline
 70
8
 71
3
 72
14
 73
10
 74
0
 40
0.0
 40
0.0
 40
0.0
 40
0.0
 40
1.0
 40
2.0
 40
3.0
 40
4.0
 40
5.0
 40
6.0
 40
7.0
 40
7.0
 40
7.0
 40
7.0
 10
34.0
 20
30.0
 30
0.0
 10
34.063590360224538
 20
30.580925070966195
 30
0.0
 10
33.5
 20
31.700000000000003
 30
0.0
 10
31.899999999999999
 20
31.400000000000013
 30
0.0
 10
30.459992007531547
 20
31.478982704602615
 30
0.0
 10
29.141325102445155
 20
32.979534700045747
 30
0.0
 10
29.391417101685676
 20
34.787017785465878
 30
0.0
 10
30.096221826818059
 20
35.685075419102311
 30
0.0
 10
31.100000000000001
 20
36.600000000000001
 30
0.0
 10
31.0
 20
38.0
 30
0.0
  0
SPLINE
  5
F1
100
AcDbEntity
  8
0
 62
256
370
-1
 48
1.0
  6
BYLAYER
100
AcDbSpline
 70
8
 71
3
 72
14
 73
10
 74
0
 40
0.0
 40
0.0
 40
0.0
 40
0.0
 40
1.0
 40
2.0
 40
3.0
 40
4.0
 40
5.0
 40
6.0
 40
7.0
 40
7.0
 40
7.0
 40
7.0
 10
34.000000000000007
 20
46.0
 30
0.0
 10
34.063590360224538
 20
45.419074929033812
 30
0.0
 10
33.5
 20
44.299999999999997
 30
0.0
 10
31.900000000000002
 20
44.599999999999987
 30
0.0
 10
30.45999200753155
 20
44.521017295397399
 30
0.0
 10
29.141325102445151
 20
43.020465299954253
 30
0.0
 10
29.391417101685676
 20
41.212982214534115
 30
0.0
 10
30.096221826818059
 20
40.314924580897689
 30
0.0
 10
31.100000000000001
 20
39.399999999999991
 30
0.0
 10
31.0
 20
38.0
 30
0.0
  0
SPLINE
  5
F2
100
AcDbEntity
  8
0
 62
256
370
-1
 48
1.0
  6
BYLAYER
100
AcDbSpline
 70
8
 71
3
 72
14
 73
10
 74
0
 40
0.0
 40
0.0
 40
0.0
 40
0.0
 40
1.0
 40
2.0
 40
3.0
 40
4.0
 40
5.0
 40
6.0
 40
7.0
 40
7.0
 40
7.0
 40
7.0
 10
38.0
 20
30.000000000000007
 30
0.0
 10
37.936409639775469
 20
30.580925070966192
 30
0.0
 10
38.5
 20
31.699999999999992
 30
0.0
 10
40.100000000000001
 20
31.400000000000016
 30
0.0
 10
41.54000799246846
 20
31.478982704602601
 30
0.0
 10
42.858674897554849
 20
32.979534700044837
 30
0.0
 10
42.608582898314324
 20
34.787017785465878
 30
0.0
 10
41.903778173181941
 20
35.685075419102304
 30
0.0
 10
40.899999999999999
 20
36.599999999999994
 30
0.0
 10
41.0
 20
38.0
 30
0.0
  0
SPLINE
  5
F3
100
AcDbEntity
  8
0
 62
256
370
-1
 48
1.0
  6
BYLAYER
100
AcDbSpline
 70
8
 71
3
 72
14
 73
10
 74
0
 40
0.0
 40
0.0
 40
0.0
 40
0.0
 40
1.0
 40
2.0
 40
3.0
 40
4.0
 40
5.0
 40
6.0
 40
7.0
 40
7.0
 40
7.0
 40
7.0
 10
56.0
 20
-6.2000000000000064
 30
0.0
 10
55.936409639775462
 20
-5.6190749290338076
 30
0.0
 10
56.5
 20
-4.4999999999999964
 30
0.0
 10
58.100000000000001
 20
-4.7999999999999865
 30
0.0
 10
59.540007992468446
 20
-4.721017295397413
 30
0.0
 10
60.858674897554856
 20
-3.2204652999542525
 30
0.0
 10
60.608582898314324
 20
-1.412982214534118
 30
0.0
 10
59.903778173181941
 20
-0.5149245808976986
 30
0.0
 10
58.899999999999999
 20
0.4000000000000163
 30
0.0
 10
59.0
 20
1.8000000000000078
 30
0.0
  0
SPLINE
  5
F4
100
AcDbEntity
  8
0
 62
256
370
-1
 48
1.0
  6
BYLAYER
100
AcDbSpline
 70
8
 71
3
 72
14
 73
10
 74
0
 40
0.0
 40
0.0
 40
0.0
 40
0.0
 40
1.0
 40
2.0
 40
3.0
 40
4.0
 40
5.0
 40
6.0
 40
7.0
 40
7.0
 40
7.0
 40
7.0
 10
56.0
 20
9.7999999999999936
 30
0.0
 10
55.936409639775462
 20
9.2190749290338019
 30
0.0
 10
56.5
 20
8.1000000000000085
 30
0.0
 10
58.100000000000001
 20
8.3999999999999613
 30
0.0
 10
59.540007992468453
 20
8.3210172953973967
 30
0.0
 10
60.858674897554849
 20
6.8204652999551687
 30
0.0
 10
60.608582898314324
 20
5.0129822145341514
 30
0.0
 10
59.903778173181941
 20
4.1149245808977071
 30
0.0
 10
58.899999999999999
 20
3.2000000000000135
 30
0.0
 10
59.0
 20
1.8000000000000078
 30
0.0
  0
SPLINE
  5
F5
100
AcDbEntity
  8
0
 62
256
370
-1
 48
1.0
  6
BYLAYER
100
AcDbSpline
 70
8
 71
3
 72
14
 73
10
 74
0
 40
0.0
 40
0.0
 40
0.0
 40
0.0
 40
1.0
 40
2.0
 40
3.0
 40
4.0
 40
5.0
 40
6.0
 40
7.0
 40
7.0
 40
7.0
 40
7.0
 10
52.000000000000007
 20
-6.2000000000000099
 30
0.0
 10
52.063590360224538
 20
-5.6190749290338076
 30
0.0
 10
51.5
 20
-4.5000000000000036
 30
0.0
 10
49.899999999999999
 20
-4.8000000000000007
 30
0.0
 10
48.45999200753154
 20
-4.7210172953973952
 30
0.0
 10
47.141325102445151
 20
-3.2204652999542596
 30
0.0
 10
47.391417101685676
 20
-1.4129822145341109
 30
0.0
 10
48.096221826818059
 20
-0.5149245808976808
 30
0.0
 10
49.099999999999994
 20
0.4000000000000021
 30
0.0
 10
49.0
 20
1.8000000000000043
 30
0.0
  0
SPLINE
  5
F6
100
AcDbEntity
  8
0
 62
256
370
-1
 48
1.0
  6
BYLAYER
100
AcDbSpline
 70
8
 71
3
 72
14
 73
10
 74
0
 40
0.0
 40
0.0
 40
0.0
 40
0.0
 40
1.0
 40
2.0
 40
3.0
 40
4.0
 40
5.0
 40
6.0
 40
7.0
 40
7.0
 40
7.0
 40
7.0
 10
52.0
 20
9.7999999999999829
 30
0.0
 10
52.063590360224531
 20
9.2190749290338108
 30
0.0
 10
51.5
 20
8.0999999999999943
 30
0.0
 10
49.899999999999999
 20
8.3999999999999684
 30
0.0
 10
48.45999200753154
 20
8.321017295397402
 30
0.0
 10
47.141325102445151
 20
6.8204652999551829
 30
0.0
 10
47.391417101685676
 20
5.0129822145341247
 30
0.0
 10
48.096221826818059
 20
4.1149245808976946
 30
0.0
 10
49.100000000000001
 20
3.1999999999999957
 30
0.0
 10
49.0
 20
1.8000000000000043
 30
0.0
  0
SPLINE
  5
F7
100
AcDbEntity
  8
0
 62
256
370
-1
 48
1.0
  6
BYLAYER
100
AcDbSpline
 70
8
 71
3
 72
14
 73
10
 74
0
 40
0.0
 40
0.0
 40
0.0
 40
0.0
 40
1.0
 40
2.0
 40
3.0
 40
4.0
 40
5.0
 40
6.0
 40
7.0
 40
7.0
 40
7.0
 40
7.0
 10
34.0
 20
9.7999999999999972
 30
0.0
 10
34.063590360224538
 20
9.2190749290338001
 30
0.0
 10
33.5
 20
8.0999999999999961
 30
0.0
 10
31.899999999999999
 20
8.3999999999999826
 30
0.0
 10
30.459992007531547
 20
8.3210172953973807
 30
0.0
 10
29.141325102445155
 20
6.8204652999542486
 30
0.0
 10
29.391417101685676
 20
5.0129822145341194
 30
0.0
 10
30.096221826818059
 20
4.1149245808976822
 30
0.0
 10
31.100000000000001
 20
3.1999999999999957
 30
0.0
 10
31.0
 20
1.7999999999999972
 30
0.0
  0
SPLINE
  5
F8
100
AcDbEntity
  8
0
 62
256
370
-1
 48
1.0
  6
BYLAYER
100
AcDbSpline
 70
8
 71
3
 72
14
 73
10
 74
0
 40
0.0
 40
0.0
 40
0.0
 40
0.0
 40
1.0
 40
2.0
 40
3.0
 40
4.0
 40
5.0
 40
6.0
 40
7.0
 40
7.0
 40
7.0
 40
7.0
 10
34.000000000000007
 20
-6.1999999999999993
 30
0.0
 10
34.063590360224538
 20
-5.6190749290338111
 30
0.0
 10
33.5
 20
-4.5
 30
0.0
 10
31.900000000000006
 20
-4.7999999999999936
 30
0.0
 10
30.459992007531554
 20
-4.7210172953974023
 30
0.0
 10
29.141325102445151
 20
-3.220465299954256
 30
0.0
 10
29.391417101685676
 20
-1.412982214534118
 30
0.0
 10
30.096221826818059
 20
-0.5149245808976879
 30
0.0
 10
31.100000000000001
 20
0.3999999999999986
 30
0.0
 10
31.0
 20
1.7999999999999972
 30
0.0
  0
SPLINE
  5
F9
100
AcDbEntity
  8
0
 62
256
370
-1
 48
1.0
  6
BYLAYER
100
AcDbSpline
 70
8
 71
3
 72
14
 73
10
 74
0
 40
0.0
 40
0.0
 40
0.0
 40
0.0
 40
1.0
 40
2.0
 40
3.0
 40
4.0
 40
5.0
 40
6.0
 40
7.0
 40
7.0
 40
7.0
 40
7.0
 10
38.0
 20
-6.2000000000000099
 30
0.0
 10
37.936409639775462
 20
-5.6190749290338147
 30
0.0
 10
38.5
 20
-4.5
 30
0.0
 10
40.100000000000001
 20
-4.8000000000000043
 30
0.0
 10
41.54000799246846
 20
-4.7210172953973846
 30
0.0
 10
42.858674897554849
 20
-3.2204652999542525
 30
0.0
 10
42.608582898314324
 20
-1.4129822145341073
 30
0.0
 10
41.903778173181941
 20
-0.5149245808976808
 30
0.0
 10
40.899999999999999
 20
0.4000000000000057
 30
0.0
 10
41.0
 20
1.8000000000000007
 30
0.0
  0
ARC
  5
FA
100
AcDbEntity
  8
0
 62
256
370
-1
 48
1.0
  6
BYLAYER
100
AcDbCircle
 10
18.0
 20
52.0
 30
0.0
 40
2.0
100
AcDbArc
 50
0.0
 51
180.0
  0
ARC
  5
FB
100
AcDbEntity
  8
0
 62
256
370
-1
 48
1.0
  6
BYLAYER
100
AcDbCircle
 10
0.0
 20
52.0
 30
0.0
 40
2.0
100
AcDbArc
 50
0.0
 51
180.0
  0
ARC
  5
FC
100
AcDbEntity
  8
0
 62
256
370
-1
 48
1.0
  6
BYLAYER
100
AcDbCircle
 10
18.0
 20
-12.200000000000003
 30
0.0
 40
2.0
100
AcDbArc
 50
180.0
 51
0.0
  0
ARC
  5
FD
100
AcDbEntity
  8
0
 62
256
370
-1
 48
1.0
  6
BYLAYER
100
AcDbCircle
 10
-0.0000000000000071
 20
-12.199999999999996
 30
0.0
 40
2.0
100
AcDbArc
 50
180.0
 51
0.0
  0
ARC
  5
FE
100
AcDbEntity
  8
0
 62
256
370
-1
 48
1.0
  6
BYLAYER
100
AcDbCircle
 10
53.999999999999993
 20
52.0
 30
0.0
 40
2.0
100
AcDbArc
 50
0.0
 51
180.0
  0
ARC
  5
FF
100
AcDbEntity
  8
0
 62
256
370
-1
 48
1.0
  6
BYLAYER
100
AcDbCircle
 10
36.000000000000007
 20
52.0
 30
0.0
 40
2.0
100
AcDbArc
 50
0.0
 51
180.0
  0
ARC
  5
100
100
AcDbEntity
  8
0
 62
256
370
-1
 48
1.0
  6
BYLAYER
100
AcDbCircle
 10
53.999999999999993
 20
-12.199999999999989
 30
0.0
 40
2.0
100
AcDbArc
 50
180.0
 51
0.0
  0
ARC
  5
101
100
AcDbEntity
  8
0
 62
256
370
-1
 48
1.0
  6
BYLAYER
100
AcDbCircle
 10
36.000000000000014
 20
-12.200000000000003
 30
0.0
 40
2.0
100
AcDbArc
 50
180.0
 51
0.0
  0
LINE
  5
102
100
AcDbEntity
  8
0
 62
256
370
-1
 48
1.0
  6
BYLAYER
100
AcDbLine
 10
54.499999999999986
 20
21.401923788646684
 30
0.0
 11
54.499999999999986
 21
18.398076211353498
 31
0.0
  0
ENDSEC
  0
SECTION
  2
OBJECTS
  0
DICTIONARY
  5
C
100
AcDbDictionary
280
0
281
1
  3
ACAD_GROUP
350
D
  3
ACAD_LAYOUT
350
1A
  3
ACAD_MLINESTYLE
350
17
  3
ACAD_PLOTSETTINGS
350
19
  3
ACAD_PLOTSTYLENAME
350
E
  3
AcDbVariableDictionary
350
103
  3
QCAD_OBJECTS
350
104
  0
DICTIONARY
  5
D
100
AcDbDictionary
280
0
281
1
  0
ACDBDICTIONARYWDFLT
  5
E
100
AcDbDictionary
281
1
  3
Normal
350
F
100
AcDbDictionaryWithDefault
340
F
  0
ACDBPLACEHOLDER
  5
F
  0
DICTIONARY
  5
17
100
AcDbDictionary
280
0
281
1
  3
Standard
350
18
  0
MLINESTYLE
  5
18
100
AcDbMlineStyle
  2
STANDARD
 70
0
  3

 62
256
 51
90.0
 52
90.0
 71
2
 49
0.5
 62
256
  6
BYLAYER
 49
-0.5
 62
256
  6
BYLAYER
  0
DICTIONARY
  5
19
100
AcDbDictionary
280
0
281
1
  0
DICTIONARY
  5
1A
100
AcDbDictionary
281
1
  3
Layout1
350
1E
  3
Layout2
350
26
  3
Model
350
22
  0
LAYOUT
  5
1E
100
AcDbPlotSettings
  1

  2
none_device
  4

  6

 40
0.0
 41
0.0
 42
0.0
 43
0.0
 44
0.0
 45
0.0
 46
0.0
 47
0.0
 48
0.0
 49
0.0
140
0.0
141
0.0
142
1.0
143
1.0
 70
688
 72
0
 73
0
 74
5
  7

 75
16
147
1.0
148
0.0
149
0.0
100
AcDbLayout
  1
Layout1
 70
1
 71
1
 10
0.0
 20
0.0
 11
420.0
 21
297.0
 12
0.0
 22
0.0
 32
0.0
 14
100000000000000000000.0
 24
100000000000000000000.0
 34
100000000000000000000.0
 15
-100000000000000000000.0
 25
-100000000000000000000.0
 35
-100000000000000000000.0
146
0.0
 13
0.0
 23
0.0
 33
0.0
 16
1.0
 26
0.0
 36
0.0
 17
0.0
 27
1.0
 37
0.0
 76
0
330
1B
  0
LAYOUT
  5
22
100
AcDbPlotSettings
  1

  2
none_device
  4

  6

 40
0.0
 41
0.0
 42
0.0
 43
0.0
 44
0.0
 45
0.0
 46
0.0
 47
0.0
 48
0.0
 49
0.0
140
0.0
141
0.0
142
1.0
143
1.0
 70
1712
 72
0
 73
0
 74
0
  7

 75
0
147
1.0
148
0.0
149
0.0
100
AcDbLayout
  1
Model
 70
1
 71
0
 10
0.0
 20
0.0
 11
12.0
 21
9.0
 12
0.0
 22
0.0
 32
0.0
 14
0.0
 24
0.0
 34
0.0
 15
0.0
 25
0.0
 35
0.0
146
0.0
 13
0.0
 23
0.0
 33
0.0
 16
1.0
 26
0.0
 36
0.0
 17
0.0
 27
1.0
 37
0.0
 76
0
330
1F
  0
LAYOUT
  5
26
100
AcDbPlotSettings
  1

  2
none_device
  4

  6

 40
0.0
 41
0.0
 42
0.0
 43
0.0
 44
0.0
 45
0.0
 46
0.0
 47
0.0
 48
0.0
 49
0.0
140
0.0
141
0.0
142
1.0
143
1.0
 70
688
 72
0
 73
0
 74
5
  7

 75
16
147
1.0
148
0.0
149
0.0
100
AcDbLayout
  1
Layout2
 70
1
 71
2
 10
0.0
 20
0.0
 11
12.0
 21
9.0
 12
0.0
 22
0.0
 32
0.0
 14
0.0
 24
0.0
 34
0.0
 15
0.0
 25
0.0
 35
0.0
146
0.0
 13
0.0
 23
0.0
 33
0.0
 16
1.0
 26
0.0
 36
0.0
 17
0.0
 27
1.0
 37
0.0
 76
0
330
23
  0
DICTIONARY
  5
103
100
AcDbDictionary
281
1
  3
DIMASSOC
350
106
  3
HIDETEXT
350
105
  0
DICTIONARYVAR
  5
105
100
DictionaryVariables
280
0
  1
2
  0
DICTIONARYVAR
  5
106
100
DictionaryVariables
280
0
  1
1
  0
DICTIONARY
  5
104
100
AcDbDictionary
281
1
  3
ColorSettings/BackgroundColor
350
107
  3
ColorSettings/ColorMode
350
108
  3
Grid/DisplayGrid00
350
109
  3
Grid/DisplayGrid01
350
10A
  3
Grid/DisplayGrid02
350
10B
  3
Grid/DisplayGrid03
350
10C
  3
Grid/GridSpacingX00
350
10D
  3
Grid/GridSpacingX01
350
10E
  3
Grid/GridSpacingX02
350
10F
  3
Grid/GridSpacingX03
350
110
  3
Grid/GridSpacingY00
350
111
  3
Grid/GridSpacingY01
350
112
  3
Grid/GridSpacingY02
350
113
  3
Grid/GridSpacingY03
350
114
  3
Grid/IsometricGrid00
350
115
  3
Grid/IsometricGrid01
350
116
  3
Grid/IsometricGrid02
350
117
  3
Grid/IsometricGrid03
350
118
  3
Grid/IsometricProjection00
350
119
  3
Grid/IsometricProjection01
350
11A
  3
Grid/IsometricProjection02
350
11B
  3
Grid/IsometricProjection03
350
11C
  3
Grid/MetaGridSpacingX00
350
11D
  3
Grid/MetaGridSpacingX01
350
11E
  3
Grid/MetaGridSpacingX02
350
11F
  3
Grid/MetaGridSpacingX03
350
120
  3
Grid/MetaGridSpacingY00
350
121
  3
Grid/MetaGridSpacingY01
350
122
  3
Grid/MetaGridSpacingY02
350
123
  3
Grid/MetaGridSpacingY03
350
124
  3
MultiPageSettings/Columns
350
125
  3
MultiPageSettings/GlueMarginsBottom
350
126
  3
MultiPageSettings/GlueMarginsLeft
350
127
  3
MultiPageSettings/GlueMarginsRight
350
128
  3
MultiPageSettings/GlueMarginsTop
350
129
  3
MultiPageSettings/PrintCropMarks
350
12A
  3
MultiPageSettings/Rows
350
12B
  3
PageSettings/OffsetX
350
12C
  3
PageSettings/OffsetY
350
12D
  3
PageSettings/PageOrientation
350
12E
  3
PageSettings/PaperHeight
350
12F
  3
PageSettings/PaperWidth
350
130
  3
PageSettings/Scale
350
131
  3
PageSettings/ShowPaperBorders
350
132
  3
QCADVersion
350
133
  3
UnitSettings/PaperUnit
350
134
  3
ViewportCenter
350
135
  3
ViewportHeight
350
136
  3
ViewportWidth
350
137
  0
XRECORD
  5
107
330
104
100
AcDbXrecord
280
1
1000
White
  0
XRECORD
  5
108
330
104
100
AcDbXrecord
280
1
1000
FullColor
  0
XRECORD
  5
109
330
104
100
AcDbXrecord
280
1
290
1
  0
XRECORD
  5
10A
330
104
100
AcDbXrecord
280
1
290
0
  0
XRECORD
  5
10B
330
104
100
AcDbXrecord
280
1
290
0
  0
XRECORD
  5
10C
330
104
100
AcDbXrecord
280
1
290
0
  0
XRECORD
  5
10D
330
104
100
AcDbXrecord
280
1
1000
auto
  0
XRECORD
  5
10E
330
104
100
AcDbXrecord
280
1
1000
auto
  0
XRECORD
  5
10F
330
104
100
AcDbXrecord
280
1
1000
auto
  0
XRECORD
  5
110
330
104
100
AcDbXrecord
280
1
1000
auto
  0
XRECORD
  5
111
330
104
100
AcDbXrecord
280
1
1000
auto
  0
XRECORD
  5
112
330
104
100
AcDbXrecord
280
1
1000
auto
  0
XRECORD
  5
113
330
104
100
AcDbXrecord
280
1
1000
auto
  0
XRECORD
  5
114
330
104
100
AcDbXrecord
280
1
1000
auto
  0
XRECORD
  5
115
330
104
100
AcDbXrecord
280
1
290
0
  0
XRECORD
  5
116
330
104
100
AcDbXrecord
280
1
290
0
  0
XRECORD
  5
117
330
104
100
AcDbXrecord
280
1
290
0
  0
XRECORD
  5
118
330
104
100
AcDbXrecord
280
1
290
0
  0
XRECORD
  5
119
330
104
100
AcDbXrecord
280
1
 90
4097
  0
XRECORD
  5
11A
330
104
100
AcDbXrecord
280
1
 90
4097
  0
XRECORD
  5
11B
330
104
100
AcDbXrecord
280
1
 90
4097
  0
XRECORD
  5
11C
330
104
100
AcDbXrecord
280
1
 90
4097
  0
XRECORD
  5
11D
330
104
100
AcDbXrecord
280
1
1000
10
  0
XRECORD
  5
11E
330
104
100
AcDbXrecord
280
1
1000
auto
  0
XRECORD
  5
11F
330
104
100
AcDbXrecord
280
1
1000
auto
  0
XRECORD
  5
120
330
104
100
AcDbXrecord
280
1
1000
auto
  0
XRECORD
  5
121
330
104
100
AcDbXrecord
280
1
1000
10
  0
XRECORD
  5
122
330
104
100
AcDbXrecord
280
1
1000
auto
  0
XRECORD
  5
123
330
104
100
AcDbXrecord
280
1
1000
auto
  0
XRECORD
  5
124
330
104
100
AcDbXrecord
280
1
1000
auto
  0
XRECORD
  5
125
330
104
100
AcDbXrecord
280
1
 90
1
  0
XRECORD
  5
126
330
104
100
AcDbXrecord
280
1
 40
0.5
  0
XRECORD
  5
127
330
104
100
AcDbXrecord
280
1
 40
0.5
  0
XRECORD
  5
128
330
104
100
AcDbXrecord
280
1
 40
0.5
  0
XRECORD
  5
129
330
104
100
AcDbXrecord
280
1
 40
0.5
  0
XRECORD
  5
12A
330
104
100
AcDbXrecord
280
1
290
0
  0
XRECORD
  5
12B
330
104
100
AcDbXrecord
280
1
 90
1
  0
XRECORD
  5
12C
330
104
100
AcDbXrecord
280
1
 40
0.0
  0
XRECORD
  5
12D
330
104
100
AcDbXrecord
280
1
 40
0.0
  0
XRECORD
  5
12E
330
104
100
AcDbXrecord
280
1
1000
Landscape
  0
XRECORD
  5
12F
330
104
100
AcDbXrecord
280
1
 40
297.0
  0
XRECORD
  5
130
330
104
100
AcDbXrecord
280
1
 40
210.0
  0
XRECORD
  5
131
330
104
100
AcDbXrecord
280
1
1000
1:1
  0
XRECORD
  5
132
330
104
100
AcDbXrecord
280
1
290
1
  0
XRECORD
  5
133
330
104
100
AcDbXrecord
280
1
1000
3.16.7
  0
XRECORD
  5
134
330
104
100
AcDbXrecord
280
1
 90
4
  0
XRECORD
  5
136
330
104
100
AcDbXrecord
280
1
 40
72.717456359102243
  0
XRECORD
  5
137
330
104
100
AcDbXrecord
280
1
 40
100.28522443890274
  0
ENDSEC
  0
EOF
