  0
SECTION
  2
HEADER
  9
$ACADVER
  1
AC1014
  9
$ACADMAINTVER
 70
     9
  9
$DWGCODEPAGE
  3
ANSI_1252
  9
$INSBASE
 10
0.0
 20
0.0
 30
0.0
  9
$EXTMIN
 10
1.000000000000000E+20
 20
1.000000000000000E+20
 30
1.000000000000000E+20
  9
$EXTMAX
 10
-1.000000000000000E+20
 20
-1.000000000000000E+20
 30
-1.000000000000000E+20
  9
$LIMMIN
 10
0.0
 20
0.0
  9
$LIMMAX
 10
12.0
 20
9.0
  9
$ORTHOMODE
 70
     0
  9
$REGENMODE
 70
     1
  9
$FILLMODE
 70
     1
  9
$QTEXTMODE
 70
     0
  9
$MIRRTEXT
 70
     1
  9
$DRAGMODE
 70
     2
  9
$LTSCALE
 40
1.0
  9
$OSMODE
 70
    37
  9
$ATTMODE
 70
     1
  9
$TEXTSIZE
 40
0.2
  9
$TRACEWID
 40
0.05
  9
$TEXTSTYLE
  7
STANDARD
  9
$CLAYER
  8
0
  9
$CELTYPE
  6
BYLAYER
  9
$CECOLOR
 62
   256
  9
$CELTSCALE
 40
1.0
  9
$DELOBJ
 70
     1
  9
$DISPSILH
 70
     0
  9
$DIMSCALE
 40
1.0
  9
$DIMASZ
 40
0.18
  9
$DIMEXO
 40
0.0625
  9
$DIMDLI
 40
0.38
  9
$DIMRND
 40
0.0
  9
$DIMDLE
 40
0.0
  9
$DIMEXE
 40
0.18
  9
$DIMTP
 40
0.0
  9
$DIMTM
 40
0.0
  9
$DIMTXT
 40
0.18
  9
$DIMCEN
 40
0.09
  9
$DIMTSZ
 40
0.0
  9
$DIMTOL
 70
     0
  9
$DIMLIM
 70
     0
  9
$DIMTIH
 70
     1
  9
$DIMTOH
 70
     1
  9
$DIMSE1
 70
     0
  9
$DIMSE2
 70
     0
  9
$DIMTAD
 70
     0
  9
$DIMZIN
 70
     0
  9
$DIMBLK
  1

  9
$DIMASO
 70
     1
  9
$DIMSHO
 70
     1
  9
$DIMPOST
  1

  9
$DIMAPOST
  1

  9
$DIMALT
 70
     0
  9
$DIMALTD
 70
     2
  9
$DIMALTF
 40
25.4
  9
$DIMLFAC
 40
1.0
  9
$DIMTOFL
 70
     0
  9
$DIMTVP
 40
0.0
  9
$DIMTIX
 70
     0
  9
$DIMSOXD
 70
     0
  9
$DIMSAH
 70
     0
  9
$DIMBLK1
  1

  9
$DIMBLK2
  1

  9
$DIMSTYLE
  2
STANDARD
  9
$DIMCLRD
 70
     0
  9
$DIMCLRE
 70
     0
  9
$DIMCLRT
 70
     0
  9
$DIMTFAC
 40
1.0
  9
$DIMGAP
 40
0.09
  9
$DIMJUST
 70
     0
  9
$DIMSD1
 70
     0
  9
$DIMSD2
 70
     0
  9
$DIMTOLJ
 70
     1
  9
$DIMTZIN
 70
     0
  9
$DIMALTZ
 70
     0
  9
$DIMALTTZ
 70
     0
  9
$DIMFIT
 70
     3
  9
$DIMUPT
 70
     0
  9
$DIMUNIT
 70
     2
  9
$DIMDEC
 70
     4
  9
$DIMTDEC
 70
     4
  9
$DIMALTU
 70
     2
  9
$DIMALTTD
 70
     2
  9
$DIMTXSTY
  7
STANDARD
  9
$DIMAUNIT
 70
     0
  9
$LUNITS
 70
     2
  9
$LUPREC
 70
     4
  9
$SKETCHINC
 40
0.1
  9
$FILLETRAD
 40
0.5
  9
$AUNITS
 70
     0
  9
$AUPREC
 70
     0
  9
$MENU
  1
.
  9
$ELEVATION
 40
0.0
  9
$PELEVATION
 40
0.0
  9
$THICKNESS
 40
0.0
  9
$LIMCHECK
 70
     0
  9
$CHAMFERA
 40
0.0
  9
$CHAMFERB
 40
0.0
  9
$CHAMFERC
 40
0.0
  9
$CHAMFERD
 40
0.0
  9
$SKPOLY
 70
     0
  9
$TDCREATE
 40
2458727.675522511
  9
$TDUPDATE
 40
2458727.675522963
  9
$TDINDWG
 40
0.0000000116
  9
$TDUSRTIMER
 40
0.0000000116
  9
$USRTIMER
 70
     1
  9
$ANGBASE
 50
0.0
  9
$ANGDIR
 70
     0
  9
$PDMODE
 70
     0
  9
$PDSIZE
 40
0.0
  9
$PLINEWID
 40
0.0
  9
$COORDS
 70
     1
  9
$SPLFRAME
 70
     0
  9
$SPLINETYPE
 70
     6
  9
$SPLINESEGS
 70
     8
  9
$ATTDIA
 70
     0
  9
$ATTREQ
 70
     1
  9
$HANDLING
 70
     1
  9
$HANDSEED
  5
344
  9
$SURFTAB1
 70
     6
  9
$SURFTAB2
 70
     6
  9
$SURFTYPE
 70
     6
  9
$SURFU
 70
     6
  9
$SURFV
 70
     6
  9
$UCSNAME
  2

  9
$UCSORG
 10
0.0
 20
0.0
 30
0.0
  9
$UCSXDIR
 10
1.0
 20
0.0
 30
0.0
  9
$UCSYDIR
 10
0.0
 20
1.0
 30
0.0
  9
$PUCSNAME
  2

  9
$PUCSORG
 10
0.0
 20
0.0
 30
0.0
  9
$PUCSXDIR
 10
1.0
 20
0.0
 30
0.0
  9
$PUCSYDIR
 10
0.0
 20
1.0
 30
0.0
  9
$USERI1
 70
     0
  9
$USERI2
 70
     0
  9
$USERI3
 70
     0
  9
$USERI4
 70
     0
  9
$USERI5
 70
     0
  9
$USERR1
 40
0.0
  9
$USERR2
 40
0.0
  9
$USERR3
 40
0.0
  9
$USERR4
 40
0.0
  9
$USERR5
 40
0.0
  9
$WORLDVIEW
 70
     1
  9
$SHADEDGE
 70
     3
  9
$SHADEDIF
 70
    70
  9
$TILEMODE
 70
     1
  9
$MAXACTVP
 70
    64
  9
$PINSBASE
 10
0.0
 20
0.0
 30
0.0
  9
$PLIMCHECK
 70
     0
  9
$PEXTMIN
 10
1.000000000000000E+20
 20
1.000000000000000E+20
 30
1.000000000000000E+20
  9
$PEXTMAX
 10
-1.000000000000000E+20
 20
-1.000000000000000E+20
 30
-1.000000000000000E+20
  9
$PLIMMIN
 10
0.0
 20
0.0
  9
$PLIMMAX
 10
12.0
 20
9.0
  9
$UNITMODE
 70
     0
  9
$VISRETAIN
 70
     1
  9
$PLINEGEN
 70
     0
  9
$PSLTSCALE
 70
     1
  9
$TREEDEPTH
 70
  3020
  9
$PICKSTYLE
 70
     1
  9
$CMLSTYLE
  2
STANDARD
  9
$CMLJUST
 70
     0
  9
$CMLSCALE
 40
1.0
  9
$PROXYGRAPHICS
 70
     1
  9
$MEASUREMENT
 70
     1
  0
ENDSEC
  0
SECTION
  2
CLASSES
  0
CLASS
  1
ACDBDICTIONARYWDFLT
  2
AcDbDictionaryWithDefault
  3
ObjectDBX Classes
 90
        0
280
     0
281
     0
  0
CLASS
  1
VISUALSTYLE
  2
AcDbVisualStyle
  3
ObjectDBX Classes
 90
     4095
280
     0
281
     0
  0
CLASS
  1
MATERIAL
  2
AcDbMaterial
  3
ObjectDBX Classes
 90
     1153
280
     0
281
     0
  0
CLASS
  1
SCALE
  2
AcDbScale
  3
ObjectDBX Classes
 90
     1153
280
     0
281
     0
  0
CLASS
  1
TABLESTYLE
  2
AcDbTableStyle
  3
ObjectDBX Classes
 90
     4095
280
     0
281
     0
  0
CLASS
  1
MLEADERSTYLE
  2
AcDbMLeaderStyle
  3
ACDB_MLEADERSTYLE_CLASS
 90
     4095
280
     0
281
     0
  0
CLASS
  1
SUN
  2
AcDbSun
  3
SCENEOE
 90
     1153
280
     0
281
     0
  0
CLASS
  1
DICTIONARYVAR
  2
AcDbDictionaryVar
  3
ObjectDBX Classes
 90
        0
280
     0
281
     0
  0
CLASS
  1
XRECORD
  2
AcDbXrecord
  3
ObjectDBX Classes
 90
        0
280
     0
281
     0
  0
CLASS
  1
LWPOLYLINE
  2
AcDbPolyline
  3
ObjectDBX Classes
 90
        0
280
     0
281
     1
  0
CLASS
  1
HATCH
  2
AcDbHatch
  3
ObjectDBX Classes
 90
        0
280
     0
281
     1
  0
CLASS
  1
ACDBPLACEHOLDER
  2
AcDbPlaceHolder
  3
ObjectDBX Classes
 90
        0
280
     0
281
     0
  0
CLASS
  1
LAYOUT
  2
AcDbLayout
  3
ObjectDBX Classes
 90
        0
280
     0
281
     0
  0
ENDSEC
  0
SECTION
  2
TABLES
  0
TABLE
  2
VPORT
  5
8
102
{ACAD_XDICTIONARY
360
339
102
}
330
0
100
AcDbSymbolTable
 70
     1
  0
VPORT
  5
29
330
8
100
AcDbSymbolTableRecord
100
AcDbViewportTableRecord
  2
*ACTIVE
 70
     0
 10
0.0
 20
0.0
 11
1.0
 21
1.0
 12
0.0
 22
0.0
 13
0.0
 23
0.0
 14
0.5
 24
0.5
 15
0.5
 25
0.5
 16
0.0
 26
0.0
 36
1.0
 17
0.0
 27
0.0
 37
-1000.0
 40
104.8583268150736
 41
1.75
 42
50.0
 43
155.489999618629
 44
217.9833328672132
 50
0.0
 51
0.0
 71
     0
 72
   100
 73
     1
 74
     3
 75
     0
 76
     0
 77
     0
 78
     0
  0
ENDTAB
  0
TABLE
  2
LTYPE
  5
5
330
0
100
AcDbSymbolTable
 70
     1
  0
LTYPE
  5
14
330
5
100
AcDbSymbolTableRecord
100
AcDbLinetypeTableRecord
  2
BYBLOCK
 70
     0
  3

 72
    65
 73
     0
 40
0.0
  0
LTYPE
  5
15
330
5
100
AcDbSymbolTableRecord
100
AcDbLinetypeTableRecord
  2
BYLAYER
 70
     0
  3

 72
    65
 73
     0
 40
0.0
  0
LTYPE
  5
16
330
5
100
AcDbSymbolTableRecord
100
AcDbLinetypeTableRecord
  2
CONTINUOUS
 70
     0
  3
Solid line
 72
    65
 73
     0
 40
0.0
  0
ENDTAB
  0
TABLE
  2
LAYER
  5
2
330
0
100
AcDbSymbolTable
 70
     3
  0
LAYER
  5
10
330
2
100
AcDbSymbolTableRecord
100
AcDbLayerTableRecord
  2
0
 70
     0
 62
     7
  6
CONTINUOUS
  0
LAYER
  5
6E
330
2
100
AcDbSymbolTableRecord
100
AcDbLayerTableRecord
  2
PROFILEEDGES
 70
     0
 62
     7
  6
CONTINUOUS
  0
LAYER
  5
6F
330
2
100
AcDbSymbolTableRecord
100
AcDbLayerTableRecord
  2
SECTIONCUTEDGES
 70
     0
 62
     7
  6
CONTINUOUS
  0
ENDTAB
  0
TABLE
  2
STYLE
  5
3
330
0
100
AcDbSymbolTable
 70
     1
  0
STYLE
  5
11
330
3
100
AcDbSymbolTableRecord
100
AcDbTextStyleTableRecord
  2
STANDARD
 70
     0
 40
0.0
 41
1.0
 50
0.0
 71
     0
 42
0.2
  3
txt
  4

  0
ENDTAB
  0
TABLE
  2
VIEW
  5
6
330
0
100
AcDbSymbolTable
 70
     0
  0
ENDTAB
  0
TABLE
  2
UCS
  5
7
330
0
100
AcDbSymbolTable
 70
     0
  0
ENDTAB
  0
TABLE
  2
APPID
  5
9
330
0
100
AcDbSymbolTable
 70
     2
  0
APPID
  5
12
330
9
100
AcDbSymbolTableRecord
100
AcDbRegAppTableRecord
  2
ACAD
 70
     0
  0
APPID
  5
343
330
9
100
AcDbSymbolTableRecord
100
AcDbRegAppTableRecord
  2
ACAD_MLEADERVER
 70
     0
  0
ENDTAB
  0
TABLE
  2
DIMSTYLE
  5
A
330
0
100
AcDbSymbolTable
 70
     1
  0
DIMSTYLE
105
27
330
A
100
AcDbSymbolTableRecord
100
AcDbDimStyleTableRecord
  2
STANDARD
 70
     0
  3

  4

  5

  6

  7

 40
1.0
 41
0.18
 42
0.0625
 43
0.38
 44
0.18
 45
0.0
 46
0.0
 47
0.0
 48
0.0
140
0.18
141
0.09
142
0.0
143
25.4
144
1.0
145
0.0
146
1.0
147
0.09
 71
     0
 72
     0
 73
     1
 74
     1
 75
     0
 76
     0
 77
     0
 78
     0
170
     0
171
     2
172
     0
173
     0
174
     0
175
     0
176
     0
177
     0
178
     0
270
     2
271
     4
272
     4
273
     2
274
     2
340
11
275
     0
280
     0
281
     0
282
     0
283
     1
284
     0
285
     0
286
     0
287
     3
288
     0
  0
ENDTAB
  0
TABLE
  2
BLOCK_RECORD
  5
1
330
0
100
AcDbSymbolTable
 70
     1
  0
BLOCK_RECORD
  5
1F
330
1
100
AcDbSymbolTableRecord
100
AcDbBlockTableRecord
  2
*MODEL_SPACE
  0
BLOCK_RECORD
  5
1B
330
1
100
AcDbSymbolTableRecord
100
AcDbBlockTableRecord
  2
*PAPER_SPACE
  0
ENDTAB
  0
ENDSEC
  0
SECTION
  2
BLOCKS
  0
BLOCK
  5
20
330
1F
100
AcDbEntity
  8
0
100
AcDbBlockBegin
  2
*MODEL_SPACE
 70
     0
 10
0.0
 20
0.0
 30
0.0
  3
*MODEL_SPACE
  1

  0
ENDBLK
  5
21
330
1F
100
AcDbEntity
  8
0
100
AcDbBlockEnd
  0
BLOCK
  5
1C
330
1B
100
AcDbEntity
 67
     1
  8
0
100
AcDbBlockBegin
  2
*PAPER_SPACE
 70
     0
 10
0.0
 20
0.0
 30
0.0
  3
*PAPER_SPACE
  1

  0
ENDBLK
  5
1D
330
1B
100
AcDbEntity
 67
     1
  8
0
100
AcDbBlockEnd
  0
ENDSEC
  0
SECTION
  2
ENTITIES
  0
LINE
  5
70
330
1F
100
AcDbEntity
  8
0
100
AcDbLine
 10
-77.26483380671161
 20
-1.153453530262933
 30
0.0
 11
-77.28786596058856
 21
-1.252233051046837
 31
0.0
  0
LINE
  5
71
330
1F
100
AcDbEntity
  8
0
100
AcDbLine
 10
-77.23539047668096
 20
-1.056391878951943
 30
0.0
 11
-77.26483380671161
 21
-1.153453530262933
 31
0.0
  0
LINE
  5
72
330
1F
100
AcDbEntity
  8
0
100
AcDbLine
 10
-77.15780152533922
 20
-2.240170520011272
 30
0.0
 11
-77.10998815182944
 21
-2.32962305017182
 31
0.0
  0
LINE
  5
73
330
1F
100
AcDbEntity
  8
0
100
AcDbLine
 10
-77.19966205135606
 20
-2.147782370337719
 30
0.0
 11
-77.15780152533922
 21
-2.240170520011272
 31
0.0
  0
LINE
  5
74
330
1F
100
AcDbEntity
  8
0
100
AcDbLine
 10
-77.10998815182944
 20
-2.32962305017182
 30
0.0
 11
-77.0564266750325
 21
-2.415756911352199
 31
0.0
  0
LINE
  5
75
330
1F
100
AcDbEntity
  8
0
100
AcDbLine
 10
-77.28786596058856
 20
-1.857013049296827
 30
0.0
 11
-77.26483380671161
 21
-1.955792570080732
 31
0.0
  0
LINE
  5
76
330
1F
100
AcDbEntity
  8
0
100
AcDbLine
 10
-77.23539047668096
 20
-2.052854221391722
 30
0.0
 11
-77.19966205135606
 21
-2.147782370337719
 31
0.0
  0
LINE
  5
77
330
1F
100
AcDbEntity
  8
0
100
AcDbLine
 10
-77.30438831109296
 20
-1.756938648112907
 30
0.0
 11
-77.28786596058856
 21
-1.857013049296827
 31
0.0
  0
LINE
  5
78
330
1F
100
AcDbEntity
  8
0
100
AcDbLine
 10
-77.31433010698339
 20
-1.65599790047855
 30
0.0
 11
-77.30438831109296
 21
-1.756938648112907
 31
0.0
  0
LINE
  5
79
330
1F
100
AcDbEntity
  8
0
100
AcDbLine
 10
-77.31764877596356
 20
-1.554623050171838
 30
0.0
 11
-77.31433010698339
 21
-1.65599790047855
 31
0.0
  0
LINE
  5
7A
330
1F
100
AcDbEntity
  8
0
100
AcDbLine
 10
-77.31433010698339
 20
-1.453248199865115
 30
0.0
 11
-77.31764877596356
 21
-1.554623050171838
 31
0.0
  0
LINE
  5
7B
330
1F
100
AcDbEntity
  8
0
100
AcDbLine
 10
-77.30438831109296
 20
-1.352307452230757
 30
0.0
 11
-77.31433010698339
 21
-1.453248199865115
 31
0.0
  0
LINE
  5
7C
330
1F
100
AcDbEntity
  8
0
100
AcDbLine
 10
-77.26483380671161
 20
-1.955792570080732
 30
0.0
 11
-77.23539047668096
 21
-2.052854221391722
 31
0.0
  0
LINE
  5
7D
330
1F
100
AcDbEntity
  8
0
100
AcDbLine
 10
-77.28786596058856
 20
-1.252233051046837
 30
0.0
 11
-77.30438831109296
 21
-1.352307452230757
 31
0.0
  0
LINE
  5
7E
330
1F
100
AcDbEntity
  8
0
100
AcDbLine
 10
80.28806100089614
 20
-0.5500412781126076
 30
0.0
 11
80.32119638709491
 21
-0.3224119196555524
 31
0.0
  0
LINE
  5
7F
330
1F
100
AcDbEntity
  8
0
100
AcDbLine
 10
81.59197963914794
 20
1.802596327836735
 30
0.0
 11
81.77683643249513
 21
1.939494262823042
 31
0.0
  0
LINE
  5
80
330
1F
100
AcDbEntity
  8
0
100
AcDbLine
 10
77.87608952501351
 20
-5.037639912472802
 30
0.0
 11
78.16935670513412
 21
-4.825706236847965
 31
0.0
  0
LINE
  5
81
330
1F
100
AcDbEntity
  8
0
100
AcDbLine
 10
79.57849394862127
 20
-3.192657978193514
 30
0.0
 11
79.74520628405917
 21
-2.871521684678501
 31
0.0
  0
LINE
  5
82
330
1F
100
AcDbEntity
  8
0
100
AcDbLine
 10
80.4319018778534
 20
0.123870562986249
 30
0.0
 11
80.50899379724254
 21
0.34059599899922
 31
0.0
  0
LINE
  5
83
330
1F
100
AcDbEntity
  8
0
100
AcDbLine
 10
82.59367551686097
 20
2.357609043876058
 30
0.0
 11
82.81282600239503
 21
2.427509997662843
 31
0.0
  0
LINE
  5
84
330
1F
100
AcDbEntity
  8
0
100
AcDbLine
 10
82.81282600239503
 20
2.427509997662843
 30
0.0
 11
83.03609476269993
 21
2.482864666138262
 31
0.0
  0
LINE
  5
85
330
1F
100
AcDbEntity
  8
0
100
AcDbLine
 10
78.71039422870972
 20
-4.345722874677238
 30
0.0
 11
78.95576581306575
 21
-4.079801255792425
 31
0.0
  0
LINE
  5
86
330
1F
100
AcDbEntity
  8
0
100
AcDbLine
 10
80.11242711948516
 20
-1.851736224971202
 30
0.0
 11
80.18871938373081
 21
-1.498040010380224
 31
0.0
  0
LINE
  5
87
330
1F
100
AcDbEntity
  8
0
100
AcDbLine
 10
76.58234383496702
 20
-5.677466348859768
 30
0.0
 11
76.9210585504198
 21
-5.550211237624701
 31
0.0
  0
LINE
  5
88
330
1F
100
AcDbEntity
  8
0
100
AcDbLine
 10
80.18871938373081
 20
-1.498040010380224
 30
0.0
 11
80.24130454083087
 21
-1.140050732534525
 31
0.0
  0
LINE
  5
89
330
1F
100
AcDbEntity
  8
0
100
AcDbLine
 10
80.01276599961078
 20
-2.199571218876522
 30
0.0
 11
80.11242711948516
 21
-1.851736224971202
 31
0.0
  0
LINE
  5
8A
330
1F
100
AcDbEntity
  8
0
100
AcDbLine
 10
76.23591133988288
 20
-5.781898375314637
 30
0.0
 11
76.58234383496702
 21
-5.677466348859768
 31
0.0
  0
LINE
  5
8B
330
1F
100
AcDbEntity
  8
0
100
AcDbLine
 10
79.18289674771657
 20
-3.79814000477558
 30
0.0
 11
79.3907800185967
 21
-3.501987902828121
 31
0.0
  0
LINE
  5
8C
330
1F
100
AcDbEntity
  8
0
100
AcDbLine
 10
80.3692124802116
 20
-0.0974507375553441
 30
0.0
 11
80.4319018778534
 21
0.123870562986249
 31
0.0
  0
LINE
  5
8D
330
1F
100
AcDbEntity
  8
0
100
AcDbLine
 10
74.0827844595886
 20
-5.910580244399803
 30
0.0
 11
74.4425536323169
 21
-5.949150493998221
 31
0.0
  0
LINE
  5
8E
330
1F
100
AcDbEntity
  8
0
100
AcDbLine
 10
76.9210585504198
 20
-5.550211237624701
 30
0.0
 11
77.25055375120395
 21
-5.400697243430333
 31
0.0
  0
LINE
  5
8F
330
1F
100
AcDbEntity
  8
0
100
AcDbLine
 10
74.80409205911276
 20
-5.963693112390727
 30
0.0
 11
75.16579681309372
 21
-5.954143623017639
 31
0.0
  0
LINE
  5
90
330
1F
100
AcDbEntity
  8
0
100
AcDbLine
 10
79.89017788443661
 20
-2.540002821137177
 30
0.0
 11
80.01276599961078
 21
-2.199571218876522
 31
0.0
  0
LINE
  5
91
330
1F
100
AcDbEntity
  8
0
100
AcDbLine
 10
74.4425536323169
 20
-5.949150493998221
 30
0.0
 11
74.80409205911276
 21
-5.963693112390727
 31
0.0
  0
LINE
  5
92
330
1F
100
AcDbEntity
  8
0
100
AcDbLine
 10
75.16579681309372
 20
-5.954143623017639
 30
0.0
 11
75.52606422994461
 21
-5.920544364762159
 31
0.0
  0
LINE
  5
93
330
1F
100
AcDbEntity
  8
0
100
AcDbLine
 10
75.88329701796827
 20
-5.86304430423556
 30
0.0
 11
76.23591133988288
 21
-5.781898375314637
 31
0.0
  0
LINE
  5
94
330
1F
100
AcDbEntity
  8
0
100
AcDbLine
 10
65.56964662618934
 20
-4.98451645536905
 30
0.0
 11
74.0827844595886
 21
-5.910580244399803
 31
0.0
  0
LINE
  5
95
330
1F
100
AcDbEntity
  8
0
100
AcDbLine
 10
75.52606422994461
 20
-5.920544364762159
 30
0.0
 11
75.88329701796827
 21
-5.86304430423556
 31
0.0
  0
LINE
  5
96
330
1F
100
AcDbEntity
  8
0
100
AcDbLine
 10
77.25055375120395
 20
-5.400697243430333
 30
0.0
 11
77.56936857818023
 21
-5.229587255703684
 31
0.0
  0
LINE
  5
97
330
1F
100
AcDbEntity
  8
0
100
AcDbLine
 10
77.56936857818023
 20
-5.229587255703684
 30
0.0
 11
77.87608952501351
 21
-5.037639912472802
 31
0.0
  0
LINE
  5
98
330
1F
100
AcDbEntity
  8
0
100
AcDbLine
 10
78.16935670513412
 20
-4.825706236847965
 30
0.0
 11
78.44786988096857
 21
-4.594725863901873
 31
0.0
  0
LINE
  5
99
330
1F
100
AcDbEntity
  8
0
100
AcDbLine
 10
78.44786988096857
 20
-4.594725863901873
 30
0.0
 11
78.71039422870972
 21
-4.345722874677238
 31
0.0
  0
LINE
  5
9A
330
1F
100
AcDbEntity
  8
0
100
AcDbLine
 10
78.95576581306575
 20
-4.079801255792425
 30
0.0
 11
79.18289674771657
 21
-3.79814000477558
 31
0.0
  0
LINE
  5
9B
330
1F
100
AcDbEntity
  8
0
100
AcDbLine
 10
79.3907800185967
 20
-3.501987902828121
 30
0.0
 11
79.57849394862127
 21
-3.192657978193514
 31
0.0
  0
LINE
  5
9C
330
1F
100
AcDbEntity
  8
0
100
AcDbLine
 10
79.74520628405917
 20
-2.871521684678501
 30
0.0
 11
79.89017788443661
 21
-2.540002821137177
 31
0.0
  0
LINE
  5
9D
330
1F
100
AcDbEntity
  8
0
100
AcDbLine
 10
80.32119638709491
 20
-0.3224119196555524
 30
0.0
 11
80.3692124802116
 21
-0.0974507375553441
 31
0.0
  0
LINE
  5
9E
330
1F
100
AcDbEntity
  8
0
100
AcDbLine
 10
80.50899379724254
 20
0.34059599899922
 30
0.0
 11
80.60015524484483
 21
0.5517894390516388
 31
0.0
  0
LINE
  5
9F
330
1F
100
AcDbEntity
  8
0
100
AcDbLine
 10
80.60015524484483
 20
0.5517894390516388
 30
0.0
 11
80.70499245471352
 21
0.7565386468085027
 31
0.0
  0
LINE
  5
A0
330
1F
100
AcDbEntity
  8
0
100
AcDbLine
 10
80.70499245471352
 20
0.7565386468085027
 30
0.0
 11
80.8230525893359
 21
0.9539592213772417
 31
0.0
  0
LINE
  5
A1
330
1F
100
AcDbEntity
  8
0
100
AcDbLine
 10
80.8230525893359
 20
0.9539592213772417
 30
0.0
 11
80.95382569563537
 21
1.143198417419982
 31
0.0
  0
LINE
  5
A2
330
1F
100
AcDbEntity
  8
0
100
AcDbLine
 10
80.95382569563537
 20
1.143198417419982
 30
0.0
 11
81.09674690768054
 21
1.323438828531502
 31
0.0
  0
LINE
  5
A3
330
1F
100
AcDbEntity
  8
0
100
AcDbLine
 10
81.09674690768054
 20
1.323438828531502
 30
0.0
 11
81.25119888658708
 21
1.493901917973099
 31
0.0
  0
LINE
  5
A4
330
1F
100
AcDbEntity
  8
0
100
AcDbLine
 10
81.25119888658708
 20
1.493901917973099
 30
0.0
 11
81.41651448707267
 21
1.653851381511439
 31
0.0
  0
LINE
  5
A5
330
1F
100
AcDbEntity
  8
0
100
AcDbLine
 10
81.41651448707267
 20
1.653851381511439
 30
0.0
 11
81.59197963914794
 21
1.802596327836735
 31
0.0
  0
LINE
  5
A6
330
1F
100
AcDbEntity
  8
0
100
AcDbLine
 10
81.77683643249513
 20
1.939494262823042
 30
0.0
 11
81.97028639021259
 21
2.063953864739589
 31
0.0
  0
LINE
  5
A7
330
1F
100
AcDbEntity
  8
0
100
AcDbLine
 10
81.97028639021259
 20
2.063953864739589
 30
0.0
 11
82.17149391778376
 21
2.175437538426865
 31
0.0
  0
LINE
  5
A8
330
1F
100
AcDbEntity
  8
0
100
AcDbLine
 10
82.17149391778376
 20
2.175437538426865
 30
0.0
 11
82.37958991237345
 21
2.273463737403683
 31
0.0
  0
LINE
  5
A9
330
1F
100
AcDbEntity
  8
0
100
AcDbLine
 10
82.37958991237345
 20
2.273463737403683
 30
0.0
 11
82.59367551686097
 21
2.357609043876058
 31
0.0
  0
LINE
  5
AA
330
1F
100
AcDbEntity
  8
0
100
AcDbLine
 10
83.03609476269993
 20
2.482864666138262
 30
0.0
 11
83.26251740287984
 21
2.523433948410338
 31
0.0
  0
LINE
  5
AB
330
1F
100
AcDbEntity
  8
0
100
AcDbLine
 10
83.26251740287984
 20
2.523433948410338
 30
0.0
 11
83.49111590505983
 21
2.549042608101663
 31
0.0
  0
LINE
  5
AC
330
1F
100
AcDbEntity
  8
0
100
AcDbLine
 10
83.49111590505983
 20
2.549042608101663
 30
0.0
 11
83.7209028528705
 21
2.559580030271451
 31
0.0
  0
LINE
  5
AD
330
1F
100
AcDbEntity
  8
0
100
AcDbLine
 10
83.7209028528705
 20
2.559580030271451
 30
0.0
 11
83.95088569652874
 21
2.555000699209632
 31
0.0
  0
LINE
  5
AE
330
1F
100
AcDbEntity
  8
0
100
AcDbLine
 10
83.95088569652874
 20
2.555000699209632
 30
0.0
 11
84.23450922972107
 21
2.643793404240423
 31
0.0
  0
LINE
  5
AF
330
1F
100
AcDbEntity
  8
0
100
AcDbLine
 10
84.23450922972107
 20
2.643793404240423
 30
0.0
 11
84.51145585237018
 21
2.75162207042166
 31
0.0
  0
LINE
  5
B0
330
1F
100
AcDbEntity
  8
0
100
AcDbLine
 10
84.51145585237018
 20
2.75162207042166
 30
0.0
 11
84.7804495805124
 21
2.877989895707004
 31
0.0
  0
LINE
  5
B1
330
1F
100
AcDbEntity
  8
0
100
AcDbLine
 10
84.7804495805124
 20
2.877989895707004
 30
0.0
 11
85.04025107177851
 21
3.022314662060817
 31
0.0
  0
LINE
  5
B2
330
1F
100
AcDbEntity
  8
0
100
AcDbLine
 10
85.04025107177851
 20
3.022314662060817
 30
0.0
 11
85.28966333545091
 21
3.183931417927947
 31
0.0
  0
LINE
  5
B3
330
1F
100
AcDbEntity
  8
0
100
AcDbLine
 10
85.28966333545091
 20
3.183931417927947
 30
0.0
 11
85.5275372473923
 21
3.362095541883584
 31
0.0
  0
LINE
  5
B4
330
1F
100
AcDbEntity
  8
0
100
AcDbLine
 10
85.5275372473923
 20
3.362095541883584
 30
0.0
 11
85.75277684443799
 21
3.55598617334855
 31
0.0
  0
LINE
  5
B5
330
1F
100
AcDbEntity
  8
0
100
AcDbLine
 10
85.75277684443799
 20
3.55598617334855
 30
0.0
 11
85.9643443738576
 21
3.764709994563233
 31
0.0
  0
LINE
  5
B6
330
1F
100
AcDbEntity
  8
0
100
AcDbLine
 10
85.9643443738576
 20
3.764709994563233
 30
0.0
 11
86.16126507462249
 21
3.987305346395807
 31
0.0
  0
LINE
  5
B7
330
1F
100
AcDbEntity
  8
0
100
AcDbLine
 10
86.16126507462249
 20
3.987305346395807
 30
0.0
 11
86.34263166844954
 21
4.222746659021163
 31
0.0
  0
LINE
  5
B8
330
1F
100
AcDbEntity
  8
0
100
AcDbLine
 10
86.34263166844954
 20
4.222746659021163
 30
0.0
 11
86.50760853993003
 21
4.469949177057875
 31
0.0
  0
LINE
  5
B9
330
1F
100
AcDbEntity
  8
0
100
AcDbLine
 10
86.50760853993003
 20
4.469949177057875
 30
0.0
 11
86.65543558648406
 21
4.727773957391951
 31
0.0
  0
LINE
  5
BA
330
1F
100
AcDbEntity
  8
0
100
AcDbLine
 10
86.65543558648406
 20
4.727773957391951
 30
0.0
 11
86.78543172040226
 21
4.995033116661567
 31
0.0
  0
LINE
  5
BB
330
1F
100
AcDbEntity
  8
0
100
AcDbLine
 10
86.78543172040226
 20
4.995033116661567
 30
0.0
 11
86.89699800684078
 21
5.270495304225518
 31
0.0
  0
LINE
  5
BC
330
1F
100
AcDbEntity
  8
0
100
AcDbLine
 10
86.89699800684078
 20
5.270495304225518
 30
0.0
 11
86.9896204233102
 21
5.552891375399583
 31
0.0
  0
LINE
  5
BD
330
1F
100
AcDbEntity
  8
0
100
AcDbLine
 10
86.9896204233102
 20
5.552891375399583
 30
0.0
 11
87.06287222794609
 21
5.840920238822618
 31
0.0
  0
LINE
  5
BE
330
1F
100
AcDbEntity
  8
0
100
AcDbLine
 10
87.06287222794609
 20
5.840920238822618
 30
0.0
 11
87.11641592564882
 21
6.13325485101131
 31
0.0
  0
LINE
  5
BF
330
1F
100
AcDbEntity
  8
0
100
AcDbLine
 10
87.11641592564882
 20
6.13325485101131
 30
0.0
 11
87.15000482303397
 21
6.428548330484926
 31
0.0
  0
LINE
  5
C0
330
1F
100
AcDbEntity
  8
0
100
AcDbLine
 10
87.15000482303397
 20
6.428548330484926
 30
0.0
 11
87.16348416502993
 21
6.725440163290314
 31
0.0
  0
LINE
  5
C1
330
1F
100
AcDbEntity
  8
0
100
AcDbLine
 10
87.16348416502993
 20
6.725440163290314
 30
0.0
 11
87.15679184788522
 21
7.022562471336042
 31
0.0
  0
LINE
  5
C2
330
1F
100
AcDbEntity
  8
0
100
AcDbLine
 10
87.15679184788522
 20
7.022562471336042
 30
0.0
 11
87.12995870530081
 21
7.318546314655647
 31
0.0
  0
LINE
  5
C3
330
1F
100
AcDbEntity
  8
0
100
AcDbLine
 10
87.12995870530081
 20
7.318546314655647
 30
0.0
 11
87.08310836636929
 21
7.612027998563129
 31
0.0
  0
LINE
  5
C4
330
1F
100
AcDbEntity
  8
0
100
AcDbLine
 10
87.08310836636929
 20
7.612027998563129
 30
0.0
 11
87.01645668597482
 21
7.901655356642067
 31
0.0
  0
LINE
  5
C5
330
1F
100
AcDbEntity
  8
0
100
AcDbLine
 10
87.01645668597482
 20
7.901655356642067
 30
0.0
 11
86.93031075027912
 21
8.186093980619727
 31
0.0
  0
LINE
  5
C6
330
1F
100
AcDbEntity
  8
0
100
AcDbLine
 10
86.93031075027912
 20
8.186093980619727
 30
0.0
 11
86.84904898044651
 21
8.401391807250066
 31
0.0
  0
LINE
  5
C7
330
1F
100
AcDbEntity
  8
0
100
AcDbLine
 10
86.84904898044651
 20
8.401391807250066
 30
0.0
 11
86.75381479532113
 21
8.610884239981132
 31
0.0
  0
LINE
  5
C8
330
1F
100
AcDbEntity
  8
0
100
AcDbLine
 10
86.75381479532113
 20
8.610884239981132
 30
0.0
 11
86.6450198913476
 21
8.813665645088811
 31
0.0
  0
LINE
  5
C9
330
1F
100
AcDbEntity
  8
0
100
AcDbLine
 10
86.6450198913476
 20
8.813665645088811
 30
0.0
 11
86.52313458782453
 21
9.00885940055547
 31
0.0
  0
LINE
  5
CA
330
1F
100
AcDbEntity
  8
0
100
AcDbLine
 10
86.52313458782453
 20
9.00885940055547
 30
0.0
 11
86.38868579371913
 21
9.195621685698022
 31
0.0
  0
LINE
  5
CB
330
1F
100
AcDbEntity
  8
0
100
AcDbLine
 10
86.38868579371913
 20
9.195621685698022
 30
0.0
 11
86.2422547298444
 21
9.373145128996635
 31
0.0
  0
LINE
  5
CC
330
1F
100
AcDbEntity
  8
0
100
AcDbLine
 10
86.2422547298444
 20
9.373145128996635
 30
0.0
 11
86.08447441624784
 21
9.540662298353803
 31
0.0
  0
LINE
  5
CD
330
1F
100
AcDbEntity
  8
0
100
AcDbLine
 10
86.08447441624784
 20
9.540662298353803
 30
0.0
 11
85.9160269356716
 21
9.697449018695764
 31
0.0
  0
LINE
  5
CE
330
1F
100
AcDbEntity
  8
0
100
AcDbLine
 10
85.9160269356716
 20
9.697449018695764
 30
0.0
 11
85.7376404849157
 21
9.842827502574162
 31
0.0
  0
LINE
  5
CF
330
1F
100
AcDbEntity
  8
0
100
AcDbLine
 10
85.7376404849157
 20
9.842827502574162
 30
0.0
 11
85.5500862268504
 21
9.976169280234606
 31
0.0
  0
LINE
  5
D0
330
1F
100
AcDbEntity
  8
0
100
AcDbLine
 10
85.5500862268504
 20
9.976169280234606
 30
0.0
 11
85.35417495668668
 21
10.09689791648509
 31
0.0
  0
LINE
  5
D1
330
1F
100
AcDbEntity
  8
0
100
AcDbLine
 10
85.35417495668668
 20
10.09689791648509
 30
0.0
 11
85.15075359691647
 21
10.20449150261979
 31
0.0
  0
LINE
  5
D2
330
1F
100
AcDbEntity
  8
0
100
AcDbLine
 10
85.15075359691647
 20
10.20449150261979
 30
0.0
 11
84.94070153607532
 21
10.29848491262522
 31
0.0
  0
LINE
  5
D3
330
1F
100
AcDbEntity
  8
0
100
AcDbLine
 10
84.94070153607532
 20
10.29848491262522
 30
0.0
 11
84.72492682715404
 21
10.37847181391537
 31
0.0
  0
LINE
  5
D4
330
1F
100
AcDbEntity
  8
0
100
AcDbLine
 10
84.72492682715404
 20
10.37847181391537
 30
0.0
 11
84.50436226209476
 21
10.4441064239035
 31
0.0
  0
LINE
  5
D5
330
1F
100
AcDbEntity
  8
0
100
AcDbLine
 10
84.50436226209476
 20
10.4441064239035
 30
0.0
 11
84.27996133934064
 21
10.49510500481684
 31
0.0
  0
LINE
  5
D6
330
1F
100
AcDbEntity
  8
0
100
AcDbLine
 10
84.27996133934064
 20
10.49510500481684
 30
0.0
 11
84.05269414187131
 21
10.53124709029224
 31
0.0
  0
LINE
  5
D7
330
1F
100
AcDbEntity
  8
0
100
AcDbLine
 10
84.05269414187131
 20
10.53124709029224
 30
0.0
 11
83.82354314354379
 21
10.55237643845007
 31
0.0
  0
LINE
  5
D8
330
1F
100
AcDbEntity
  8
0
100
AcDbLine
 10
83.82354314354379
 20
10.55237643845007
 30
0.0
 11
83.59349896186768
 21
10.55840170732625
 31
0.0
  0
LINE
  5
D9
330
1F
100
AcDbEntity
  8
0
100
AcDbLine
 10
83.59349896186768
 20
10.55840170732625
 30
0.0
 11
83.36355607557533
 21
10.54929684974274
 31
0.0
  0
LINE
  5
DA
330
1F
100
AcDbEntity
  8
0
100
AcDbLine
 10
83.36355607557533
 20
10.54929684974274
 30
0.0
 11
83.13470852550023
 21
10.52510122590925
 31
0.0
  0
LINE
  5
DB
330
1F
100
AcDbEntity
  8
0
100
AcDbLine
 10
83.13470852550023
 20
10.52510122590925
 30
0.0
 11
82.9079456173481
 21
10.48591943326941
 31
0.0
  0
LINE
  5
DC
330
1F
100
AcDbEntity
  8
0
100
AcDbLine
 10
82.9079456173481
 20
10.48591943326941
 30
0.0
 11
82.68424764493827
 21
10.43192085432696
 31
0.0
  0
LINE
  5
DD
330
1F
100
AcDbEntity
  8
0
100
AcDbLine
 10
82.68424764493827
 20
10.43192085432696
 30
0.0
 11
82.46458165240294
 21
10.36333892440705
 31
0.0
  0
LINE
  5
DE
330
1F
100
AcDbEntity
  8
0
100
AcDbLine
 10
82.46458165240294
 20
10.36333892440705
 30
0.0
 11
82.24989725366504
 21
10.28047012251746
 31
0.0
  0
LINE
  5
DF
330
1F
100
AcDbEntity
  8
0
100
AcDbLine
 10
82.24989725366504
 20
10.28047012251746
 30
0.0
 11
82.04112252726655
 21
10.18367268967284
 31
0.0
  0
LINE
  5
E0
330
1F
100
AcDbEntity
  8
0
100
AcDbLine
 10
82.04112252726655
 20
10.18367268967284
 30
0.0
 11
81.83916000429411
 21
10.07336508022234
 31
0.0
  0
LINE
  5
E1
330
1F
100
AcDbEntity
  8
0
100
AcDbLine
 10
81.83916000429411
 20
10.07336508022234
 30
0.0
 11
81.64488276674606
 21
9.950024152875539
 31
0.0
  0
LINE
  5
E2
330
1F
100
AcDbEntity
  8
0
100
AcDbLine
 10
81.64488276674606
 20
9.950024152875539
 30
0.0
 11
81.45913067320751
 21
9.814183109246951
 31
0.0
  0
LINE
  5
E3
330
1F
100
AcDbEntity
  8
0
100
AcDbLine
 10
81.45913067320751
 20
9.814183109246951
 30
0.0
 11
81.28270672814985
 21
9.666429188830694
 31
0.0
  0
LINE
  5
E4
330
1F
100
AcDbEntity
  8
0
100
AcDbLine
 10
81.28270672814985
 20
9.666429188830694
 30
0.0
 11
81.1163736105506
 21
9.50740113036998
 31
0.0
  0
LINE
  5
E5
330
1F
100
AcDbEntity
  8
0
100
AcDbLine
 10
81.1163736105506
 20
9.50740113036998
 30
0.0
 11
80.96085037683945
 21
9.337786410595747
 31
0.0
  0
LINE
  5
E6
330
1F
100
AcDbEntity
  8
0
100
AcDbLine
 10
80.96085037683945
 20
9.337786410595747
 30
0.0
 11
80.81680935242439
 21
9.158318272271583
 31
0.0
  0
LINE
  5
E7
330
1F
100
AcDbEntity
  8
0
100
AcDbLine
 10
80.81680935242439
 20
9.158318272271583
 30
0.0
 11
80.68487322523582
 21
8.969772554392472
 31
0.0
  0
LINE
  5
E8
330
1F
100
AcDbEntity
  8
0
100
AcDbLine
 10
80.68487322523582
 20
8.969772554392472
 30
0.0
 11
80.56561235385254
 21
8.772964338240348
 31
0.0
  0
LINE
  5
E9
330
1F
100
AcDbEntity
  8
0
100
AcDbLine
 10
80.56561235385254
 20
8.772964338240348
 30
0.0
 11
79.7133515998297
 21
7.74929754154924
 31
0.0
  0
LINE
  5
EA
330
1F
100
AcDbEntity
  8
0
100
AcDbLine
 10
79.7133515998297
 20
7.74929754154924
 30
0.0
 11
78.79146321267518
 21
6.78785908531554
 31
0.0
  0
LINE
  5
EB
330
1F
100
AcDbEntity
  8
0
100
AcDbLine
 10
78.79146321267518
 20
6.78785908531554
 30
0.0
 11
77.80447826015312
 21
5.893374425307069
 31
0.0
  0
LINE
  5
EC
330
1F
100
AcDbEntity
  8
0
100
AcDbLine
 10
77.80447826015312
 20
5.893374425307069
 30
0.0
 11
76.75724775868207
 21
5.070239940375133
 31
0.0
  0
LINE
  5
ED
330
1F
100
AcDbEntity
  8
0
100
AcDbLine
 10
76.75724775868207
 20
5.070239940375133
 30
0.0
 11
75.65491883066116
 21
4.322501324317616
 31
0.0
  0
LINE
  5
EE
330
1F
100
AcDbEntity
  8
0
100
AcDbLine
 10
75.65491883066116
 20
4.322501324317616
 30
0.0
 11
74.50290940643941
 21
3.653833701354058
 31
0.0
  0
LINE
  5
EF
330
1F
100
AcDbEntity
  8
0
100
AcDbLine
 10
74.50290940643941
 20
3.653833701354058
 30
0.0
 11
73.30688159526889
 21
3.067523562944321
 31
0.0
  0
LINE
  5
F0
330
1F
100
AcDbEntity
  8
0
100
AcDbLine
 10
73.30688159526889
 20
3.067523562944321
 30
0.0
 11
72.07271385612114
 21
2.566452614731989
 31
0.0
  0
LINE
  5
F1
330
1F
100
AcDbEntity
  8
0
100
AcDbLine
 10
72.07271385612114
 20
2.566452614731989
 30
0.0
 11
70.80647210514877
 21
2.153083613003664
 31
0.0
  0
LINE
  5
F2
330
1F
100
AcDbEntity
  8
0
100
AcDbLine
 10
70.80647210514877
 20
2.153083613003664
 30
0.0
 11
69.51437990179726
 21
1.82944826027841
 31
0.0
  0
LINE
  5
F3
330
1F
100
AcDbEntity
  8
0
100
AcDbLine
 10
69.51437990179726
 20
1.82944826027841
 30
0.0
 11
68.20278786010245
 21
1.597137219519909
 31
0.0
  0
LINE
  5
F4
330
1F
100
AcDbEntity
  8
0
100
AcDbLine
 10
68.20278786010245
 20
1.597137219519909
 30
0.0
 11
66.87814243551684
 21
1.457292296051552
 31
0.0
  0
LINE
  5
F5
330
1F
100
AcDbEntity
  8
0
100
AcDbLine
 10
66.87814243551684
 20
1.457292296051552
 30
0.0
 11
65.54695424067643
 21
1.410600825600302
 31
0.0
  0
LINE
  5
F6
330
1F
100
AcDbEntity
  8
0
100
AcDbLine
 10
65.54695424067643
 20
1.410600825600302
 30
0.0
 11
-65.54695424067641
 21
0.9454281979532908
 31
0.0
  0
LINE
  5
F7
330
1F
100
AcDbEntity
  8
0
100
AcDbLine
 10
-65.54695424067641
 20
0.9454281979532908
 30
0.0
 11
-66.87814243551685
 21
0.9921196684045303
 31
0.0
  0
LINE
  5
F8
330
1F
100
AcDbEntity
  8
0
100
AcDbLine
 10
-66.87814243551685
 20
0.9921196684045303
 30
0.0
 11
-68.20278786010246
 21
1.131964591872864
 31
0.0
  0
LINE
  5
F9
330
1F
100
AcDbEntity
  8
0
100
AcDbLine
 10
-68.20278786010246
 20
1.131964591872864
 30
0.0
 11
-69.51437990179727
 21
1.364275632631354
 31
0.0
  0
LINE
  5
FA
330
1F
100
AcDbEntity
  8
0
100
AcDbLine
 10
-69.51437990179727
 20
1.364275632631354
 30
0.0
 11
-70.80647210514881
 21
1.687910985356597
 31
0.0
  0
LINE
  5
FB
330
1F
100
AcDbEntity
  8
0
100
AcDbLine
 10
-70.80647210514881
 20
1.687910985356597
 30
0.0
 11
-72.07271385612118
 21
2.101279987084899
 31
0.0
  0
LINE
  5
FC
330
1F
100
AcDbEntity
  8
0
100
AcDbLine
 10
-72.07271385612118
 20
2.101279987084899
 30
0.0
 11
-73.30688159526895
 21
2.602350935297231
 31
0.0
  0
LINE
  5
FD
330
1F
100
AcDbEntity
  8
0
100
AcDbLine
 10
-73.30688159526895
 20
2.602350935297231
 30
0.0
 11
-74.50290940643949
 21
3.188661073706969
 31
0.0
  0
LINE
  5
FE
330
1F
100
AcDbEntity
  8
0
100
AcDbLine
 10
-74.50290940643949
 20
3.188661073706969
 30
0.0
 11
-75.65491883066123
 21
3.857328696670526
 31
0.0
  0
LINE
  5
FF
330
1F
100
AcDbEntity
  8
0
100
AcDbLine
 10
-75.65491883066123
 20
3.857328696670526
 30
0.0
 11
-76.7572477586822
 21
4.605067312728043
 31
0.0
  0
LINE
  5
100
330
1F
100
AcDbEntity
  8
0
100
AcDbLine
 10
-76.7572477586822
 20
4.605067312728043
 30
0.0
 11
-77.80447826015323
 21
5.428201797659957
 31
0.0
  0
LINE
  5
101
330
1F
100
AcDbEntity
  8
0
100
AcDbLine
 10
-77.80447826015323
 20
5.428201797659957
 30
0.0
 11
-78.7914632126753
 21
6.32268645766845
 31
0.0
  0
LINE
  5
102
330
1F
100
AcDbEntity
  8
0
100
AcDbLine
 10
-78.7914632126753
 20
6.32268645766845
 30
0.0
 11
-79.71335159982985
 21
7.284124913902127
 31
0.0
  0
LINE
  5
103
330
1F
100
AcDbEntity
  8
0
100
AcDbLine
 10
-79.71335159982985
 20
7.284124913902127
 30
0.0
 11
-80.56561235385269
 21
8.307791710593257
 31
0.0
  0
LINE
  5
104
330
1F
100
AcDbEntity
  8
0
100
AcDbLine
 10
-80.56561235385269
 20
8.307791710593257
 30
0.0
 11
-80.68487322523598
 21
8.504599926745358
 31
0.0
  0
LINE
  5
105
330
1F
100
AcDbEntity
  8
0
100
AcDbLine
 10
-80.68487322523598
 20
8.504599926745358
 30
0.0
 11
-80.81680935242453
 21
8.69314564462447
 31
0.0
  0
LINE
  5
106
330
1F
100
AcDbEntity
  8
0
100
AcDbLine
 10
-80.81680935242453
 20
8.69314564462447
 30
0.0
 11
-80.96085037683957
 21
8.872613782948612
 31
0.0
  0
LINE
  5
107
330
1F
100
AcDbEntity
  8
0
100
AcDbLine
 10
-80.96085037683957
 20
8.872613782948612
 30
0.0
 11
-81.11637361055075
 21
9.042228502722823
 31
0.0
  0
LINE
  5
108
330
1F
100
AcDbEntity
  8
0
100
AcDbLine
 10
-81.11637361055075
 20
9.042228502722823
 30
0.0
 11
-81.28270672815
 21
9.201256561183536
 31
0.0
  0
LINE
  5
109
330
1F
100
AcDbEntity
  8
0
100
AcDbLine
 10
-81.28270672815
 20
9.201256561183536
 30
0.0
 11
-81.45913067320762
 21
9.349010481599771
 31
0.0
  0
LINE
  5
10A
330
1F
100
AcDbEntity
  8
0
100
AcDbLine
 10
-81.45913067320762
 20
9.349010481599771
 30
0.0
 11
-81.64488276674619
 21
9.484851525228358
 31
0.0
  0
LINE
  5
10B
330
1F
100
AcDbEntity
  8
0
100
AcDbLine
 10
-81.64488276674619
 20
9.484851525228358
 30
0.0
 11
-81.83916000429426
 21
9.608192452575157
 31
0.0
  0
LINE
  5
10C
330
1F
100
AcDbEntity
  8
0
100
AcDbLine
 10
-81.83916000429426
 20
9.608192452575157
 30
0.0
 11
-82.04112252726667
 21
9.71850006202566
 31
0.0
  0
LINE
  5
10D
330
1F
100
AcDbEntity
  8
0
100
AcDbLine
 10
-82.04112252726667
 20
9.71850006202566
 30
0.0
 11
-82.24989725366517
 21
9.815297494870254
 31
0.0
  0
LINE
  5
10E
330
1F
100
AcDbEntity
  8
0
100
AcDbLine
 10
-82.24989725366517
 20
9.815297494870254
 30
0.0
 11
-82.46458165240304
 21
9.898166296759825
 31
0.0
  0
LINE
  5
10F
330
1F
100
AcDbEntity
  8
0
100
AcDbLine
 10
-82.46458165240304
 20
9.898166296759825
 30
0.0
 11
-82.68424764493838
 21
9.96674822667973
 31
0.0
  0
LINE
  5
110
330
1F
100
AcDbEntity
  8
0
100
AcDbLine
 10
-82.68424764493838
 20
9.96674822667973
 30
0.0
 11
-82.9079456173482
 21
10.02074680562216
 31
0.0
  0
LINE
  5
111
330
1F
100
AcDbEntity
  8
0
100
AcDbLine
 10
-82.9079456173482
 20
10.02074680562216
 30
0.0
 11
-83.13470852550029
 21
10.05992859826202
 31
0.0
  0
LINE
  5
112
330
1F
100
AcDbEntity
  8
0
100
AcDbLine
 10
-83.13470852550029
 20
10.05992859826202
 30
0.0
 11
-83.36355607557539
 21
10.08412422209549
 31
0.0
  0
LINE
  5
113
330
1F
100
AcDbEntity
  8
0
100
AcDbLine
 10
-83.36355607557539
 20
10.08412422209549
 30
0.0
 11
-83.59349896186772
 21
10.093229079679
 31
0.0
  0
LINE
  5
114
330
1F
100
AcDbEntity
  8
0
100
AcDbLine
 10
-83.59349896186772
 20
10.093229079679
 30
0.0
 11
-83.82354314354386
 21
10.08720381080282
 31
0.0
  0
LINE
  5
115
330
1F
100
AcDbEntity
  8
0
100
AcDbLine
 10
-83.82354314354386
 20
10.08720381080282
 30
0.0
 11
-84.05269414187137
 21
10.06607446264502
 31
0.0
  0
LINE
  5
116
330
1F
100
AcDbEntity
  8
0
100
AcDbLine
 10
-84.05269414187137
 20
10.06607446264502
 30
0.0
 11
-84.27996133934069
 21
10.02993237716959
 31
0.0
  0
LINE
  5
117
330
1F
100
AcDbEntity
  8
0
100
AcDbLine
 10
-84.27996133934069
 20
10.02993237716959
 30
0.0
 11
-84.50436226209479
 21
9.978933796256232
 31
0.0
  0
LINE
  5
118
330
1F
100
AcDbEntity
  8
0
100
AcDbLine
 10
-84.50436226209479
 20
9.978933796256232
 30
0.0
 11
-84.72492682715404
 21
9.913299186268121
 31
0.0
  0
LINE
  5
119
330
1F
100
AcDbEntity
  8
0
100
AcDbLine
 10
-84.72492682715404
 20
9.913299186268121
 30
0.0
 11
-84.94070153607532
 21
9.833312284977994
 31
0.0
  0
LINE
  5
11A
330
1F
100
AcDbEntity
  8
0
100
AcDbLine
 10
-84.94070153607532
 20
9.833312284977994
 30
0.0
 11
-85.15075359691649
 21
9.739318874972566
 31
0.0
  0
LINE
  5
11B
330
1F
100
AcDbEntity
  8
0
100
AcDbLine
 10
-85.15075359691649
 20
9.739318874972566
 30
0.0
 11
-85.35417495668665
 21
9.631725288837844
 31
0.0
  0
LINE
  5
11C
330
1F
100
AcDbEntity
  8
0
100
AcDbLine
 10
-85.35417495668665
 20
9.631725288837844
 30
0.0
 11
-85.55008622685038
 21
9.510996652587359
 31
0.0
  0
LINE
  5
11D
330
1F
100
AcDbEntity
  8
0
100
AcDbLine
 10
-85.55008622685038
 20
9.510996652587359
 30
0.0
 11
-85.73764048491567
 21
9.377654874926936
 31
0.0
  0
LINE
  5
11E
330
1F
100
AcDbEntity
  8
0
100
AcDbLine
 10
-85.73764048491567
 20
9.377654874926936
 30
0.0
 11
-85.91602693567158
 21
9.23227639104854
 31
0.0
  0
LINE
  5
11F
330
1F
100
AcDbEntity
  8
0
100
AcDbLine
 10
-85.91602693567158
 20
9.23227639104854
 30
0.0
 11
-86.08447441624782
 21
9.0754896707066
 31
0.0
  0
LINE
  5
120
330
1F
100
AcDbEntity
  8
0
100
AcDbLine
 10
-86.08447441624782
 20
9.0754896707066
 30
0.0
 11
-86.24225472984438
 21
8.907972501349409
 31
0.0
  0
LINE
  5
121
330
1F
100
AcDbEntity
  8
0
100
AcDbLine
 10
-86.24225472984438
 20
8.907972501349409
 30
0.0
 11
-86.38868579371906
 21
8.73044905805082
 31
0.0
  0
LINE
  5
122
330
1F
100
AcDbEntity
  8
0
100
AcDbLine
 10
-86.38868579371906
 20
8.73044905805082
 30
0.0
 11
-86.5231345878245
 21
8.543686772908268
 31
0.0
  0
LINE
  5
123
330
1F
100
AcDbEntity
  8
0
100
AcDbLine
 10
-86.5231345878245
 20
8.543686772908268
 30
0.0
 11
-86.64501989134753
 21
8.348493017441653
 31
0.0
  0
LINE
  5
124
330
1F
100
AcDbEntity
  8
0
100
AcDbLine
 10
-86.64501989134753
 20
8.348493017441653
 30
0.0
 11
-86.75381479532108
 21
8.145711612333928
 31
0.0
  0
LINE
  5
125
330
1F
100
AcDbEntity
  8
0
100
AcDbLine
 10
-86.75381479532108
 20
8.145711612333928
 30
0.0
 11
-86.84904898044645
 21
7.936219179602886
 31
0.0
  0
LINE
  5
126
330
1F
100
AcDbEntity
  8
0
100
AcDbLine
 10
-86.84904898044645
 20
7.936219179602886
 30
0.0
 11
-86.93031075027905
 21
7.720921352972548
 31
0.0
  0
LINE
  5
127
330
1F
100
AcDbEntity
  8
0
100
AcDbLine
 10
-86.93031075027905
 20
7.720921352972548
 30
0.0
 11
-87.01645668597476
 21
7.436482728994909
 31
0.0
  0
LINE
  5
128
330
1F
100
AcDbEntity
  8
0
100
AcDbLine
 10
-87.01645668597476
 20
7.436482728994909
 30
0.0
 11
-87.08310836636923
 21
7.146855370915993
 31
0.0
  0
LINE
  5
129
330
1F
100
AcDbEntity
  8
0
100
AcDbLine
 10
-87.08310836636923
 20
7.146855370915993
 30
0.0
 11
-87.12995870530078
 21
6.853373687008489
 31
0.0
  0
LINE
  5
12A
330
1F
100
AcDbEntity
  8
0
100
AcDbLine
 10
-87.12995870530078
 20
6.853373687008489
 30
0.0
 11
-87.15679184788517
 21
6.557389843688907
 31
0.0
  0
LINE
  5
12B
330
1F
100
AcDbEntity
  8
0
100
AcDbLine
 10
-87.15679184788517
 20
6.557389843688907
 30
0.0
 11
-87.16348416502991
 21
6.260267535643179
 31
0.0
  0
LINE
  5
12C
330
1F
100
AcDbEntity
  8
0
100
AcDbLine
 10
-87.16348416502991
 20
6.260267535643179
 30
0.0
 11
-87.15000482303397
 21
5.963375702837792
 31
0.0
  0
LINE
  5
12D
330
1F
100
AcDbEntity
  8
0
100
AcDbLine
 10
-87.15000482303397
 20
5.963375702837792
 30
0.0
 11
-87.11641592564882
 21
5.668082223364175
 31
0.0
  0
LINE
  5
12E
330
1F
100
AcDbEntity
  8
0
100
AcDbLine
 10
-87.11641592564882
 20
5.668082223364175
 30
0.0
 11
-87.06287222794613
 21
5.375747611175505
 31
0.0
  0
LINE
  5
12F
330
1F
100
AcDbEntity
  8
0
100
AcDbLine
 10
-87.06287222794613
 20
5.375747611175505
 30
0.0
 11
-86.98962042331021
 21
5.08771874775247
 31
0.0
  0
LINE
  5
130
330
1F
100
AcDbEntity
  8
0
100
AcDbLine
 10
-86.98962042331021
 20
5.08771874775247
 30
0.0
 11
-86.8969980068408
 21
4.805322676578405
 31
0.0
  0
LINE
  5
131
330
1F
100
AcDbEntity
  8
0
100
AcDbLine
 10
-86.8969980068408
 20
4.805322676578405
 30
0.0
 11
-86.78543172040233
 21
4.529860489014477
 31
0.0
  0
LINE
  5
132
330
1F
100
AcDbEntity
  8
0
100
AcDbLine
 10
-86.78543172040233
 20
4.529860489014477
 30
0.0
 11
-86.6554355864841
 21
4.262601329744861
 31
0.0
  0
LINE
  5
133
330
1F
100
AcDbEntity
  8
0
100
AcDbLine
 10
-86.6554355864841
 20
4.262601329744861
 30
0.0
 11
-86.50760853993012
 21
4.004776549410784
 31
0.0
  0
LINE
  5
134
330
1F
100
AcDbEntity
  8
0
100
AcDbLine
 10
-86.50760853993012
 20
4.004776549410784
 30
0.0
 11
-86.34263166844961
 21
3.757574031374073
 31
0.0
  0
LINE
  5
135
330
1F
100
AcDbEntity
  8
0
100
AcDbLine
 10
-86.34263166844961
 20
3.757574031374073
 30
0.0
 11
-86.16126507462259
 21
3.522132718748694
 31
0.0
  0
LINE
  5
136
330
1F
100
AcDbEntity
  8
0
100
AcDbLine
 10
-86.16126507462259
 20
3.522132718748694
 30
0.0
 11
-85.96434437385771
 21
3.299537366916165
 31
0.0
  0
LINE
  5
137
330
1F
100
AcDbEntity
  8
0
100
AcDbLine
 10
-85.96434437385771
 20
3.299537366916165
 30
0.0
 11
-85.7527768444381
 21
3.090813545701437
 31
0.0
  0
LINE
  5
138
330
1F
100
AcDbEntity
  8
0
100
AcDbLine
 10
-85.7527768444381
 20
3.090813545701437
 30
0.0
 11
-85.52753724739242
 21
2.896922914236494
 31
0.0
  0
LINE
  5
139
330
1F
100
AcDbEntity
  8
0
100
AcDbLine
 10
-85.52753724739242
 20
2.896922914236494
 30
0.0
 11
-85.28966333545104
 21
2.718758790280857
 31
0.0
  0
LINE
  5
13A
330
1F
100
AcDbEntity
  8
0
100
AcDbLine
 10
-85.28966333545104
 20
2.718758790280857
 30
0.0
 11
-85.04025107177868
 21
2.557142034413704
 31
0.0
  0
LINE
  5
13B
330
1F
100
AcDbEntity
  8
0
100
AcDbLine
 10
-85.04025107177868
 20
2.557142034413704
 30
0.0
 11
-84.78044958051255
 21
2.412817268059869
 31
0.0
  0
LINE
  5
13C
330
1F
100
AcDbEntity
  8
0
100
AcDbLine
 10
-84.78044958051255
 20
2.412817268059869
 30
0.0
 11
-84.51145585237036
 21
2.286449442774571
 31
0.0
  0
LINE
  5
13D
330
1F
100
AcDbEntity
  8
0
100
AcDbLine
 10
-84.51145585237036
 20
2.286449442774571
 30
0.0
 11
-84.23450922972123
 21
2.178620776593311
 31
0.0
  0
LINE
  5
13E
330
1F
100
AcDbEntity
  8
0
100
AcDbLine
 10
-84.23450922972123
 20
2.178620776593311
 30
0.0
 11
-83.9508856965289
 21
2.089828071562542
 31
0.0
  0
LINE
  5
13F
330
1F
100
AcDbEntity
  8
0
100
AcDbLine
 10
-83.9508856965289
 20
2.089828071562542
 30
0.0
 11
-83.72090285287064
 21
2.094407402624339
 31
0.0
  0
LINE
  5
140
330
1F
100
AcDbEntity
  8
0
100
AcDbLine
 10
-83.72090285287064
 20
2.094407402624339
 30
0.0
 11
-83.49111590505998
 21
2.08386998045455
 31
0.0
  0
LINE
  5
141
330
1F
100
AcDbEntity
  8
0
100
AcDbLine
 10
-83.49111590505998
 20
2.08386998045455
 30
0.0
 11
-83.26251740288001
 21
2.058261320763248
 31
0.0
  0
LINE
  5
142
330
1F
100
AcDbEntity
  8
0
100
AcDbLine
 10
-83.26251740288001
 20
2.058261320763248
 30
0.0
 11
-83.0360947627001
 21
2.017692038491172
 31
0.0
  0
LINE
  5
143
330
1F
100
AcDbEntity
  8
0
100
AcDbLine
 10
-83.0360947627001
 20
2.017692038491172
 30
0.0
 11
-82.8128260023952
 21
1.96233737001573
 31
0.0
  0
LINE
  5
144
330
1F
100
AcDbEntity
  8
0
100
AcDbLine
 10
-82.8128260023952
 20
1.96233737001573
 30
0.0
 11
-82.59367551686113
 21
1.892436416228946
 31
0.0
  0
LINE
  5
145
330
1F
100
AcDbEntity
  8
0
100
AcDbLine
 10
-82.59367551686113
 20
1.892436416228946
 30
0.0
 11
-82.37958991237363
 21
1.808291109756592
 31
0.0
  0
LINE
  5
146
330
1F
100
AcDbEntity
  8
0
100
AcDbLine
 10
-82.37958991237363
 20
1.808291109756592
 30
0.0
 11
-82.17149391778393
 21
1.710264910779775
 31
0.0
  0
LINE
  5
147
330
1F
100
AcDbEntity
  8
0
100
AcDbLine
 10
-82.17149391778393
 20
1.710264910779775
 30
0.0
 11
-81.97028639021275
 21
1.5987812370925
 31
0.0
  0
LINE
  5
148
330
1F
100
AcDbEntity
  8
0
100
AcDbLine
 10
-81.97028639021275
 20
1.5987812370925
 30
0.0
 11
-81.7768364324953
 21
1.474321635175952
 31
0.0
  0
LINE
  5
149
330
1F
100
AcDbEntity
  8
0
100
AcDbLine
 10
-81.7768364324953
 20
1.474321635175952
 30
0.0
 11
-81.59197963914812
 21
1.337423700189656
 31
0.0
  0
LINE
  5
14A
330
1F
100
AcDbEntity
  8
0
100
AcDbLine
 10
-81.59197963914812
 20
1.337423700189656
 30
0.0
 11
-81.41651448707286
 21
1.188678753864349
 31
0.0
  0
LINE
  5
14B
330
1F
100
AcDbEntity
  8
0
100
AcDbLine
 10
-81.41651448707286
 20
1.188678753864349
 30
0.0
 11
-81.25119888658726
 21
1.028729290326031
 31
0.0
  0
LINE
  5
14C
330
1F
100
AcDbEntity
  8
0
100
AcDbLine
 10
-81.25119888658726
 20
1.028729290326031
 30
0.0
 11
-81.09674690768072
 21
0.8582662008844348
 31
0.0
  0
LINE
  5
14D
330
1F
100
AcDbEntity
  8
0
100
AcDbLine
 10
-81.09674690768072
 20
0.8582662008844348
 30
0.0
 11
-80.95382569563556
 21
0.6780257897729148
 31
0.0
  0
LINE
  5
14E
330
1F
100
AcDbEntity
  8
0
100
AcDbLine
 10
-80.95382569563556
 20
0.6780257897729148
 30
0.0
 11
-80.82305258933609
 21
0.4887865937301742
 31
0.0
  0
LINE
  5
14F
330
1F
100
AcDbEntity
  8
0
100
AcDbLine
 10
-80.82305258933609
 20
0.4887865937301742
 30
0.0
 11
-80.70499245471368
 21
0.2913660191614353
 31
0.0
  0
LINE
  5
150
330
1F
100
AcDbEntity
  8
0
100
AcDbLine
 10
-80.70499245471368
 20
0.2913660191614353
 30
0.0
 11
-80.60015524484498
 21
0.0866168114045827
 31
0.0
  0
LINE
  5
151
330
1F
100
AcDbEntity
  8
0
100
AcDbLine
 10
-80.60015524484498
 20
0.0866168114045827
 30
0.0
 11
-80.50899379724271
 21
-0.1245766286478361
 31
0.0
  0
LINE
  5
152
330
1F
100
AcDbEntity
  8
0
100
AcDbLine
 10
-80.50899379724271
 20
-0.1245766286478361
 30
0.0
 11
-80.43190187785358
 21
-0.341302064660807
 31
0.0
  0
LINE
  5
153
330
1F
100
AcDbEntity
  8
0
100
AcDbLine
 10
-80.43190187785358
 20
-0.341302064660807
 30
0.0
 11
-80.36921248021177
 21
-0.5626233652023889
 31
0.0
  0
LINE
  5
154
330
1F
100
AcDbEntity
  8
0
100
AcDbLine
 10
-80.36921248021177
 20
-0.5626233652023889
 30
0.0
 11
-80.32119638709507
 21
-0.7875845473026084
 31
0.0
  0
LINE
  5
155
330
1F
100
AcDbEntity
  8
0
100
AcDbLine
 10
-80.32119638709507
 20
-0.7875845473026084
 30
0.0
 11
-80.28806100089628
 21
-1.015213905759664
 31
0.0
  0
LINE
  5
156
330
1F
100
AcDbEntity
  8
0
100
AcDbLine
 10
-80.24130454083102
 20
-1.605223360181581
 30
0.0
 11
-80.18871938373098
 21
-1.963212638027281
 31
0.0
  0
LINE
  5
157
330
1F
100
AcDbEntity
  8
0
100
AcDbLine
 10
-80.18871938373098
 20
-1.963212638027281
 30
0.0
 11
-80.11242711948532
 21
-2.31690885261827
 31
0.0
  0
LINE
  5
158
330
1F
100
AcDbEntity
  8
0
100
AcDbLine
 10
-80.11242711948532
 20
-2.31690885261827
 30
0.0
 11
-80.01276599961095
 21
-2.664743846523589
 31
0.0
  0
LINE
  5
159
330
1F
100
AcDbEntity
  8
0
100
AcDbLine
 10
-80.01276599961095
 20
-2.664743846523589
 30
0.0
 11
-79.89017788443675
 21
-3.005175448784244
 31
0.0
  0
LINE
  5
15A
330
1F
100
AcDbEntity
  8
0
100
AcDbLine
 10
-79.89017788443675
 20
-3.005175448784244
 30
0.0
 11
-79.74520628405934
 21
-3.33669431232558
 31
0.0
  0
LINE
  5
15B
330
1F
100
AcDbEntity
  8
0
100
AcDbLine
 10
-79.74520628405934
 20
-3.33669431232558
 30
0.0
 11
-79.57849394862141
 21
-3.657830605840581
 31
0.0
  0
LINE
  5
15C
330
1F
100
AcDbEntity
  8
0
100
AcDbLine
 10
-79.57849394862141
 20
-3.657830605840581
 30
0.0
 11
-79.39078001859686
 21
-3.9671605304752
 31
0.0
  0
LINE
  5
15D
330
1F
100
AcDbEntity
  8
0
100
AcDbLine
 10
-79.39078001859686
 20
-3.9671605304752
 30
0.0
 11
-79.18289674771671
 21
-4.263312632422658
 31
0.0
  0
LINE
  5
15E
330
1F
100
AcDbEntity
  8
0
100
AcDbLine
 10
-79.18289674771671
 20
-4.263312632422658
 30
0.0
 11
-78.95576581306591
 21
-4.544973883439515
 31
0.0
  0
LINE
  5
15F
330
1F
100
AcDbEntity
  8
0
100
AcDbLine
 10
-78.95576581306591
 20
-4.544973883439515
 30
0.0
 11
-78.71039422870984
 21
-4.810895502324316
 31
0.0
  0
LINE
  5
160
330
1F
100
AcDbEntity
  8
0
100
AcDbLine
 10
-78.71039422870984
 20
-4.810895502324316
 30
0.0
 11
-78.4478698809687
 21
-5.059898491548964
 31
0.0
  0
LINE
  5
161
330
1F
100
AcDbEntity
  8
0
100
AcDbLine
 10
-78.4478698809687
 20
-5.059898491548964
 30
0.0
 11
-78.16935670513422
 21
-5.290878864495066
 31
0.0
  0
LINE
  5
162
330
1F
100
AcDbEntity
  8
0
100
AcDbLine
 10
-78.16935670513422
 20
-5.290878864495066
 30
0.0
 11
-77.87608952501365
 21
-5.502812540119892
 31
0.0
  0
LINE
  5
163
330
1F
100
AcDbEntity
  8
0
100
AcDbLine
 10
-77.87608952501365
 20
-5.502812540119892
 30
0.0
 11
-77.56936857818035
 21
-5.694759883350773
 31
0.0
  0
LINE
  5
164
330
1F
100
AcDbEntity
  8
0
100
AcDbLine
 10
-77.56936857818035
 20
-5.694759883350773
 30
0.0
 11
-77.25055375120407
 21
-5.865869871077423
 31
0.0
  0
LINE
  5
165
330
1F
100
AcDbEntity
  8
0
100
AcDbLine
 10
-77.25055375120407
 20
-5.865869871077423
 30
0.0
 11
-76.92105855041994
 21
-6.015383865271792
 31
0.0
  0
LINE
  5
166
330
1F
100
AcDbEntity
  8
0
100
AcDbLine
 10
-76.92105855041994
 20
-6.015383865271792
 30
0.0
 11
-76.58234383496713
 21
-6.142638976506847
 31
0.0
  0
LINE
  5
167
330
1F
100
AcDbEntity
  8
0
100
AcDbLine
 10
-76.58234383496713
 20
-6.142638976506847
 30
0.0
 11
-76.23591133988295
 21
-6.247071002961715
 31
0.0
  0
LINE
  5
168
330
1F
100
AcDbEntity
  8
0
100
AcDbLine
 10
-76.23591133988295
 20
-6.247071002961715
 30
0.0
 11
-75.88329701796836
 21
-6.328216931882638
 31
0.0
  0
LINE
  5
169
330
1F
100
AcDbEntity
  8
0
100
AcDbLine
 10
-75.88329701796836
 20
-6.328216931882638
 30
0.0
 11
-75.5260642299447
 21
-6.385716992409237
 31
0.0
  0
LINE
  5
16A
330
1F
100
AcDbEntity
  8
0
100
AcDbLine
 10
-75.5260642299447
 20
-6.385716992409237
 30
0.0
 11
-75.16579681309382
 21
-6.419316250664706
 31
0.0
  0
LINE
  5
16B
330
1F
100
AcDbEntity
  8
0
100
AcDbLine
 10
-75.16579681309382
 20
-6.419316250664706
 30
0.0
 11
-74.80409205911283
 21
-6.428865740037795
 31
0.0
  0
LINE
  5
16C
330
1F
100
AcDbEntity
  8
0
100
AcDbLine
 10
-74.80409205911283
 20
-6.428865740037795
 30
0.0
 11
-74.442553632317
 21
-6.414323121645277
 31
0.0
  0
LINE
  5
16D
330
1F
100
AcDbEntity
  8
0
100
AcDbLine
 10
-74.442553632317
 20
-6.414323121645277
 30
0.0
 11
-74.08278445958865
 21
-6.375752872046837
 31
0.0
  0
LINE
  5
16E
330
1F
100
AcDbEntity
  8
0
100
AcDbLine
 10
-74.08278445958865
 20
-6.375752872046837
 30
0.0
 11
-65.54695424067638
 21
-5.447949142796441
 31
0.0
  0
LINE
  5
16F
330
1F
100
AcDbEntity
  8
0
100
AcDbLine
 10
-65.54695424067638
 20
-5.447949142796441
 30
0.0
 11
-43.80822529892733
 21
-5.447949142796791
 31
0.0
  0
LINE
  5
170
330
1F
100
AcDbEntity
  8
0
100
AcDbLine
 10
-43.80822529892733
 20
-5.447949142796791
 30
0.0
 11
-35.49968135515511
 21
-5.412745945105126
 31
0.0
  0
LINE
  5
171
330
1F
100
AcDbEntity
  8
0
100
AcDbLine
 10
77.10998815182933
 20
-1.864450422524764
 30
0.0
 11
77.1578015253391
 21
-1.774997892364216
 31
0.0
  0
LINE
  5
172
330
1F
100
AcDbEntity
  8
0
100
AcDbLine
 10
77.05642667503238
 20
-1.950584283705155
 30
0.0
 11
77.10998815182933
 21
-1.864450422524764
 31
0.0
  0
LINE
  5
173
330
1F
100
AcDbEntity
  8
0
100
AcDbLine
 10
76.99734645341483
 20
-2.03303063748828
 30
0.0
 11
77.05642667503238
 21
-1.950584283705155
 31
0.0
  0
LINE
  5
174
330
1F
100
AcDbEntity
  8
0
100
AcDbLine
 10
76.93300047755584
 20
-2.111436435929871
 30
0.0
 11
76.99734645341483
 21
-2.03303063748828
 31
0.0
  0
LINE
  5
175
330
1F
100
AcDbEntity
  8
0
100
AcDbLine
 10
76.86366428680259
 20
-2.185465933363917
 30
0.0
 11
76.93300047755584
 21
-2.111436435929871
 31
0.0
  0
LINE
  5
176
330
1F
100
AcDbEntity
  8
0
100
AcDbLine
 10
76.78963478936853
 20
-2.254802124117179
 30
0.0
 11
76.86366428680259
 21
-2.185465933363917
 31
0.0
  0
LINE
  5
177
330
1F
100
AcDbEntity
  8
0
100
AcDbLine
 10
76.71122899092694
 20
-2.319148099976187
 30
0.0
 11
76.78963478936853
 21
-2.254802124117179
 31
0.0
  0
LINE
  5
178
330
1F
100
AcDbEntity
  8
0
100
AcDbLine
 10
76.62878263714383
 20
-2.378228321593715
 30
0.0
 11
76.71122899092694
 21
-2.319148099976187
 31
0.0
  0
LINE
  5
179
330
1F
100
AcDbEntity
  8
0
100
AcDbLine
 10
76.54264877596343
 20
-2.431789798390649
 30
0.0
 11
76.62878263714383
 21
-2.378228321593715
 31
0.0
  0
LINE
  5
17A
330
1F
100
AcDbEntity
  8
0
100
AcDbLine
 10
76.4531962458029
 20
-2.479603171900437
 30
0.0
 11
76.54264877596343
 21
-2.431789798390649
 31
0.0
  0
LINE
  5
17B
330
1F
100
AcDbEntity
  8
0
100
AcDbLine
 10
76.36080809612933
 20
-2.521463697917256
 30
0.0
 11
76.4531962458029
 21
-2.479603171900437
 31
0.0
  0
LINE
  5
17C
330
1F
100
AcDbEntity
  8
0
100
AcDbLine
 10
76.26587994718335
 20
-2.557192123242179
 30
0.0
 11
76.36080809612933
 21
-2.521463697917256
 31
0.0
  0
LINE
  5
17D
330
1F
100
AcDbEntity
  8
0
100
AcDbLine
 10
76.16881829587236
 20
-2.586635453272823
 30
0.0
 11
76.26587994718335
 21
-2.557192123242179
 31
0.0
  0
LINE
  5
17E
330
1F
100
AcDbEntity
  8
0
100
AcDbLine
 10
76.07003877508843
 20
-2.609667607149777
 30
0.0
 11
76.16881829587236
 21
-2.586635453272823
 31
0.0
  0
LINE
  5
17F
330
1F
100
AcDbEntity
  8
0
100
AcDbLine
 10
75.96996437390453
 20
-2.626189957654171
 30
0.0
 11
76.07003877508843
 21
-2.609667607149777
 31
0.0
  0
LINE
  5
180
330
1F
100
AcDbEntity
  8
0
100
AcDbLine
 10
75.86902362627018
 20
-2.6361317535446
 30
0.0
 11
75.96996437390453
 21
-2.626189957654171
 31
0.0
  0
LINE
  5
181
330
1F
100
AcDbEntity
  8
0
100
AcDbLine
 10
75.76764877596342
 20
-2.639450422524768
 30
0.0
 11
75.86902362627018
 21
-2.6361317535446
 31
0.0
  0
LINE
  5
182
330
1F
100
AcDbEntity
  8
0
100
AcDbLine
 10
75.66627392565671
 20
-2.6361317535446
 30
0.0
 11
75.76764877596342
 21
-2.639450422524768
 31
0.0
  0
LINE
  5
183
330
1F
100
AcDbEntity
  8
0
100
AcDbLine
 10
75.56533317802237
 20
-2.626189957654171
 30
0.0
 11
75.66627392565671
 21
-2.6361317535446
 31
0.0
  0
LINE
  5
184
330
1F
100
AcDbEntity
  8
0
100
AcDbLine
 10
75.46525877683845
 20
-2.609667607149777
 30
0.0
 11
75.56533317802237
 21
-2.626189957654171
 31
0.0
  0
LINE
  5
185
330
1F
100
AcDbEntity
  8
0
100
AcDbLine
 10
75.36647925605455
 20
-2.586635453272823
 30
0.0
 11
75.46525877683845
 21
-2.609667607149777
 31
0.0
  0
LINE
  5
186
330
1F
100
AcDbEntity
  8
0
100
AcDbLine
 10
75.26941760474354
 20
-2.557192123242179
 30
0.0
 11
75.36647925605455
 21
-2.586635453272823
 31
0.0
  0
LINE
  5
187
330
1F
100
AcDbEntity
  8
0
100
AcDbLine
 10
75.17448945579757
 20
-2.521463697917267
 30
0.0
 11
75.26941760474354
 21
-2.557192123242179
 31
0.0
  0
LINE
  5
188
330
1F
100
AcDbEntity
  8
0
100
AcDbLine
 10
75.08210130612399
 20
-2.479603171900437
 30
0.0
 11
75.17448945579757
 21
-2.521463697917267
 31
0.0
  0
LINE
  5
189
330
1F
100
AcDbEntity
  8
0
100
AcDbLine
 10
74.99264877596346
 20
-2.431789798390649
 30
0.0
 11
75.08210130612399
 21
-2.479603171900437
 31
0.0
  0
LINE
  5
18A
330
1F
100
AcDbEntity
  8
0
100
AcDbLine
 10
74.90651491478306
 20
-2.378228321593715
 30
0.0
 11
74.99264877596346
 21
-2.431789798390649
 31
0.0
  0
LINE
  5
18B
330
1F
100
AcDbEntity
  8
0
100
AcDbLine
 10
74.82406856099995
 20
-2.319148099976187
 30
0.0
 11
74.90651491478306
 21
-2.378228321593715
 31
0.0
  0
LINE
  5
18C
330
1F
100
AcDbEntity
  8
0
100
AcDbLine
 10
74.74566276255835
 20
-2.254802124117179
 30
0.0
 11
74.82406856099995
 21
-2.319148099976187
 31
0.0
  0
LINE
  5
18D
330
1F
100
AcDbEntity
  8
0
100
AcDbLine
 10
74.67163326512431
 20
-2.185465933363917
 30
0.0
 11
74.74566276255835
 21
-2.254802124117179
 31
0.0
  0
LINE
  5
18E
330
1F
100
AcDbEntity
  8
0
100
AcDbLine
 10
74.60229707437105
 20
-2.111436435929871
 30
0.0
 11
74.67163326512431
 21
-2.185465933363917
 31
0.0
  0
LINE
  5
18F
330
1F
100
AcDbEntity
  8
0
100
AcDbLine
 10
74.53795109851205
 20
-2.033030637488291
 30
0.0
 11
74.60229707437105
 21
-2.111436435929871
 31
0.0
  0
LINE
  5
190
330
1F
100
AcDbEntity
  8
0
100
AcDbLine
 10
74.47887087689452
 20
-1.950584283705155
 30
0.0
 11
74.53795109851205
 21
-2.033030637488291
 31
0.0
  0
LINE
  5
191
330
1F
100
AcDbEntity
  8
0
100
AcDbLine
 10
74.42530940009756
 20
-1.864450422524775
 30
0.0
 11
74.47887087689452
 21
-1.950584283705155
 31
0.0
  0
LINE
  5
192
330
1F
100
AcDbEntity
  8
0
100
AcDbLine
 10
74.3774960265878
 20
-1.774997892364227
 30
0.0
 11
74.42530940009756
 21
-1.864450422524775
 31
0.0
  0
LINE
  5
193
330
1F
100
AcDbEntity
  8
0
100
AcDbLine
 10
74.33563550057094
 20
-1.682609742690662
 30
0.0
 11
74.3774960265878
 21
-1.774997892364227
 31
0.0
  0
LINE
  5
194
330
1F
100
AcDbEntity
  8
0
100
AcDbLine
 10
74.29990707524604
 20
-1.587681593744677
 30
0.0
 11
74.33563550057094
 21
-1.682609742690662
 31
0.0
  0
LINE
  5
195
330
1F
100
AcDbEntity
  8
0
100
AcDbLine
 10
74.27046374521538
 20
-1.490619942433687
 30
0.0
 11
74.29990707524604
 21
-1.587681593744677
 31
0.0
  0
LINE
  5
196
330
1F
100
AcDbEntity
  8
0
100
AcDbLine
 10
74.24743159133843
 20
-1.391840421649771
 30
0.0
 11
74.27046374521538
 21
-1.490619942433687
 31
0.0
  0
LINE
  5
197
330
1F
100
AcDbEntity
  8
0
100
AcDbLine
 10
74.23090924083405
 20
-1.291766020465851
 30
0.0
 11
74.24743159133843
 21
-1.391840421649771
 31
0.0
  0
LINE
  5
198
330
1F
100
AcDbEntity
  8
0
100
AcDbLine
 10
74.22096744494362
 20
-1.190825272831493
 30
0.0
 11
74.23090924083405
 21
-1.291766020465851
 31
0.0
  0
LINE
  5
199
330
1F
100
AcDbEntity
  8
0
100
AcDbLine
 10
74.21764877596345
 20
-1.089450422524782
 30
0.0
 11
74.22096744494362
 21
-1.190825272831493
 31
0.0
  0
LINE
  5
19A
330
1F
100
AcDbEntity
  8
0
100
AcDbLine
 10
74.22096744494362
 20
-0.988075572218059
 30
0.0
 11
74.21764877596345
 21
-1.089450422524782
 31
0.0
  0
LINE
  5
19B
330
1F
100
AcDbEntity
  8
0
100
AcDbLine
 10
74.23090924083405
 20
-0.8871348245837011
 30
0.0
 11
74.22096744494362
 21
-0.988075572218059
 31
0.0
  0
LINE
  5
19C
330
1F
100
AcDbEntity
  8
0
100
AcDbLine
 10
74.24743159133843
 20
-0.7870604233997813
 30
0.0
 11
74.23090924083405
 21
-0.8871348245837011
 31
0.0
  0
LINE
  5
19D
330
1F
100
AcDbEntity
  8
0
100
AcDbLine
 10
74.27046374521538
 20
-0.6882809026158766
 30
0.0
 11
74.24743159133843
 21
-0.7870604233997813
 31
0.0
  0
LINE
  5
19E
330
1F
100
AcDbEntity
  8
0
100
AcDbLine
 10
74.29990707524604
 20
-0.5912192513048866
 30
0.0
 11
74.27046374521538
 21
-0.6882809026158766
 31
0.0
  0
LINE
  5
19F
330
1F
100
AcDbEntity
  8
0
100
AcDbLine
 10
74.33563550057094
 20
-0.4962911023588901
 30
0.0
 11
74.29990707524604
 21
-0.5912192513048866
 31
0.0
  0
LINE
  5
1A0
330
1F
100
AcDbEntity
  8
0
100
AcDbLine
 10
74.3774960265878
 20
-0.4039029526853364
 30
0.0
 11
74.33563550057094
 21
-0.4962911023588901
 31
0.0
  0
LINE
  5
1A1
330
1F
100
AcDbEntity
  8
0
100
AcDbLine
 10
74.42530940009756
 20
-0.3144504225247889
 30
0.0
 11
74.3774960265878
 21
-0.4039029526853364
 31
0.0
  0
LINE
  5
1A2
330
1F
100
AcDbEntity
  8
0
100
AcDbLine
 10
74.47887087689452
 20
-0.2283165613444092
 30
0.0
 11
74.42530940009756
 21
-0.3144504225247889
 31
0.0
  0
LINE
  5
1A3
330
1F
100
AcDbEntity
  8
0
100
AcDbLine
 10
74.53795109851205
 20
-0.1458702075612727
 30
0.0
 11
74.47887087689452
 21
-0.2283165613444092
 31
0.0
  0
LINE
  5
1A4
330
1F
100
AcDbEntity
  8
0
100
AcDbLine
 10
74.60229707437105
 20
-0.0674644091196818
 30
0.0
 11
74.53795109851205
 21
-0.1458702075612727
 31
0.0
  0
LINE
  5
1A5
330
1F
100
AcDbEntity
  8
0
100
AcDbLine
 10
74.67163326512431
 20
0.0065650883143538
 30
0.0
 11
74.60229707437105
 21
-0.0674644091196818
 31
0.0
  0
LINE
  5
1A6
330
1F
100
AcDbEntity
  8
0
100
AcDbLine
 10
74.74566276255835
 20
0.0759012790676262
 30
0.0
 11
74.67163326512431
 21
0.0065650883143538
 31
0.0
  0
LINE
  5
1A7
330
1F
100
AcDbEntity
  8
0
100
AcDbLine
 10
74.82406856099995
 20
0.1402472549266228
 30
0.0
 11
74.74566276255835
 21
0.0759012790676262
 31
0.0
  0
LINE
  5
1A8
330
1F
100
AcDbEntity
  8
0
100
AcDbLine
 10
74.90651491478306
 20
0.1993274765441509
 30
0.0
 11
74.82406856099995
 21
0.1402472549266228
 31
0.0
  0
LINE
  5
1A9
330
1F
100
AcDbEntity
  8
0
100
AcDbLine
 10
74.99264877596346
 20
0.2528889533410856
 30
0.0
 11
74.90651491478306
 21
0.1993274765441509
 31
0.0
  0
LINE
  5
1AA
330
1F
100
AcDbEntity
  8
0
100
AcDbLine
 10
75.08210130612399
 20
0.3007023268508739
 30
0.0
 11
74.99264877596346
 21
0.2528889533410856
 31
0.0
  0
LINE
  5
1AB
330
1F
100
AcDbEntity
  8
0
100
AcDbLine
 10
75.17448945579757
 20
0.3425628528677036
 30
0.0
 11
75.08210130612399
 21
0.3007023268508739
 31
0.0
  0
LINE
  5
1AC
330
1F
100
AcDbEntity
  8
0
100
AcDbLine
 10
75.26941760474354
 20
0.3782912781926155
 30
0.0
 11
75.17448945579757
 21
0.3425628528677036
 31
0.0
  0
LINE
  5
1AD
330
1F
100
AcDbEntity
  8
0
100
AcDbLine
 10
75.36647925605455
 20
0.407734608223259
 30
0.0
 11
75.26941760474354
 21
0.3782912781926155
 31
0.0
  0
LINE
  5
1AE
330
1F
100
AcDbEntity
  8
0
100
AcDbLine
 10
75.46525877683845
 20
0.4307667621002134
 30
0.0
 11
75.36647925605455
 21
0.407734608223259
 31
0.0
  0
LINE
  5
1AF
330
1F
100
AcDbEntity
  8
0
100
AcDbLine
 10
75.56533317802237
 20
0.4472891126046077
 30
0.0
 11
75.46525877683845
 21
0.4307667621002134
 31
0.0
  0
LINE
  5
1B0
330
1F
100
AcDbEntity
  8
0
100
AcDbLine
 10
75.66627392565671
 20
0.4572309084950363
 30
0.0
 11
75.56533317802237
 21
0.4472891126046077
 31
0.0
  0
LINE
  5
1B1
330
1F
100
AcDbEntity
  8
0
100
AcDbLine
 10
75.76764877596342
 20
0.460549577475204
 30
0.0
 11
75.66627392565671
 21
0.4572309084950363
 31
0.0
  0
LINE
  5
1B2
330
1F
100
AcDbEntity
  8
0
100
AcDbLine
 10
75.86902362627018
 20
0.4572309084950363
 30
0.0
 11
75.76764877596342
 21
0.460549577475204
 31
0.0
  0
LINE
  5
1B3
330
1F
100
AcDbEntity
  8
0
100
AcDbLine
 10
75.96996437390453
 20
0.4472891126046077
 30
0.0
 11
75.86902362627018
 21
0.4572309084950363
 31
0.0
  0
LINE
  5
1B4
330
1F
100
AcDbEntity
  8
0
100
AcDbLine
 10
76.07003877508843
 20
0.4307667621002134
 30
0.0
 11
75.96996437390453
 21
0.4472891126046077
 31
0.0
  0
LINE
  5
1B5
330
1F
100
AcDbEntity
  8
0
100
AcDbLine
 10
76.16881829587236
 20
0.407734608223259
 30
0.0
 11
76.07003877508843
 21
0.4307667621002134
 31
0.0
  0
LINE
  5
1B6
330
1F
100
AcDbEntity
  8
0
100
AcDbLine
 10
76.26587994718335
 20
0.3782912781926155
 30
0.0
 11
76.16881829587236
 21
0.407734608223259
 31
0.0
  0
LINE
  5
1B7
330
1F
100
AcDbEntity
  8
0
100
AcDbLine
 10
76.36080809612933
 20
0.3425628528677036
 30
0.0
 11
76.26587994718335
 21
0.3782912781926155
 31
0.0
  0
LINE
  5
1B8
330
1F
100
AcDbEntity
  8
0
100
AcDbLine
 10
76.4531962458029
 20
0.3007023268508739
 30
0.0
 11
76.36080809612933
 21
0.3425628528677036
 31
0.0
  0
LINE
  5
1B9
330
1F
100
AcDbEntity
  8
0
100
AcDbLine
 10
76.54264877596343
 20
0.2528889533410856
 30
0.0
 11
76.4531962458029
 21
0.3007023268508739
 31
0.0
  0
LINE
  5
1BA
330
1F
100
AcDbEntity
  8
0
100
AcDbLine
 10
76.62878263714383
 20
0.1993274765441509
 30
0.0
 11
76.54264877596343
 21
0.2528889533410856
 31
0.0
  0
LINE
  5
1BB
330
1F
100
AcDbEntity
  8
0
100
AcDbLine
 10
76.71122899092694
 20
0.1402472549266228
 30
0.0
 11
76.62878263714383
 21
0.1993274765441509
 31
0.0
  0
LINE
  5
1BC
330
1F
100
AcDbEntity
  8
0
100
AcDbLine
 10
76.78963478936853
 20
0.0759012790676262
 30
0.0
 11
76.71122899092694
 21
0.1402472549266228
 31
0.0
  0
LINE
  5
1BD
330
1F
100
AcDbEntity
  8
0
100
AcDbLine
 10
76.86366428680259
 20
0.0065650883143538
 30
0.0
 11
76.78963478936853
 21
0.0759012790676262
 31
0.0
  0
LINE
  5
1BE
330
1F
100
AcDbEntity
  8
0
100
AcDbLine
 10
76.93300047755584
 20
-0.0674644091196818
 30
0.0
 11
76.86366428680259
 21
0.0065650883143538
 31
0.0
  0
LINE
  5
1BF
330
1F
100
AcDbEntity
  8
0
100
AcDbLine
 10
76.99734645341483
 20
-0.1458702075612727
 30
0.0
 11
76.93300047755584
 21
-0.0674644091196818
 31
0.0
  0
LINE
  5
1C0
330
1F
100
AcDbEntity
  8
0
100
AcDbLine
 10
77.05642667503238
 20
-0.2283165613444092
 30
0.0
 11
76.99734645341483
 21
-0.1458702075612727
 31
0.0
  0
LINE
  5
1C1
330
1F
100
AcDbEntity
  8
0
100
AcDbLine
 10
77.10998815182933
 20
-0.3144504225247889
 30
0.0
 11
77.05642667503238
 21
-0.2283165613444092
 31
0.0
  0
LINE
  5
1C2
330
1F
100
AcDbEntity
  8
0
100
AcDbLine
 10
77.1578015253391
 20
-0.4039029526853364
 30
0.0
 11
77.10998815182933
 21
-0.3144504225247889
 31
0.0
  0
LINE
  5
1C3
330
1F
100
AcDbEntity
  8
0
100
AcDbLine
 10
77.19966205135594
 20
-0.4962911023589014
 30
0.0
 11
77.1578015253391
 21
-0.4039029526853364
 31
0.0
  0
LINE
  5
1C4
330
1F
100
AcDbEntity
  8
0
100
AcDbLine
 10
77.23539047668085
 20
-0.5912192513048866
 30
0.0
 11
77.19966205135594
 21
-0.4962911023589014
 31
0.0
  0
LINE
  5
1C5
330
1F
100
AcDbEntity
  8
0
100
AcDbLine
 10
77.26483380671147
 20
-0.6882809026158766
 30
0.0
 11
77.23539047668085
 21
-0.5912192513048866
 31
0.0
  0
LINE
  5
1C6
330
1F
100
AcDbEntity
  8
0
100
AcDbLine
 10
77.28786596058842
 20
-0.7870604233997813
 30
0.0
 11
77.26483380671147
 21
-0.6882809026158766
 31
0.0
  0
LINE
  5
1C7
330
1F
100
AcDbEntity
  8
0
100
AcDbLine
 10
77.30438831109285
 20
-0.8871348245837011
 30
0.0
 11
77.28786596058842
 21
-0.7870604233997813
 31
0.0
  0
LINE
  5
1C8
330
1F
100
AcDbEntity
  8
0
100
AcDbLine
 10
77.31433010698326
 20
-0.988075572218059
 30
0.0
 11
77.30438831109285
 21
-0.8871348245837011
 31
0.0
  0
LINE
  5
1C9
330
1F
100
AcDbEntity
  8
0
100
AcDbLine
 10
77.31764877596343
 20
-1.089450422524782
 30
0.0
 11
77.31433010698326
 21
-0.988075572218059
 31
0.0
  0
LINE
  5
1CA
330
1F
100
AcDbEntity
  8
0
100
AcDbLine
 10
77.31433010698326
 20
-1.190825272831493
 30
0.0
 11
77.31764877596343
 21
-1.089450422524782
 31
0.0
  0
LINE
  5
1CB
330
1F
100
AcDbEntity
  8
0
100
AcDbLine
 10
77.30438831109285
 20
-1.291766020465851
 30
0.0
 11
77.31433010698326
 21
-1.190825272831493
 31
0.0
  0
LINE
  5
1CC
330
1F
100
AcDbEntity
  8
0
100
AcDbLine
 10
77.28786596058842
 20
-1.39184042164976
 30
0.0
 11
77.30438831109285
 21
-1.291766020465851
 31
0.0
  0
LINE
  5
1CD
330
1F
100
AcDbEntity
  8
0
100
AcDbLine
 10
77.26483380671147
 20
-1.490619942433676
 30
0.0
 11
77.28786596058842
 21
-1.39184042164976
 31
0.0
  0
LINE
  5
1CE
330
1F
100
AcDbEntity
  8
0
100
AcDbLine
 10
77.23539047668085
 20
-1.587681593744666
 30
0.0
 11
77.26483380671147
 21
-1.490619942433676
 31
0.0
  0
LINE
  5
1CF
330
1F
100
AcDbEntity
  8
0
100
AcDbLine
 10
77.19966205135594
 20
-1.682609742690651
 30
0.0
 11
77.23539047668085
 21
-1.587681593744666
 31
0.0
  0
LINE
  5
1D0
330
1F
100
AcDbEntity
  8
0
100
AcDbLine
 10
77.1578015253391
 20
-1.774997892364216
 30
0.0
 11
77.19966205135594
 21
-1.682609742690651
 31
0.0
  0
LINE
  5
1D1
330
1F
100
AcDbEntity
  8
0
100
AcDbLine
 10
84.56051096366669
 20
5.828782466272885
 30
0.0
 11
84.63891676210828
 21
5.893128442131904
 31
0.0
  0
LINE
  5
1D2
330
1F
100
AcDbEntity
  8
0
100
AcDbLine
 10
84.47806460988352
 20
5.769702244655369
 30
0.0
 11
84.56051096366669
 21
5.828782466272885
 31
0.0
  0
LINE
  5
1D3
330
1F
100
AcDbEntity
  8
0
100
AcDbLine
 10
84.39193074870317
 20
5.716140767858422
 30
0.0
 11
84.47806460988352
 21
5.769702244655369
 31
0.0
  0
LINE
  5
1D4
330
1F
100
AcDbEntity
  8
0
100
AcDbLine
 10
84.3024782185426
 20
5.668327394348634
 30
0.0
 11
84.39193074870317
 21
5.716140767858422
 31
0.0
  0
LINE
  5
1D5
330
1F
100
AcDbEntity
  8
0
100
AcDbLine
 10
84.21009006886906
 20
5.626466868331804
 30
0.0
 11
84.3024782185426
 21
5.668327394348634
 31
0.0
  0
LINE
  5
1D6
330
1F
100
AcDbEntity
  8
0
100
AcDbLine
 10
84.11516191992305
 20
5.590738443006892
 30
0.0
 11
84.21009006886906
 21
5.626466868331804
 31
0.0
  0
LINE
  5
1D7
330
1F
100
AcDbEntity
  8
0
100
AcDbLine
 10
84.01810026861205
 20
5.561295112976238
 30
0.0
 11
84.11516191992305
 21
5.590738443006892
 31
0.0
  0
LINE
  5
1D8
330
1F
100
AcDbEntity
  8
0
100
AcDbLine
 10
83.91932074782818
 20
5.538262959099305
 30
0.0
 11
84.01810026861205
 21
5.561295112976238
 31
0.0
  0
LINE
  5
1D9
330
1F
100
AcDbEntity
  8
0
100
AcDbLine
 10
83.81924634664422
 20
5.5217406085949
 30
0.0
 11
83.91932074782818
 21
5.538262959099305
 31
0.0
  0
LINE
  5
1DA
330
1F
100
AcDbEntity
  8
0
100
AcDbLine
 10
83.71830559900988
 20
5.51179881270446
 30
0.0
 11
83.81924634664422
 21
5.5217406085949
 31
0.0
  0
LINE
  5
1DB
330
1F
100
AcDbEntity
  8
0
100
AcDbLine
 10
83.61693074870317
 20
5.508480143724293
 30
0.0
 11
83.71830559900988
 21
5.51179881270446
 31
0.0
  0
LINE
  5
1DC
330
1F
100
AcDbEntity
  8
0
100
AcDbLine
 10
83.51555589839646
 20
5.51179881270446
 30
0.0
 11
83.61693074870317
 21
5.508480143724293
 31
0.0
  0
LINE
  5
1DD
330
1F
100
AcDbEntity
  8
0
100
AcDbLine
 10
83.41461515076206
 20
5.5217406085949
 30
0.0
 11
83.51555589839646
 21
5.51179881270446
 31
0.0
  0
LINE
  5
1DE
330
1F
100
AcDbEntity
  8
0
100
AcDbLine
 10
83.31454074957816
 20
5.538262959099305
 30
0.0
 11
83.41461515076206
 21
5.5217406085949
 31
0.0
  0
LINE
  5
1DF
330
1F
100
AcDbEntity
  8
0
100
AcDbLine
 10
83.21576122879424
 20
5.561295112976238
 30
0.0
 11
83.31454074957816
 21
5.538262959099305
 31
0.0
  0
LINE
  5
1E0
330
1F
100
AcDbEntity
  8
0
100
AcDbLine
 10
83.11869957748324
 20
5.590738443006892
 30
0.0
 11
83.21576122879424
 21
5.561295112976238
 31
0.0
  0
LINE
  5
1E1
330
1F
100
AcDbEntity
  8
0
100
AcDbLine
 10
83.02377142853726
 20
5.626466868331804
 30
0.0
 11
83.11869957748324
 21
5.590738443006892
 31
0.0
  0
LINE
  5
1E2
330
1F
100
AcDbEntity
  8
0
100
AcDbLine
 10
82.93138327886368
 20
5.668327394348634
 30
0.0
 11
83.02377142853726
 21
5.626466868331804
 31
0.0
  0
LINE
  5
1E3
330
1F
100
AcDbEntity
  8
0
100
AcDbLine
 10
82.84193074870316
 20
5.716140767858422
 30
0.0
 11
82.93138327886368
 21
5.668327394348634
 31
0.0
  0
LINE
  5
1E4
330
1F
100
AcDbEntity
  8
0
100
AcDbLine
 10
82.75579688752276
 20
5.769702244655369
 30
0.0
 11
82.84193074870316
 21
5.716140767858422
 31
0.0
  0
LINE
  5
1E5
330
1F
100
AcDbEntity
  8
0
100
AcDbLine
 10
82.67335053373964
 20
5.828782466272885
 30
0.0
 11
82.75579688752276
 21
5.769702244655369
 31
0.0
  0
LINE
  5
1E6
330
1F
100
AcDbEntity
  8
0
100
AcDbLine
 10
82.59494473529806
 20
5.893128442131881
 30
0.0
 11
82.67335053373964
 21
5.828782466272885
 31
0.0
  0
LINE
  5
1E7
330
1F
100
AcDbEntity
  8
0
100
AcDbLine
 10
82.520915237864
 20
5.962464632885165
 30
0.0
 11
82.59494473529806
 21
5.893128442131881
 31
0.0
  0
LINE
  5
1E8
330
1F
100
AcDbEntity
  8
0
100
AcDbLine
 10
82.45157904711074
 20
6.036494130319189
 30
0.0
 11
82.520915237864
 21
5.962464632885165
 31
0.0
  0
LINE
  5
1E9
330
1F
100
AcDbEntity
  8
0
100
AcDbLine
 10
82.38723307125174
 20
6.114899928760781
 30
0.0
 11
82.45157904711074
 21
6.036494130319189
 31
0.0
  0
LINE
  5
1EA
330
1F
100
AcDbEntity
  8
0
100
AcDbLine
 10
82.32815284963421
 20
6.197346282543917
 30
0.0
 11
82.38723307125174
 21
6.114899928760781
 31
0.0
  0
LINE
  5
1EB
330
1F
100
AcDbEntity
  8
0
100
AcDbLine
 10
82.27459137283726
 20
6.283480143724296
 30
0.0
 11
82.32815284963421
 21
6.197346282543917
 31
0.0
  0
LINE
  5
1EC
330
1F
100
AcDbEntity
  8
0
100
AcDbLine
 10
82.2267779993275
 20
6.372932673884844
 30
0.0
 11
82.27459137283726
 21
6.283480143724296
 31
0.0
  0
LINE
  5
1ED
330
1F
100
AcDbEntity
  8
0
100
AcDbLine
 10
82.18491747331065
 20
6.465320823558421
 30
0.0
 11
82.2267779993275
 21
6.372932673884844
 31
0.0
  0
LINE
  5
1EE
330
1F
100
AcDbEntity
  8
0
100
AcDbLine
 10
82.14918904798573
 20
6.560248972504394
 30
0.0
 11
82.18491747331065
 21
6.465320823558421
 31
0.0
  0
LINE
  5
1EF
330
1F
100
AcDbEntity
  8
0
100
AcDbLine
 10
82.11974571795513
 20
6.657310623815396
 30
0.0
 11
82.14918904798573
 21
6.560248972504394
 31
0.0
  0
LINE
  5
1F0
330
1F
100
AcDbEntity
  8
0
100
AcDbLine
 10
82.09671356407817
 20
6.756090144599312
 30
0.0
 11
82.11974571795513
 21
6.657310623815396
 31
0.0
  0
LINE
  5
1F1
330
1F
100
AcDbEntity
  8
0
100
AcDbLine
 10
82.08019121357374
 20
6.85616454578322
 30
0.0
 11
82.09671356407817
 21
6.756090144599312
 31
0.0
  0
LINE
  5
1F2
330
1F
100
AcDbEntity
  8
0
100
AcDbLine
 10
82.07024941768333
 20
6.957105293417589
 30
0.0
 11
82.08019121357374
 21
6.85616454578322
 31
0.0
  0
LINE
  5
1F3
330
1F
100
AcDbEntity
  8
0
100
AcDbLine
 10
82.06693074870316
 20
7.058480143724301
 30
0.0
 11
82.07024941768333
 21
6.957105293417589
 31
0.0
  0
LINE
  5
1F4
330
1F
100
AcDbEntity
  8
0
100
AcDbLine
 10
82.07024941768333
 20
7.159854994031035
 30
0.0
 11
82.06693074870316
 21
7.058480143724301
 31
0.0
  0
LINE
  5
1F5
330
1F
100
AcDbEntity
  8
0
100
AcDbLine
 10
82.08019121357374
 20
7.260795741665381
 30
0.0
 11
82.07024941768333
 21
7.159854994031035
 31
0.0
  0
LINE
  5
1F6
330
1F
100
AcDbEntity
  8
0
100
AcDbLine
 10
82.09671356407817
 20
7.360870142849313
 30
0.0
 11
82.08019121357374
 21
7.260795741665381
 31
0.0
  0
LINE
  5
1F7
330
1F
100
AcDbEntity
  8
0
100
AcDbLine
 10
82.11974571795513
 20
7.459649663633206
 30
0.0
 11
82.09671356407817
 21
7.360870142849313
 31
0.0
  0
LINE
  5
1F8
330
1F
100
AcDbEntity
  8
0
100
AcDbLine
 10
82.14918904798573
 20
7.556711314944208
 30
0.0
 11
82.11974571795513
 21
7.459649663633206
 31
0.0
  0
LINE
  5
1F9
330
1F
100
AcDbEntity
  8
0
100
AcDbLine
 10
82.18491747331069
 20
7.651639463890182
 30
0.0
 11
82.14918904798573
 21
7.556711314944208
 31
0.0
  0
LINE
  5
1FA
330
1F
100
AcDbEntity
  8
0
100
AcDbLine
 10
82.2267779993275
 20
7.744027613563758
 30
0.0
 11
82.18491747331069
 21
7.651639463890182
 31
0.0
  0
LINE
  5
1FB
330
1F
100
AcDbEntity
  8
0
100
AcDbLine
 10
82.27459137283726
 20
7.833480143724305
 30
0.0
 11
82.2267779993275
 21
7.744027613563758
 31
0.0
  0
LINE
  5
1FC
330
1F
100
AcDbEntity
  8
0
100
AcDbLine
 10
82.32815284963421
 20
7.919614004904685
 30
0.0
 11
82.27459137283726
 21
7.833480143724305
 31
0.0
  0
LINE
  5
1FD
330
1F
100
AcDbEntity
  8
0
100
AcDbLine
 10
82.38723307125174
 20
8.002060358687821
 30
0.0
 11
82.32815284963421
 21
7.919614004904685
 31
0.0
  0
LINE
  5
1FE
330
1F
100
AcDbEntity
  8
0
100
AcDbLine
 10
82.45157904711074
 20
8.080466157129413
 30
0.0
 11
82.38723307125174
 21
8.002060358687821
 31
0.0
  0
LINE
  5
1FF
330
1F
100
AcDbEntity
  8
0
100
AcDbLine
 10
82.520915237864
 20
8.154495654563458
 30
0.0
 11
82.45157904711074
 21
8.080466157129413
 31
0.0
  0
LINE
  5
200
330
1F
100
AcDbEntity
  8
0
100
AcDbLine
 10
82.59494473529806
 20
8.22383184531672
 30
0.0
 11
82.520915237864
 21
8.154495654563458
 31
0.0
  0
LINE
  5
201
330
1F
100
AcDbEntity
  8
0
100
AcDbLine
 10
82.67335053373964
 20
8.288177821175717
 30
0.0
 11
82.59494473529806
 21
8.22383184531672
 31
0.0
  0
LINE
  5
202
330
1F
100
AcDbEntity
  8
0
100
AcDbLine
 10
82.75579688752276
 20
8.347258042793234
 30
0.0
 11
82.67335053373964
 21
8.288177821175717
 31
0.0
  0
LINE
  5
203
330
1F
100
AcDbEntity
  8
0
100
AcDbLine
 10
82.84193074870316
 20
8.40081951959018
 30
0.0
 11
82.75579688752276
 21
8.347258042793234
 31
0.0
  0
LINE
  5
204
330
1F
100
AcDbEntity
  8
0
100
AcDbLine
 10
82.93138327886373
 20
8.448632893099967
 30
0.0
 11
82.84193074870316
 21
8.40081951959018
 31
0.0
  0
LINE
  5
205
330
1F
100
AcDbEntity
  8
0
100
AcDbLine
 10
83.02377142853726
 20
8.490493419116797
 30
0.0
 11
82.93138327886373
 21
8.448632893099967
 31
0.0
  0
LINE
  5
206
330
1F
100
AcDbEntity
  8
0
100
AcDbLine
 10
83.11869957748328
 20
8.526221844441709
 30
0.0
 11
83.02377142853726
 21
8.490493419116797
 31
0.0
  0
LINE
  5
207
330
1F
100
AcDbEntity
  8
0
100
AcDbLine
 10
83.21576122879424
 20
8.555665174472365
 30
0.0
 11
83.11869957748328
 21
8.526221844441709
 31
0.0
  0
LINE
  5
208
330
1F
100
AcDbEntity
  8
0
100
AcDbLine
 10
83.31454074957816
 20
8.578697328349296
 30
0.0
 11
83.21576122879424
 21
8.555665174472365
 31
0.0
  0
LINE
  5
209
330
1F
100
AcDbEntity
  8
0
100
AcDbLine
 10
83.41461515076206
 20
8.595219678853702
 30
0.0
 11
83.31454074957816
 21
8.578697328349296
 31
0.0
  0
LINE
  5
20A
330
1F
100
AcDbEntity
  8
0
100
AcDbLine
 10
83.51555589839646
 20
8.605161474744142
 30
0.0
 11
83.41461515076206
 21
8.595219678853702
 31
0.0
  0
LINE
  5
20B
330
1F
100
AcDbEntity
  8
0
100
AcDbLine
 10
83.61693074870317
 20
8.608480143724309
 30
0.0
 11
83.51555589839646
 21
8.605161474744142
 31
0.0
  0
LINE
  5
20C
330
1F
100
AcDbEntity
  8
0
100
AcDbLine
 10
83.71830559900988
 20
8.605161474744142
 30
0.0
 11
83.61693074870317
 21
8.608480143724309
 31
0.0
  0
LINE
  5
20D
330
1F
100
AcDbEntity
  8
0
100
AcDbLine
 10
83.81924634664422
 20
8.595219678853702
 30
0.0
 11
83.71830559900988
 21
8.605161474744142
 31
0.0
  0
LINE
  5
20E
330
1F
100
AcDbEntity
  8
0
100
AcDbLine
 10
83.91932074782818
 20
8.578697328349296
 30
0.0
 11
83.81924634664422
 21
8.595219678853702
 31
0.0
  0
LINE
  5
20F
330
1F
100
AcDbEntity
  8
0
100
AcDbLine
 10
84.01810026861205
 20
8.555665174472365
 30
0.0
 11
83.91932074782818
 21
8.578697328349296
 31
0.0
  0
LINE
  5
210
330
1F
100
AcDbEntity
  8
0
100
AcDbLine
 10
84.11516191992305
 20
8.526221844441709
 30
0.0
 11
84.01810026861205
 21
8.555665174472365
 31
0.0
  0
LINE
  5
211
330
1F
100
AcDbEntity
  8
0
100
AcDbLine
 10
84.21009006886906
 20
8.490493419116797
 30
0.0
 11
84.11516191992305
 21
8.526221844441709
 31
0.0
  0
LINE
  5
212
330
1F
100
AcDbEntity
  8
0
100
AcDbLine
 10
84.3024782185426
 20
8.448632893099967
 30
0.0
 11
84.21009006886906
 21
8.490493419116797
 31
0.0
  0
LINE
  5
213
330
1F
100
AcDbEntity
  8
0
100
AcDbLine
 10
84.39193074870317
 20
8.40081951959018
 30
0.0
 11
84.3024782185426
 21
8.448632893099967
 31
0.0
  0
LINE
  5
214
330
1F
100
AcDbEntity
  8
0
100
AcDbLine
 10
84.47806460988352
 20
8.347258042793234
 30
0.0
 11
84.39193074870317
 21
8.40081951959018
 31
0.0
  0
LINE
  5
215
330
1F
100
AcDbEntity
  8
0
100
AcDbLine
 10
84.56051096366669
 20
8.288177821175717
 30
0.0
 11
84.47806460988352
 21
8.347258042793234
 31
0.0
  0
LINE
  5
216
330
1F
100
AcDbEntity
  8
0
100
AcDbLine
 10
84.63891676210828
 20
8.22383184531672
 30
0.0
 11
84.56051096366669
 21
8.288177821175717
 31
0.0
  0
LINE
  5
217
330
1F
100
AcDbEntity
  8
0
100
AcDbLine
 10
84.71294625954232
 20
8.154495654563437
 30
0.0
 11
84.63891676210828
 21
8.22383184531672
 31
0.0
  0
LINE
  5
218
330
1F
100
AcDbEntity
  8
0
100
AcDbLine
 10
84.78228245029558
 20
8.080466157129413
 30
0.0
 11
84.71294625954232
 21
8.154495654563437
 31
0.0
  0
LINE
  5
219
330
1F
100
AcDbEntity
  8
0
100
AcDbLine
 10
84.84662842615458
 20
8.002060358687821
 30
0.0
 11
84.78228245029558
 21
8.080466157129413
 31
0.0
  0
LINE
  5
21A
330
1F
100
AcDbEntity
  8
0
100
AcDbLine
 10
84.90570864777212
 20
7.919614004904685
 30
0.0
 11
84.84662842615458
 21
8.002060358687821
 31
0.0
  0
LINE
  5
21B
330
1F
100
AcDbEntity
  8
0
100
AcDbLine
 10
84.95927012456902
 20
7.833480143724305
 30
0.0
 11
84.90570864777212
 21
7.919614004904685
 31
0.0
  0
LINE
  5
21C
330
1F
100
AcDbEntity
  8
0
100
AcDbLine
 10
85.00708349807883
 20
7.744027613563758
 30
0.0
 11
84.95927012456902
 21
7.833480143724305
 31
0.0
  0
LINE
  5
21D
330
1F
100
AcDbEntity
  8
0
100
AcDbLine
 10
85.04894402409563
 20
7.651639463890182
 30
0.0
 11
85.00708349807883
 21
7.744027613563758
 31
0.0
  0
LINE
  5
21E
330
1F
100
AcDbEntity
  8
0
100
AcDbLine
 10
85.08467244942055
 20
7.556711314944208
 30
0.0
 11
85.04894402409563
 21
7.651639463890182
 31
0.0
  0
LINE
  5
21F
330
1F
100
AcDbEntity
  8
0
100
AcDbLine
 10
85.11411577945121
 20
7.459649663633206
 30
0.0
 11
85.08467244942055
 21
7.556711314944208
 31
0.0
  0
LINE
  5
220
330
1F
100
AcDbEntity
  8
0
100
AcDbLine
 10
85.13714793332817
 20
7.36087014284929
 30
0.0
 11
85.11411577945121
 21
7.459649663633206
 31
0.0
  0
LINE
  5
221
330
1F
100
AcDbEntity
  8
0
100
AcDbLine
 10
85.15367028383254
 20
7.260795741665381
 30
0.0
 11
85.13714793332817
 21
7.36087014284929
 31
0.0
  0
LINE
  5
222
330
1F
100
AcDbEntity
  8
0
100
AcDbLine
 10
85.16361207972301
 20
7.159854994031012
 30
0.0
 11
85.15367028383254
 21
7.260795741665381
 31
0.0
  0
LINE
  5
223
330
1F
100
AcDbEntity
  8
0
100
AcDbLine
 10
85.16693074870317
 20
7.058480143724301
 30
0.0
 11
85.16361207972301
 21
7.159854994031012
 31
0.0
  0
LINE
  5
224
330
1F
100
AcDbEntity
  8
0
100
AcDbLine
 10
85.16361207972301
 20
6.957105293417589
 30
0.0
 11
85.16693074870317
 21
7.058480143724301
 31
0.0
  0
LINE
  5
225
330
1F
100
AcDbEntity
  8
0
100
AcDbLine
 10
85.15367028383254
 20
6.856164545783242
 30
0.0
 11
85.16361207972301
 21
6.957105293417589
 31
0.0
  0
LINE
  5
226
330
1F
100
AcDbEntity
  8
0
100
AcDbLine
 10
85.13714793332817
 20
6.756090144599312
 30
0.0
 11
85.15367028383254
 21
6.856164545783242
 31
0.0
  0
LINE
  5
227
330
1F
100
AcDbEntity
  8
0
100
AcDbLine
 10
85.11411577945121
 20
6.657310623815396
 30
0.0
 11
85.13714793332817
 21
6.756090144599312
 31
0.0
  0
LINE
  5
228
330
1F
100
AcDbEntity
  8
0
100
AcDbLine
 10
85.0846724494206
 20
6.560248972504417
 30
0.0
 11
85.11411577945121
 21
6.657310623815396
 31
0.0
  0
LINE
  5
229
330
1F
100
AcDbEntity
  8
0
100
AcDbLine
 10
85.04894402409563
 20
6.465320823558421
 30
0.0
 11
85.0846724494206
 21
6.560248972504417
 31
0.0
  0
LINE
  5
22A
330
1F
100
AcDbEntity
  8
0
100
AcDbLine
 10
85.00708349807883
 20
6.372932673884867
 30
0.0
 11
85.04894402409563
 21
6.465320823558421
 31
0.0
  0
LINE
  5
22B
330
1F
100
AcDbEntity
  8
0
100
AcDbLine
 10
84.95927012456902
 20
6.28348014372432
 30
0.0
 11
85.00708349807883
 21
6.372932673884867
 31
0.0
  0
LINE
  5
22C
330
1F
100
AcDbEntity
  8
0
100
AcDbLine
 10
84.90570864777212
 20
6.197346282543917
 30
0.0
 11
84.95927012456902
 21
6.28348014372432
 31
0.0
  0
LINE
  5
22D
330
1F
100
AcDbEntity
  8
0
100
AcDbLine
 10
84.84662842615458
 20
6.114899928760803
 30
0.0
 11
84.90570864777212
 21
6.197346282543917
 31
0.0
  0
LINE
  5
22E
330
1F
100
AcDbEntity
  8
0
100
AcDbLine
 10
84.78228245029558
 20
6.036494130319213
 30
0.0
 11
84.84662842615458
 21
6.114899928760803
 31
0.0
  0
LINE
  5
22F
330
1F
100
AcDbEntity
  8
0
100
AcDbLine
 10
84.71294625954232
 20
5.962464632885165
 30
0.0
 11
84.78228245029558
 21
6.036494130319213
 31
0.0
  0
LINE
  5
230
330
1F
100
AcDbEntity
  8
0
100
AcDbLine
 10
84.63891676210828
 20
5.893128442131904
 30
0.0
 11
84.71294625954232
 21
5.962464632885165
 31
0.0
  0
LINE
  5
231
330
1F
100
AcDbEntity
  8
0
100
AcDbLine
 10
-74.53795109851218
 20
-2.498203265135336
 30
0.0
 11
-74.47887087689465
 21
-2.415756911352199
 31
0.0
  0
LINE
  5
232
330
1F
100
AcDbEntity
  8
0
100
AcDbLine
 10
-74.60229707437118
 20
-2.576609063576927
 30
0.0
 11
-74.53795109851218
 21
-2.498203265135336
 31
0.0
  0
LINE
  5
233
330
1F
100
AcDbEntity
  8
0
100
AcDbLine
 10
-74.67163326512444
 20
-2.650638561010962
 30
0.0
 11
-74.60229707437118
 21
-2.576609063576927
 31
0.0
  0
LINE
  5
234
330
1F
100
AcDbEntity
  8
0
100
AcDbLine
 10
-74.74566276255848
 20
-2.719974751764223
 30
0.0
 11
-74.67163326512444
 21
-2.650638561010962
 31
0.0
  0
LINE
  5
235
330
1F
100
AcDbEntity
  8
0
100
AcDbLine
 10
-74.82406856100008
 20
-2.784320727623231
 30
0.0
 11
-74.74566276255848
 21
-2.719974751764223
 31
0.0
  0
LINE
  5
236
330
1F
100
AcDbEntity
  8
0
100
AcDbLine
 10
-74.90651491478322
 20
-2.843400949240759
 30
0.0
 11
-74.82406856100008
 21
-2.784320727623231
 31
0.0
  0
LINE
  5
237
330
1F
100
AcDbEntity
  8
0
100
AcDbLine
 10
-74.99264877596359
 20
-2.896962426037694
 30
0.0
 11
-74.90651491478322
 21
-2.843400949240759
 31
0.0
  0
LINE
  5
238
330
1F
100
AcDbEntity
  8
0
100
AcDbLine
 10
-75.08210130612413
 20
-2.944775799547482
 30
0.0
 11
-74.99264877596359
 21
-2.896962426037694
 31
0.0
  0
LINE
  5
239
330
1F
100
AcDbEntity
  8
0
100
AcDbLine
 10
-75.1744894557977
 20
-2.986636325564312
 30
0.0
 11
-75.08210130612413
 21
-2.944775799547482
 31
0.0
  0
LINE
  5
23A
330
1F
100
AcDbEntity
  8
0
100
AcDbLine
 10
-75.26941760474368
 20
-3.022364750889224
 30
0.0
 11
-75.1744894557977
 21
-2.986636325564312
 31
0.0
  0
LINE
  5
23B
330
1F
100
AcDbEntity
  8
0
100
AcDbLine
 10
-75.36647925605467
 20
-3.051808080919868
 30
0.0
 11
-75.26941760474368
 21
-3.022364750889224
 31
0.0
  0
LINE
  5
23C
330
1F
100
AcDbEntity
  8
0
100
AcDbLine
 10
-75.46525877683858
 20
-3.074840234796822
 30
0.0
 11
-75.36647925605467
 21
-3.051808080919868
 31
0.0
  0
LINE
  5
23D
330
1F
100
AcDbEntity
  8
0
100
AcDbLine
 10
-75.5653331780225
 20
-3.091362585301216
 30
0.0
 11
-75.46525877683858
 21
-3.074840234796822
 31
0.0
  0
LINE
  5
23E
330
1F
100
AcDbEntity
  8
0
100
AcDbLine
 10
-75.66627392565685
 20
-3.101304381191645
 30
0.0
 11
-75.5653331780225
 21
-3.091362585301216
 31
0.0
  0
LINE
  5
23F
330
1F
100
AcDbEntity
  8
0
100
AcDbLine
 10
-75.76764877596358
 20
-3.104623050171813
 30
0.0
 11
-75.66627392565685
 21
-3.101304381191645
 31
0.0
  0
LINE
  5
240
330
1F
100
AcDbEntity
  8
0
100
AcDbLine
 10
-75.8690236262703
 20
-3.101304381191645
 30
0.0
 11
-75.76764877596358
 21
-3.104623050171813
 31
0.0
  0
LINE
  5
241
330
1F
100
AcDbEntity
  8
0
100
AcDbLine
 10
-75.96996437390466
 20
-3.091362585301216
 30
0.0
 11
-75.8690236262703
 21
-3.101304381191645
 31
0.0
  0
LINE
  5
242
330
1F
100
AcDbEntity
  8
0
100
AcDbLine
 10
-76.07003877508858
 20
-3.074840234796822
 30
0.0
 11
-75.96996437390466
 21
-3.091362585301216
 31
0.0
  0
LINE
  5
243
330
1F
100
AcDbEntity
  8
0
100
AcDbLine
 10
-76.16881829587248
 20
-3.051808080919868
 30
0.0
 11
-76.07003877508858
 21
-3.074840234796822
 31
0.0
  0
LINE
  5
244
330
1F
100
AcDbEntity
  8
0
100
AcDbLine
 10
-76.26587994718348
 20
-3.022364750889224
 30
0.0
 11
-76.16881829587248
 21
-3.051808080919868
 31
0.0
  0
LINE
  5
245
330
1F
100
AcDbEntity
  8
0
100
AcDbLine
 10
-76.36080809612946
 20
-2.986636325564312
 30
0.0
 11
-76.26587994718348
 21
-3.022364750889224
 31
0.0
  0
LINE
  5
246
330
1F
100
AcDbEntity
  8
0
100
AcDbLine
 10
-76.45319624580303
 20
-2.944775799547482
 30
0.0
 11
-76.36080809612946
 21
-2.986636325564312
 31
0.0
  0
LINE
  5
247
330
1F
100
AcDbEntity
  8
0
100
AcDbLine
 10
-76.54264877596357
 20
-2.896962426037694
 30
0.0
 11
-76.45319624580303
 21
-2.944775799547482
 31
0.0
  0
LINE
  5
248
330
1F
100
AcDbEntity
  8
0
100
AcDbLine
 10
-76.62878263714396
 20
-2.843400949240759
 30
0.0
 11
-76.54264877596357
 21
-2.896962426037694
 31
0.0
  0
LINE
  5
249
330
1F
100
AcDbEntity
  8
0
100
AcDbLine
 10
-76.7112289909271
 20
-2.784320727623231
 30
0.0
 11
-76.62878263714396
 21
-2.843400949240759
 31
0.0
  0
LINE
  5
24A
330
1F
100
AcDbEntity
  8
0
100
AcDbLine
 10
-76.78963478936868
 20
-2.719974751764235
 30
0.0
 11
-76.7112289909271
 21
-2.784320727623231
 31
0.0
  0
LINE
  5
24B
330
1F
100
AcDbEntity
  8
0
100
AcDbLine
 10
-76.86366428680272
 20
-2.650638561010962
 30
0.0
 11
-76.78963478936868
 21
-2.719974751764235
 31
0.0
  0
LINE
  5
24C
330
1F
100
AcDbEntity
  8
0
100
AcDbLine
 10
-76.93300047755598
 20
-2.576609063576927
 30
0.0
 11
-76.86366428680272
 21
-2.650638561010962
 31
0.0
  0
LINE
  5
24D
330
1F
100
AcDbEntity
  8
0
100
AcDbLine
 10
-76.99734645341498
 20
-2.498203265135336
 30
0.0
 11
-76.93300047755598
 21
-2.576609063576927
 31
0.0
  0
LINE
  5
24E
330
1F
100
AcDbEntity
  8
0
100
AcDbLine
 10
-77.0564266750325
 20
-2.415756911352199
 30
0.0
 11
-76.99734645341498
 21
-2.498203265135336
 31
0.0
  0
LINE
  5
24F
330
1F
100
AcDbEntity
  8
0
100
AcDbLine
 10
-77.19966205135606
 20
-0.9614637300059575
 30
0.0
 11
-77.23539047668096
 21
-1.056391878951943
 31
0.0
  0
LINE
  5
250
330
1F
100
AcDbEntity
  8
0
100
AcDbLine
 10
-77.15780152533922
 20
-0.8690755803323924
 30
0.0
 11
-77.19966205135606
 21
-0.9614637300059575
 31
0.0
  0
LINE
  5
251
330
1F
100
AcDbEntity
  8
0
100
AcDbLine
 10
-77.10998815182944
 20
-0.779623050171845
 30
0.0
 11
-77.15780152533922
 21
-0.8690755803323924
 31
0.0
  0
LINE
  5
252
330
1F
100
AcDbEntity
  8
0
100
AcDbLine
 10
-77.0564266750325
 20
-0.6934891889914653
 30
0.0
 11
-77.10998815182944
 21
-0.779623050171845
 31
0.0
  0
LINE
  5
253
330
1F
100
AcDbEntity
  8
0
100
AcDbLine
 10
-76.99734645341498
 20
-0.6110428352083288
 30
0.0
 11
-77.0564266750325
 21
-0.6934891889914653
 31
0.0
  0
LINE
  5
254
330
1F
100
AcDbEntity
  8
0
100
AcDbLine
 10
-76.93300047755598
 20
-0.5326370367667491
 30
0.0
 11
-76.99734645341498
 21
-0.6110428352083288
 31
0.0
  0
LINE
  5
255
330
1F
100
AcDbEntity
  8
0
100
AcDbLine
 10
-76.8636642868027
 20
-0.4586075393327023
 30
0.0
 11
-76.93300047755598
 21
-0.5326370367667491
 31
0.0
  0
LINE
  5
256
330
1F
100
AcDbEntity
  8
0
100
AcDbLine
 10
-76.78963478936868
 20
-0.3892713485794411
 30
0.0
 11
-76.8636642868027
 21
-0.4586075393327023
 31
0.0
  0
LINE
  5
257
330
1F
100
AcDbEntity
  8
0
100
AcDbLine
 10
-76.71122899092708
 20
-0.3249253727204445
 30
0.0
 11
-76.78963478936868
 21
-0.3892713485794411
 31
0.0
  0
LINE
  5
258
330
1F
100
AcDbEntity
  8
0
100
AcDbLine
 10
-76.62878263714396
 20
-0.2658451511029164
 30
0.0
 11
-76.71122899092708
 21
-0.3249253727204445
 31
0.0
  0
LINE
  5
259
330
1F
100
AcDbEntity
  8
0
100
AcDbLine
 10
-76.54264877596356
 20
-0.2122836743059817
 30
0.0
 11
-76.62878263714396
 21
-0.2658451511029164
 31
0.0
  0
LINE
  5
25A
330
1F
100
AcDbEntity
  8
0
100
AcDbLine
 10
-76.45319624580301
 20
-0.1644703007961935
 30
0.0
 11
-76.54264877596356
 21
-0.2122836743059817
 31
0.0
  0
LINE
  5
25B
330
1F
100
AcDbEntity
  8
0
100
AcDbLine
 10
-76.36080809612946
 20
-0.1226097747793638
 30
0.0
 11
-76.45319624580301
 21
-0.1644703007961935
 31
0.0
  0
LINE
  5
25C
330
1F
100
AcDbEntity
  8
0
100
AcDbLine
 10
-76.26587994718348
 20
-0.0868813494544518
 30
0.0
 11
-76.36080809612946
 21
-0.1226097747793638
 31
0.0
  0
LINE
  5
25D
330
1F
100
AcDbEntity
  8
0
100
AcDbLine
 10
-76.16881829587247
 20
-0.0574380194238084
 30
0.0
 11
-76.26587994718348
 21
-0.0868813494544518
 31
0.0
  0
LINE
  5
25E
330
1F
100
AcDbEntity
  8
0
100
AcDbLine
 10
-76.07003877508858
 20
-0.0344058655468539
 30
0.0
 11
-76.16881829587247
 21
-0.0574380194238084
 31
0.0
  0
LINE
  5
25F
330
1F
100
AcDbEntity
  8
0
100
AcDbLine
 10
-75.96996437390466
 20
-0.0178835150424597
 30
0.0
 11
-76.07003877508858
 21
-0.0344058655468539
 31
0.0
  0
LINE
  5
260
330
1F
100
AcDbEntity
  8
0
100
AcDbLine
 10
-75.8690236262703
 20
-0.0079417191520311
 30
0.0
 11
-75.96996437390466
 21
-0.0178835150424597
 31
0.0
  0
LINE
  5
261
330
1F
100
AcDbEntity
  8
0
100
AcDbLine
 10
-75.76764877596358
 20
-0.0046230501718633
 30
0.0
 11
-75.8690236262703
 21
-0.0079417191520311
 31
0.0
  0
LINE
  5
262
330
1F
100
AcDbEntity
  8
0
100
AcDbLine
 10
-75.66627392565685
 20
-0.0079417191520311
 30
0.0
 11
-75.76764877596358
 21
-0.0046230501718633
 31
0.0
  0
LINE
  5
263
330
1F
100
AcDbEntity
  8
0
100
AcDbLine
 10
-75.5653331780225
 20
-0.0178835150424597
 30
0.0
 11
-75.66627392565685
 21
-0.0079417191520311
 31
0.0
  0
LINE
  5
264
330
1F
100
AcDbEntity
  8
0
100
AcDbLine
 10
-75.4652587768386
 20
-0.0344058655468539
 30
0.0
 11
-75.5653331780225
 21
-0.0178835150424597
 31
0.0
  0
LINE
  5
265
330
1F
100
AcDbEntity
  8
0
100
AcDbLine
 10
-75.36647925605467
 20
-0.0574380194238084
 30
0.0
 11
-75.4652587768386
 21
-0.0344058655468539
 31
0.0
  0
LINE
  5
266
330
1F
100
AcDbEntity
  8
0
100
AcDbLine
 10
-75.26941760474368
 20
-0.0868813494544518
 30
0.0
 11
-75.36647925605467
 21
-0.0574380194238084
 31
0.0
  0
LINE
  5
267
330
1F
100
AcDbEntity
  8
0
100
AcDbLine
 10
-75.1744894557977
 20
-0.1226097747793638
 30
0.0
 11
-75.26941760474368
 21
-0.0868813494544518
 31
0.0
  0
LINE
  5
268
330
1F
100
AcDbEntity
  8
0
100
AcDbLine
 10
-75.08210130612413
 20
-0.1644703007961935
 30
0.0
 11
-75.1744894557977
 21
-0.1226097747793638
 31
0.0
  0
LINE
  5
269
330
1F
100
AcDbEntity
  8
0
100
AcDbLine
 10
-74.9926487759636
 20
-0.2122836743059817
 30
0.0
 11
-75.08210130612413
 21
-0.1644703007961935
 31
0.0
  0
LINE
  5
26A
330
1F
100
AcDbEntity
  8
0
100
AcDbLine
 10
-74.90651491478322
 20
-0.2658451511029164
 30
0.0
 11
-74.9926487759636
 21
-0.2122836743059817
 31
0.0
  0
LINE
  5
26B
330
1F
100
AcDbEntity
  8
0
100
AcDbLine
 10
-74.82406856100009
 20
-0.3249253727204445
 30
0.0
 11
-74.90651491478322
 21
-0.2658451511029164
 31
0.0
  0
LINE
  5
26C
330
1F
100
AcDbEntity
  8
0
100
AcDbLine
 10
-74.7456627625585
 20
-0.3892713485794411
 30
0.0
 11
-74.82406856100009
 21
-0.3249253727204445
 31
0.0
  0
LINE
  5
26D
330
1F
100
AcDbEntity
  8
0
100
AcDbLine
 10
-74.67163326512444
 20
-0.4586075393327023
 30
0.0
 11
-74.7456627625585
 21
-0.3892713485794411
 31
0.0
  0
LINE
  5
26E
330
1F
100
AcDbEntity
  8
0
100
AcDbLine
 10
-74.60229707437118
 20
-0.5326370367667491
 30
0.0
 11
-74.67163326512444
 21
-0.4586075393327023
 31
0.0
  0
LINE
  5
26F
330
1F
100
AcDbEntity
  8
0
100
AcDbLine
 10
-74.5379510985122
 20
-0.6110428352083401
 30
0.0
 11
-74.60229707437118
 21
-0.5326370367667491
 31
0.0
  0
LINE
  5
270
330
1F
100
AcDbEntity
  8
0
100
AcDbLine
 10
-74.47887087689466
 20
-0.6934891889914653
 30
0.0
 11
-74.5379510985122
 21
-0.6110428352083401
 31
0.0
  0
LINE
  5
271
330
1F
100
AcDbEntity
  8
0
100
AcDbLine
 10
-74.42530940009773
 20
-0.7796230501718563
 30
0.0
 11
-74.47887087689466
 21
-0.6934891889914653
 31
0.0
  0
LINE
  5
272
330
1F
100
AcDbEntity
  8
0
100
AcDbLine
 10
-74.37749602658793
 20
-0.8690755803323924
 30
0.0
 11
-74.42530940009773
 21
-0.7796230501718563
 31
0.0
  0
LINE
  5
273
330
1F
100
AcDbEntity
  8
0
100
AcDbLine
 10
-74.3356355005711
 20
-0.9614637300059575
 30
0.0
 11
-74.37749602658793
 21
-0.8690755803323924
 31
0.0
  0
LINE
  5
274
330
1F
100
AcDbEntity
  8
0
100
AcDbLine
 10
-74.2999070752462
 20
-1.056391878951943
 30
0.0
 11
-74.3356355005711
 21
-0.9614637300059575
 31
0.0
  0
LINE
  5
275
330
1F
100
AcDbEntity
  8
0
100
AcDbLine
 10
-74.27046374521555
 20
-1.153453530262933
 30
0.0
 11
-74.2999070752462
 21
-1.056391878951943
 31
0.0
  0
LINE
  5
276
330
1F
100
AcDbEntity
  8
0
100
AcDbLine
 10
-74.2474315913386
 20
-1.252233051046849
 30
0.0
 11
-74.27046374521555
 21
-1.153453530262933
 31
0.0
  0
LINE
  5
277
330
1F
100
AcDbEntity
  8
0
100
AcDbLine
 10
-74.23090924083421
 20
-1.352307452230757
 30
0.0
 11
-74.2474315913386
 21
-1.252233051046849
 31
0.0
  0
LINE
  5
278
330
1F
100
AcDbEntity
  8
0
100
AcDbLine
 10
-74.22096744494378
 20
-1.453248199865115
 30
0.0
 11
-74.23090924083421
 21
-1.352307452230757
 31
0.0
  0
LINE
  5
279
330
1F
100
AcDbEntity
  8
0
100
AcDbLine
 10
-74.21764877596361
 20
-1.554623050171838
 30
0.0
 11
-74.22096744494378
 21
-1.453248199865115
 31
0.0
  0
LINE
  5
27A
330
1F
100
AcDbEntity
  8
0
100
AcDbLine
 10
-74.22096744494378
 20
-1.655997900478538
 30
0.0
 11
-74.21764877596361
 21
-1.554623050171838
 31
0.0
  0
LINE
  5
27B
330
1F
100
AcDbEntity
  8
0
100
AcDbLine
 10
-74.23090924083421
 20
-1.756938648112896
 30
0.0
 11
-74.22096744494378
 21
-1.655997900478538
 31
0.0
  0
LINE
  5
27C
330
1F
100
AcDbEntity
  8
0
100
AcDbLine
 10
-74.2474315913386
 20
-1.857013049296816
 30
0.0
 11
-74.23090924083421
 21
-1.756938648112896
 31
0.0
  0
LINE
  5
27D
330
1F
100
AcDbEntity
  8
0
100
AcDbLine
 10
-74.27046374521555
 20
-1.955792570080732
 30
0.0
 11
-74.2474315913386
 21
-1.857013049296816
 31
0.0
  0
LINE
  5
27E
330
1F
100
AcDbEntity
  8
0
100
AcDbLine
 10
-74.29990707524618
 20
-2.052854221391722
 30
0.0
 11
-74.27046374521555
 21
-1.955792570080732
 31
0.0
  0
LINE
  5
27F
330
1F
100
AcDbEntity
  8
0
100
AcDbLine
 10
-74.3356355005711
 20
-2.147782370337707
 30
0.0
 11
-74.29990707524618
 21
-2.052854221391722
 31
0.0
  0
LINE
  5
280
330
1F
100
AcDbEntity
  8
0
100
AcDbLine
 10
-74.37749602658793
 20
-2.240170520011272
 30
0.0
 11
-74.3356355005711
 21
-2.147782370337707
 31
0.0
  0
LINE
  5
281
330
1F
100
AcDbEntity
  8
0
100
AcDbLine
 10
-74.42530940009772
 20
-2.32962305017182
 30
0.0
 11
-74.37749602658793
 21
-2.240170520011272
 31
0.0
  0
LINE
  5
282
330
1F
100
AcDbEntity
  8
0
100
AcDbLine
 10
-74.47887087689465
 20
-2.415756911352199
 30
0.0
 11
-74.42530940009772
 21
-2.32962305017182
 31
0.0
  0
LINE
  5
283
330
1F
100
AcDbEntity
  8
0
100
AcDbLine
 10
-82.52091523786432
 20
5.497292005237963
 30
0.0
 11
-82.45157904711104
 21
5.571321502672009
 31
0.0
  0
LINE
  5
284
330
1F
100
AcDbEntity
  8
0
100
AcDbLine
 10
-82.59494473529834
 20
5.427955814484702
 30
0.0
 11
-82.52091523786432
 21
5.497292005237963
 31
0.0
  0
LINE
  5
285
330
1F
100
AcDbEntity
  8
0
100
AcDbLine
 10
-82.67335053373994
 20
5.363609838625682
 30
0.0
 11
-82.59494473529834
 21
5.427955814484702
 31
0.0
  0
LINE
  5
286
330
1F
100
AcDbEntity
  8
0
100
AcDbLine
 10
-82.75579688752308
 20
5.304529617008165
 30
0.0
 11
-82.67335053373994
 21
5.363609838625682
 31
0.0
  0
LINE
  5
287
330
1F
100
AcDbEntity
  8
0
100
AcDbLine
 10
-82.84193074870345
 20
5.25096814021122
 30
0.0
 11
-82.75579688752308
 21
5.304529617008165
 31
0.0
  0
LINE
  5
288
330
1F
100
AcDbEntity
  8
0
100
AcDbLine
 10
-82.931383278864
 20
5.203154766701431
 30
0.0
 11
-82.84193074870345
 21
5.25096814021122
 31
0.0
  0
LINE
  5
289
330
1F
100
AcDbEntity
  8
0
100
AcDbLine
 10
-83.02377142853757
 20
5.161294240684602
 30
0.0
 11
-82.931383278864
 21
5.203154766701431
 31
0.0
  0
LINE
  5
28A
330
1F
100
AcDbEntity
  8
0
100
AcDbLine
 10
-83.11869957748355
 20
5.12556581535969
 30
0.0
 11
-83.02377142853757
 21
5.161294240684602
 31
0.0
  0
LINE
  5
28B
330
1F
100
AcDbEntity
  8
0
100
AcDbLine
 10
-83.21576122879455
 20
5.096122485329035
 30
0.0
 11
-83.11869957748355
 21
5.12556581535969
 31
0.0
  0
LINE
  5
28C
330
1F
100
AcDbEntity
  8
0
100
AcDbLine
 10
-83.31454074957846
 20
5.073090331452103
 30
0.0
 11
-83.21576122879455
 21
5.096122485329035
 31
0.0
  0
LINE
  5
28D
330
1F
100
AcDbEntity
  8
0
100
AcDbLine
 10
-83.41461515076237
 20
5.056567980947698
 30
0.0
 11
-83.31454074957846
 21
5.073090331452103
 31
0.0
  0
LINE
  5
28E
330
1F
100
AcDbEntity
  8
0
100
AcDbLine
 10
-83.51555589839673
 20
5.046626185057257
 30
0.0
 11
-83.41461515076237
 21
5.056567980947698
 31
0.0
  0
LINE
  5
28F
330
1F
100
AcDbEntity
  8
0
100
AcDbLine
 10
-83.61693074870345
 20
5.043307516077112
 30
0.0
 11
-83.51555589839673
 21
5.046626185057257
 31
0.0
  0
LINE
  5
290
330
1F
100
AcDbEntity
  8
0
100
AcDbLine
 10
-83.71830559901018
 20
5.046626185057257
 30
0.0
 11
-83.61693074870345
 21
5.043307516077112
 31
0.0
  0
LINE
  5
291
330
1F
100
AcDbEntity
  8
0
100
AcDbLine
 10
-83.81924634664453
 20
5.056567980947698
 30
0.0
 11
-83.71830559901018
 21
5.046626185057257
 31
0.0
  0
LINE
  5
292
330
1F
100
AcDbEntity
  8
0
100
AcDbLine
 10
-83.91932074782845
 20
5.073090331452103
 30
0.0
 11
-83.81924634664453
 21
5.056567980947698
 31
0.0
  0
LINE
  5
293
330
1F
100
AcDbEntity
  8
0
100
AcDbLine
 10
-84.01810026861236
 20
5.096122485329035
 30
0.0
 11
-83.91932074782845
 21
5.073090331452103
 31
0.0
  0
LINE
  5
294
330
1F
100
AcDbEntity
  8
0
100
AcDbLine
 10
-84.11516191992337
 20
5.12556581535969
 30
0.0
 11
-84.01810026861236
 21
5.096122485329035
 31
0.0
  0
LINE
  5
295
330
1F
100
AcDbEntity
  8
0
100
AcDbLine
 10
-84.21009006886935
 20
5.161294240684602
 30
0.0
 11
-84.11516191992337
 21
5.12556581535969
 31
0.0
  0
LINE
  5
296
330
1F
100
AcDbEntity
  8
0
100
AcDbLine
 10
-84.30247821854292
 20
5.203154766701431
 30
0.0
 11
-84.21009006886935
 21
5.161294240684602
 31
0.0
  0
LINE
  5
297
330
1F
100
AcDbEntity
  8
0
100
AcDbLine
 10
-84.39193074870346
 20
5.25096814021122
 30
0.0
 11
-84.30247821854292
 21
5.203154766701431
 31
0.0
  0
LINE
  5
298
330
1F
100
AcDbEntity
  8
0
100
AcDbLine
 10
-84.47806460988384
 20
5.304529617008165
 30
0.0
 11
-84.39193074870346
 21
5.25096814021122
 31
0.0
  0
LINE
  5
299
330
1F
100
AcDbEntity
  8
0
100
AcDbLine
 10
-84.56051096366697
 20
5.363609838625682
 30
0.0
 11
-84.47806460988384
 21
5.304529617008165
 31
0.0
  0
LINE
  5
29A
330
1F
100
AcDbEntity
  8
0
100
AcDbLine
 10
-84.63891676210856
 20
5.427955814484679
 30
0.0
 11
-84.56051096366697
 21
5.363609838625682
 31
0.0
  0
LINE
  5
29B
330
1F
100
AcDbEntity
  8
0
100
AcDbLine
 10
-84.7129462595426
 20
5.497292005237963
 30
0.0
 11
-84.63891676210856
 21
5.427955814484679
 31
0.0
  0
LINE
  5
29C
330
1F
100
AcDbEntity
  8
0
100
AcDbLine
 10
-84.78228245029588
 20
5.571321502671987
 30
0.0
 11
-84.7129462595426
 21
5.497292005237963
 31
0.0
  0
LINE
  5
29D
330
1F
100
AcDbEntity
  8
0
100
AcDbLine
 10
-84.84662842615488
 20
5.649727301113578
 30
0.0
 11
-84.78228245029588
 21
5.571321502671987
 31
0.0
  0
LINE
  5
29E
330
1F
100
AcDbEntity
  8
0
100
AcDbLine
 10
-84.9057086477724
 20
5.732173654896714
 30
0.0
 11
-84.84662842615488
 21
5.649727301113578
 31
0.0
  0
LINE
  5
29F
330
1F
100
AcDbEntity
  8
0
100
AcDbLine
 10
-84.95927012456933
 20
5.818307516077094
 30
0.0
 11
-84.9057086477724
 21
5.732173654896714
 31
0.0
  0
LINE
  5
2A0
330
1F
100
AcDbEntity
  8
0
100
AcDbLine
 10
-85.00708349807913
 20
5.907760046237642
 30
0.0
 11
-84.95927012456933
 21
5.818307516077094
 31
0.0
  0
LINE
  5
2A1
330
1F
100
AcDbEntity
  8
0
100
AcDbLine
 10
-85.04894402409596
 20
6.000148195911218
 30
0.0
 11
-85.00708349807913
 21
5.907760046237642
 31
0.0
  0
LINE
  5
2A2
330
1F
100
AcDbEntity
  8
0
100
AcDbLine
 10
-85.08467244942086
 20
6.095076344857191
 30
0.0
 11
-85.04894402409596
 21
6.000148195911218
 31
0.0
  0
LINE
  5
2A3
330
1F
100
AcDbEntity
  8
0
100
AcDbLine
 10
-85.11411577945151
 20
6.192137996168193
 30
0.0
 11
-85.08467244942086
 21
6.095076344857191
 31
0.0
  0
LINE
  5
2A4
330
1F
100
AcDbEntity
  8
0
100
AcDbLine
 10
-85.13714793332846
 20
6.290917516952109
 30
0.0
 11
-85.11411577945151
 21
6.192137996168193
 31
0.0
  0
LINE
  5
2A5
330
1F
100
AcDbEntity
  8
0
100
AcDbLine
 10
-85.15367028383285
 20
6.390991918136018
 30
0.0
 11
-85.13714793332846
 21
6.290917516952109
 31
0.0
  0
LINE
  5
2A6
330
1F
100
AcDbEntity
  8
0
100
AcDbLine
 10
-85.16361207972328
 20
6.491932665770387
 30
0.0
 11
-85.15367028383285
 21
6.390991918136018
 31
0.0
  0
LINE
  5
2A7
330
1F
100
AcDbEntity
  8
0
100
AcDbLine
 10
-85.16693074870345
 20
6.593307516077098
 30
0.0
 11
-85.16361207972328
 21
6.491932665770387
 31
0.0
  0
LINE
  5
2A8
330
1F
100
AcDbEntity
  8
0
100
AcDbLine
 10
-85.16361207972328
 20
6.694682366383832
 30
0.0
 11
-85.16693074870345
 21
6.593307516077098
 31
0.0
  0
LINE
  5
2A9
330
1F
100
AcDbEntity
  8
0
100
AcDbLine
 10
-85.15367028383285
 20
6.795623114018179
 30
0.0
 11
-85.16361207972328
 21
6.694682366383832
 31
0.0
  0
LINE
  5
2AA
330
1F
100
AcDbEntity
  8
0
100
AcDbLine
 10
-85.13714793332846
 20
6.89569751520211
 30
0.0
 11
-85.15367028383285
 21
6.795623114018179
 31
0.0
  0
LINE
  5
2AB
330
1F
100
AcDbEntity
  8
0
100
AcDbLine
 10
-85.11411577945151
 20
6.994477035986003
 30
0.0
 11
-85.13714793332846
 21
6.89569751520211
 31
0.0
  0
LINE
  5
2AC
330
1F
100
AcDbEntity
  8
0
100
AcDbLine
 10
-85.08467244942086
 20
7.091538687297005
 30
0.0
 11
-85.11411577945151
 21
6.994477035986003
 31
0.0
  0
LINE
  5
2AD
330
1F
100
AcDbEntity
  8
0
100
AcDbLine
 10
-85.04894402409595
 20
7.186466836242978
 30
0.0
 11
-85.08467244942086
 21
7.091538687297005
 31
0.0
  0
LINE
  5
2AE
330
1F
100
AcDbEntity
  8
0
100
AcDbLine
 10
-85.00708349807913
 20
7.278854985916555
 30
0.0
 11
-85.04894402409595
 21
7.186466836242978
 31
0.0
  0
LINE
  5
2AF
330
1F
100
AcDbEntity
  8
0
100
AcDbLine
 10
-84.95927012456933
 20
7.368307516077103
 30
0.0
 11
-85.00708349807913
 21
7.278854985916555
 31
0.0
  0
LINE
  5
2B0
330
1F
100
AcDbEntity
  8
0
100
AcDbLine
 10
-84.9057086477724
 20
7.454441377257482
 30
0.0
 11
-84.95927012456933
 21
7.368307516077103
 31
0.0
  0
LINE
  5
2B1
330
1F
100
AcDbEntity
  8
0
100
AcDbLine
 10
-84.84662842615488
 20
7.536887731040618
 30
0.0
 11
-84.9057086477724
 21
7.454441377257482
 31
0.0
  0
LINE
  5
2B2
330
1F
100
AcDbEntity
  8
0
100
AcDbLine
 10
-84.78228245029587
 20
7.61529352948221
 30
0.0
 11
-84.84662842615488
 21
7.536887731040618
 31
0.0
  0
LINE
  5
2B3
330
1F
100
AcDbEntity
  8
0
100
AcDbLine
 10
-84.7129462595426
 20
7.689323026916257
 30
0.0
 11
-84.78228245029587
 21
7.61529352948221
 31
0.0
  0
LINE
  5
2B4
330
1F
100
AcDbEntity
  8
0
100
AcDbLine
 10
-84.63891676210855
 20
7.758659217669518
 30
0.0
 11
-84.7129462595426
 21
7.689323026916257
 31
0.0
  0
LINE
  5
2B5
330
1F
100
AcDbEntity
  8
0
100
AcDbLine
 10
-84.56051096366697
 20
7.823005193528514
 30
0.0
 11
-84.63891676210855
 21
7.758659217669518
 31
0.0
  0
LINE
  5
2B6
330
1F
100
AcDbEntity
  8
0
100
AcDbLine
 10
-84.47806460988384
 20
7.882085415146031
 30
0.0
 11
-84.56051096366697
 21
7.823005193528514
 31
0.0
  0
LINE
  5
2B7
330
1F
100
AcDbEntity
  8
0
100
AcDbLine
 10
-84.39193074870344
 20
7.935646891942977
 30
0.0
 11
-84.47806460988384
 21
7.882085415146031
 31
0.0
  0
LINE
  5
2B8
330
1F
100
AcDbEntity
  8
0
100
AcDbLine
 10
-84.3024782185429
 20
7.983460265452766
 30
0.0
 11
-84.39193074870344
 21
7.935646891942977
 31
0.0
  0
LINE
  5
2B9
330
1F
100
AcDbEntity
  8
0
100
AcDbLine
 10
-84.21009006886935
 20
8.025320791469595
 30
0.0
 11
-84.3024782185429
 21
7.983460265452766
 31
0.0
  0
LINE
  5
2BA
330
1F
100
AcDbEntity
  8
0
100
AcDbLine
 10
-84.11516191992335
 20
8.061049216794506
 30
0.0
 11
-84.21009006886935
 21
8.025320791469595
 31
0.0
  0
LINE
  5
2BB
330
1F
100
AcDbEntity
  8
0
100
AcDbLine
 10
-84.01810026861236
 20
8.090492546825162
 30
0.0
 11
-84.11516191992335
 21
8.061049216794506
 31
0.0
  0
LINE
  5
2BC
330
1F
100
AcDbEntity
  8
0
100
AcDbLine
 10
-83.91932074782845
 20
8.113524700702094
 30
0.0
 11
-84.01810026861236
 21
8.090492546825162
 31
0.0
  0
LINE
  5
2BD
330
1F
100
AcDbEntity
  8
0
100
AcDbLine
 10
-83.81924634664453
 20
8.1300470512065
 30
0.0
 11
-83.91932074782845
 21
8.113524700702094
 31
0.0
  0
LINE
  5
2BE
330
1F
100
AcDbEntity
  8
0
100
AcDbLine
 10
-83.71830559901018
 20
8.139988847096939
 30
0.0
 11
-83.81924634664453
 21
8.1300470512065
 31
0.0
  0
LINE
  5
2BF
330
1F
100
AcDbEntity
  8
0
100
AcDbLine
 10
-83.61693074870345
 20
8.143307516077083
 30
0.0
 11
-83.71830559901018
 21
8.139988847096939
 31
0.0
  0
LINE
  5
2C0
330
1F
100
AcDbEntity
  8
0
100
AcDbLine
 10
-83.51555589839673
 20
8.139988847096939
 30
0.0
 11
-83.61693074870345
 21
8.143307516077083
 31
0.0
  0
LINE
  5
2C1
330
1F
100
AcDbEntity
  8
0
100
AcDbLine
 10
-83.41461515076237
 20
8.1300470512065
 30
0.0
 11
-83.51555589839673
 21
8.139988847096939
 31
0.0
  0
LINE
  5
2C2
330
1F
100
AcDbEntity
  8
0
100
AcDbLine
 10
-83.31454074957846
 20
8.113524700702094
 30
0.0
 11
-83.41461515076237
 21
8.1300470512065
 31
0.0
  0
LINE
  5
2C3
330
1F
100
AcDbEntity
  8
0
100
AcDbLine
 10
-83.21576122879455
 20
8.090492546825162
 30
0.0
 11
-83.31454074957846
 21
8.113524700702094
 31
0.0
  0
LINE
  5
2C4
330
1F
100
AcDbEntity
  8
0
100
AcDbLine
 10
-83.11869957748357
 20
8.061049216794506
 30
0.0
 11
-83.21576122879455
 21
8.090492546825162
 31
0.0
  0
LINE
  5
2C5
330
1F
100
AcDbEntity
  8
0
100
AcDbLine
 10
-83.02377142853757
 20
8.025320791469595
 30
0.0
 11
-83.11869957748357
 21
8.061049216794506
 31
0.0
  0
LINE
  5
2C6
330
1F
100
AcDbEntity
  8
0
100
AcDbLine
 10
-82.931383278864
 20
7.983460265452766
 30
0.0
 11
-83.02377142853757
 21
8.025320791469595
 31
0.0
  0
LINE
  5
2C7
330
1F
100
AcDbEntity
  8
0
100
AcDbLine
 10
-82.84193074870346
 20
7.935646891942977
 30
0.0
 11
-82.931383278864
 21
7.983460265452766
 31
0.0
  0
LINE
  5
2C8
330
1F
100
AcDbEntity
  8
0
100
AcDbLine
 10
-82.75579688752308
 20
7.882085415146031
 30
0.0
 11
-82.84193074870346
 21
7.935646891942977
 31
0.0
  0
LINE
  5
2C9
330
1F
100
AcDbEntity
  8
0
100
AcDbLine
 10
-82.67335053373994
 20
7.823005193528514
 30
0.0
 11
-82.75579688752308
 21
7.882085415146031
 31
0.0
  0
LINE
  5
2CA
330
1F
100
AcDbEntity
  8
0
100
AcDbLine
 10
-82.59494473529836
 20
7.758659217669518
 30
0.0
 11
-82.67335053373994
 21
7.823005193528514
 31
0.0
  0
LINE
  5
2CB
330
1F
100
AcDbEntity
  8
0
100
AcDbLine
 10
-82.52091523786432
 20
7.689323026916234
 30
0.0
 11
-82.59494473529836
 21
7.758659217669518
 31
0.0
  0
LINE
  5
2CC
330
1F
100
AcDbEntity
  8
0
100
AcDbLine
 10
-82.45157904711105
 20
7.61529352948221
 30
0.0
 11
-82.52091523786432
 21
7.689323026916234
 31
0.0
  0
LINE
  5
2CD
330
1F
100
AcDbEntity
  8
0
100
AcDbLine
 10
-82.38723307125204
 20
7.536887731040618
 30
0.0
 11
-82.45157904711105
 21
7.61529352948221
 31
0.0
  0
LINE
  5
2CE
330
1F
100
AcDbEntity
  8
0
100
AcDbLine
 10
-82.3281528496345
 20
7.454441377257482
 30
0.0
 11
-82.38723307125204
 21
7.536887731040618
 31
0.0
  0
LINE
  5
2CF
330
1F
100
AcDbEntity
  8
0
100
AcDbLine
 10
-82.27459137283758
 20
7.368307516077103
 30
0.0
 11
-82.3281528496345
 21
7.454441377257482
 31
0.0
  0
LINE
  5
2D0
330
1F
100
AcDbEntity
  8
0
100
AcDbLine
 10
-82.2267779993278
 20
7.278854985916555
 30
0.0
 11
-82.27459137283758
 21
7.368307516077103
 31
0.0
  0
LINE
  5
2D1
330
1F
100
AcDbEntity
  8
0
100
AcDbLine
 10
-82.18491747331096
 20
7.186466836242978
 30
0.0
 11
-82.2267779993278
 21
7.278854985916555
 31
0.0
  0
LINE
  5
2D2
330
1F
100
AcDbEntity
  8
0
100
AcDbLine
 10
-82.14918904798604
 20
7.091538687297005
 30
0.0
 11
-82.18491747331096
 21
7.186466836242978
 31
0.0
  0
LINE
  5
2D3
330
1F
100
AcDbEntity
  8
0
100
AcDbLine
 10
-82.11974571795541
 20
6.994477035986003
 30
0.0
 11
-82.14918904798604
 21
7.091538687297005
 31
0.0
  0
LINE
  5
2D4
330
1F
100
AcDbEntity
  8
0
100
AcDbLine
 10
-82.09671356407846
 20
6.895697515202087
 30
0.0
 11
-82.11974571795541
 21
6.994477035986003
 31
0.0
  0
LINE
  5
2D5
330
1F
100
AcDbEntity
  8
0
100
AcDbLine
 10
-82.08019121357405
 20
6.795623114018179
 30
0.0
 11
-82.09671356407846
 21
6.895697515202087
 31
0.0
  0
LINE
  5
2D6
330
1F
100
AcDbEntity
  8
0
100
AcDbLine
 10
-82.07024941768363
 20
6.69468236638381
 30
0.0
 11
-82.08019121357405
 21
6.795623114018179
 31
0.0
  0
LINE
  5
2D7
330
1F
100
AcDbEntity
  8
0
100
AcDbLine
 10
-82.06693074870346
 20
6.593307516077098
 30
0.0
 11
-82.07024941768363
 21
6.69468236638381
 31
0.0
  0
LINE
  5
2D8
330
1F
100
AcDbEntity
  8
0
100
AcDbLine
 10
-82.07024941768363
 20
6.491932665770387
 30
0.0
 11
-82.06693074870346
 21
6.593307516077098
 31
0.0
  0
LINE
  5
2D9
330
1F
100
AcDbEntity
  8
0
100
AcDbLine
 10
-82.08019121357405
 20
6.39099191813604
 30
0.0
 11
-82.07024941768363
 21
6.491932665770387
 31
0.0
  0
LINE
  5
2DA
330
1F
100
AcDbEntity
  8
0
100
AcDbLine
 10
-82.09671356407846
 20
6.290917516952109
 30
0.0
 11
-82.08019121357405
 21
6.39099191813604
 31
0.0
  0
LINE
  5
2DB
330
1F
100
AcDbEntity
  8
0
100
AcDbLine
 10
-82.11974571795541
 20
6.192137996168193
 30
0.0
 11
-82.09671356407846
 21
6.290917516952109
 31
0.0
  0
LINE
  5
2DC
330
1F
100
AcDbEntity
  8
0
100
AcDbLine
 10
-82.14918904798604
 20
6.095076344857215
 30
0.0
 11
-82.11974571795541
 21
6.192137996168193
 31
0.0
  0
LINE
  5
2DD
330
1F
100
AcDbEntity
  8
0
100
AcDbLine
 10
-82.18491747331096
 20
6.000148195911218
 30
0.0
 11
-82.14918904798604
 21
6.095076344857215
 31
0.0
  0
LINE
  5
2DE
330
1F
100
AcDbEntity
  8
0
100
AcDbLine
 10
-82.2267779993278
 20
5.907760046237664
 30
0.0
 11
-82.18491747331096
 21
6.000148195911218
 31
0.0
  0
LINE
  5
2DF
330
1F
100
AcDbEntity
  8
0
100
AcDbLine
 10
-82.27459137283758
 20
5.818307516077117
 30
0.0
 11
-82.2267779993278
 21
5.907760046237664
 31
0.0
  0
LINE
  5
2E0
330
1F
100
AcDbEntity
  8
0
100
AcDbLine
 10
-82.3281528496345
 20
5.732173654896714
 30
0.0
 11
-82.27459137283758
 21
5.818307516077117
 31
0.0
  0
LINE
  5
2E1
330
1F
100
AcDbEntity
  8
0
100
AcDbLine
 10
-82.38723307125204
 20
5.6497273011136
 30
0.0
 11
-82.3281528496345
 21
5.732173654896714
 31
0.0
  0
LINE
  5
2E2
330
1F
100
AcDbEntity
  8
0
100
AcDbLine
 10
-82.45157904711104
 20
5.571321502672009
 30
0.0
 11
-82.38723307125204
 21
5.6497273011136
 31
0.0
  0
LINE
  5
2E3
330
1F
100
AcDbEntity
  8
0
100
AcDbLine
 10
-21.49980701791085
 20
-5.353428651089733
 30
0.0
 11
21.49980701791084
 21
-5.17123981947104
 31
0.0
  0
LINE
  5
2E4
330
1F
100
AcDbEntity
  8
0
100
AcDbLine
 10
-27.42012352456517
 20
-10.04148956756547
 30
0.0
 11
-26.94937188802552
 21
-9.325105415231604
 31
0.0
  0
LINE
  5
2E5
330
1F
100
AcDbEntity
  8
0
100
AcDbLine
 10
-26.94937188802552
 20
-9.325105415231604
 30
0.0
 11
-26.42293150796769
 21
-8.64858942631159
 31
0.0
  0
LINE
  5
2E6
330
1F
100
AcDbEntity
  8
0
100
AcDbLine
 10
-26.42293150796769
 20
-8.64858942631159
 30
0.0
 11
-25.84416293485825
 21
-8.016260164138227
 31
0.0
  0
LINE
  5
2E7
330
1F
100
AcDbEntity
  8
0
100
AcDbLine
 10
-25.84416293485825
 20
-8.016260164138227
 30
0.0
 11
-25.21676075800318
 21
-7.432154124538062
 31
0.0
  0
LINE
  5
2E8
330
1F
100
AcDbEntity
  8
0
100
AcDbLine
 10
-25.21676075800318
 20
-7.432154124538062
 30
0.0
 11
-24.54473002100866
 21
-6.899999968719983
 31
0.0
  0
LINE
  5
2E9
330
1F
100
AcDbEntity
  8
0
100
AcDbLine
 10
-24.54473002100866
 20
-6.899999968719983
 30
0.0
 11
-23.83236065544586
 21
-6.423194721236777
 31
0.0
  0
LINE
  5
2EA
330
1F
100
AcDbEntity
  8
0
100
AcDbLine
 10
-23.83236065544586
 20
-6.423194721236777
 30
0.0
 11
-23.08420009592375
 21
-6.00478208496078
 31
0.0
  0
LINE
  5
2EB
330
1F
100
AcDbEntity
  8
0
100
AcDbLine
 10
-23.08420009592375
 20
-6.00478208496078
 30
0.0
 11
-22.30502425138212
 21
-5.647433011500814
 31
0.0
  0
LINE
  5
2EC
330
1F
100
AcDbEntity
  8
0
100
AcDbLine
 10
-22.30502425138212
 20
-5.647433011500814
 30
0.0
 11
-21.49980701791085
 21
-5.353428651089733
 31
0.0
  0
LINE
  5
2ED
330
1F
100
AcDbEntity
  8
0
100
AcDbLine
 10
-30.03482472468797
 20
-9.339923667476196
 30
0.0
 11
-29.56075347063669
 21
-10.05209501294174
 31
0.0
  0
LINE
  5
2EE
330
1F
100
AcDbEntity
  8
0
100
AcDbLine
 10
-30.56434760480619
 20
-8.667958565219191
 30
0.0
 11
-30.03482472468797
 21
-9.339923667476196
 31
0.0
  0
LINE
  5
2EF
330
1F
100
AcDbEntity
  8
0
100
AcDbLine
 10
-29.56075347063669
 20
-10.05209501294174
 30
0.0
 11
-29.28378348582052
 21
-10.55048571578964
 31
0.0
  0
LINE
  5
2F0
330
1F
100
AcDbEntity
  8
0
100
AcDbLine
 10
-33.16421454994627
 20
-6.463869408917645
 30
0.0
 11
-32.45004098087023
 21
-6.934918973669753
 31
0.0
  0
LINE
  5
2F1
330
1F
100
AcDbEntity
  8
0
100
AcDbLine
 10
-35.49968135515511
 20
-5.412745945105126
 30
0.0
 11
-34.693937230138
 21
-5.700335903588358
 31
0.0
  0
LINE
  5
2F2
330
1F
100
AcDbEntity
  8
0
100
AcDbLine
 10
-34.693937230138
 20
-5.700335903588358
 30
0.0
 11
-33.91378145339293
 21
-6.051460586900782
 31
0.0
  0
LINE
  5
2F3
330
1F
100
AcDbEntity
  8
0
100
AcDbLine
 10
-33.91378145339293
 20
-6.051460586900782
 30
0.0
 11
-33.16421454994627
 21
-6.463869408917645
 31
0.0
  0
LINE
  5
2F4
330
1F
100
AcDbEntity
  8
0
100
AcDbLine
 10
-31.14592805496689
 20
-8.040506766902514
 30
0.0
 11
-30.56434760480619
 21
-8.667958565219191
 31
0.0
  0
LINE
  5
2F5
330
1F
100
AcDbEntity
  8
0
100
AcDbLine
 10
-31.7758383483717
 20
-7.461590018584898
 30
0.0
 11
-31.14592805496689
 21
-8.040506766902514
 31
0.0
  0
LINE
  5
2F6
330
1F
100
AcDbEntity
  8
0
100
AcDbLine
 10
-32.45004098087023
 20
-6.934918973669753
 30
0.0
 11
-31.7758383483717
 21
-7.461590018584898
 31
0.0
  0
LINE
  5
2F7
330
1F
100
AcDbEntity
  8
0
100
AcDbLine
 10
35.49968135515512
 20
-5.111922525455653
 30
0.0
 11
65.56964662618934
 21
-4.98451645536905
 31
0.0
  0
LINE
  5
2F8
330
1F
100
AcDbEntity
  8
0
100
AcDbLine
 10
21.49980701791084
 20
-5.17123981947104
 30
0.0
 11
22.30555114292793
 21
-5.458829777954267
 31
0.0
  0
LINE
  5
2F9
330
1F
100
AcDbEntity
  8
0
100
AcDbLine
 10
22.30555114292793
 20
-5.458829777954267
 30
0.0
 11
23.08570691967303
 21
-5.809954461266685
 31
0.0
  0
LINE
  5
2FA
330
1F
100
AcDbEntity
  8
0
100
AcDbLine
 10
23.08570691967303
 20
-5.809954461266685
 30
0.0
 11
23.83527382311969
 21
-6.222363283283549
 31
0.0
  0
LINE
  5
2FB
330
1F
100
AcDbEntity
  8
0
100
AcDbLine
 10
23.83527382311969
 20
-6.222363283283549
 30
0.0
 11
24.54944739219572
 21
-6.693412848035656
 31
0.0
  0
LINE
  5
2FC
330
1F
100
AcDbEntity
  8
0
100
AcDbLine
 10
24.54944739219572
 20
-6.693412848035656
 30
0.0
 11
25.22365002469426
 21
-7.220083892950801
 31
0.0
  0
LINE
  5
2FD
330
1F
100
AcDbEntity
  8
0
100
AcDbLine
 10
25.22365002469426
 20
-7.220083892950801
 30
0.0
 11
25.85356031809907
 21
-7.799000641268417
 31
0.0
  0
LINE
  5
2FE
330
1F
100
AcDbEntity
  8
0
100
AcDbLine
 10
25.85356031809907
 20
-7.799000641268417
 30
0.0
 11
26.43514076825976
 21
-8.426452439585095
 31
0.0
  0
LINE
  5
2FF
330
1F
100
AcDbEntity
  8
0
100
AcDbLine
 10
26.43514076825976
 20
-8.426452439585095
 30
0.0
 11
26.96466364837799
 21
-9.098417541842098
 31
0.0
  0
LINE
  5
300
330
1F
100
AcDbEntity
  8
0
100
AcDbLine
 10
26.96466364837799
 20
-9.098417541842098
 30
0.0
 11
27.43873490242927
 21
-9.810588887307647
 31
0.0
  0
LINE
  5
301
330
1F
100
AcDbEntity
  8
0
100
AcDbLine
 10
27.43873490242927
 20
-9.810588887307647
 30
0.0
 11
27.85431589987235
 21
-10.55840170732625
 31
0.0
  0
LINE
  5
302
330
1F
100
AcDbEntity
  8
0
100
AcDbLine
 10
29.1435654730324
 20
-10.55048571578964
 30
0.0
 11
29.55845264264347
 21
-9.798445965924305
 31
0.0
  0
LINE
  5
303
330
1F
100
AcDbEntity
  8
0
100
AcDbLine
 10
29.55845264264347
 20
-9.798445965924305
 30
0.0
 11
30.03193699948422
 21
-9.081851441306316
 31
0.0
  0
LINE
  5
304
330
1F
100
AcDbEntity
  8
0
100
AcDbLine
 10
30.03193699948422
 20
-9.081851441306316
 30
0.0
 11
30.56100830421807
 21
-8.405257986273972
 31
0.0
  0
LINE
  5
305
330
1F
100
AcDbEntity
  8
0
100
AcDbLine
 10
30.56100830421807
 20
-8.405257986273972
 30
0.0
 11
31.14230291614527
 21
-7.77296713308234
 31
0.0
  0
LINE
  5
306
330
1F
100
AcDbEntity
  8
0
100
AcDbLine
 10
31.14230291614527
 20
-7.77296713308234
 30
0.0
 11
31.77212517799288
 21
-7.188998754343777
 31
0.0
  0
LINE
  5
307
330
1F
100
AcDbEntity
  8
0
100
AcDbLine
 10
31.77212517799288
 20
-7.188998754343777
 30
0.0
 11
32.44647091154408
 21
-6.657065506156863
 31
0.0
  0
LINE
  5
308
330
1F
100
AcDbEntity
  8
0
100
AcDbLine
 10
32.44647091154408
 20
-6.657065506156863
 30
0.0
 11
33.16105287472999
 21
-6.180549224404852
 31
0.0
  0
LINE
  5
309
330
1F
100
AcDbEntity
  8
0
100
AcDbLine
 10
33.16105287472999
 20
-6.180549224404852
 30
0.0
 11
33.91132801833744
 21
-5.762479424287444
 31
0.0
  0
LINE
  5
30A
330
1F
100
AcDbEntity
  8
0
100
AcDbLine
 10
33.91132801833744
 20
-5.762479424287444
 30
0.0
 11
34.69252636904434
 21
-5.40551403977766
 31
0.0
  0
LINE
  5
30B
330
1F
100
AcDbEntity
  8
0
100
AcDbLine
 10
34.69252636904434
 20
-5.40551403977766
 30
0.0
 11
35.49968135515512
 21
-5.111922525455653
 31
0.0
  0
LINE
  5
30C
330
1F
100
AcDbEntity
  8
0
100
AcDbLine
 10
29.1435654730324
 20
-10.55048571578964
 30
0.0
 11
27.85431589987235
 21
-10.55840170732625
 31
0.0
  0
LINE
  5
30D
330
1F
100
AcDbEntity
  8
0
100
AcDbLine
 10
-27.69914659113603
 20
-10.55048571578964
 30
0.0
 11
-27.42012352456517
 21
-10.04148956756547
 31
0.0
  0
LINE
  5
30E
330
1F
100
AcDbEntity
  8
0
100
AcDbLine
 10
-27.69914659113603
 20
-10.55048571578964
 30
0.0
 11
-29.28378348582052
 21
-10.55048571578964
 31
0.0
  0
LINE
  5
30F
330
1F
100
AcDbEntity
  8
0
100
AcDbLine
 10
80.28806100089614
 20
-0.5500412781126076
 30
0.0
 11
80.24130454083087
 21
-1.140050732534525
 31
0.0
  0
LINE
  5
310
330
1F
100
AcDbEntity
  8
0
100
AcDbLine
 10
-80.28806100089628
 20
-1.015213905759664
 30
0.0
 11
-80.24130454083102
 21
-1.605223360181581
 31
0.0
  0
ENDSEC
  0
SECTION
  2
OBJECTS
  0
DICTIONARY
  5
C
330
0
100
AcDbDictionary
  3
ACAD_GROUP
350
D
  3
ACAD_LAYOUT
350
1A
  3
ACAD_MATERIAL
350
43
  3
ACAD_MLEADERSTYLE
350
6B
  3
ACAD_MLINESTYLE
350
17
  3
ACAD_PLOTSETTINGS
350
19
  3
ACAD_SCALELIST
350
47
  3
ACAD_VISUALSTYLE
350
2A
  3
ACDBHEADERROUNDTRIPXREC
350
311
  3
ACDBVARIABLEDICTIONARY
350
332
  0
DICTIONARY
  5
339
330
8
100
AcDbDictionary
280
     1
  3
ACAD_XREC_ROUNDTRIP
360
33A
  0
DICTIONARY
  5
D
102
{ACAD_REACTORS
330
C
102
}
330
C
100
AcDbDictionary
  0
DICTIONARY
  5
1A
102
{ACAD_REACTORS
330
C
102
}
330
C
100
AcDbDictionary
  0
DICTIONARY
  5
43
102
{ACAD_REACTORS
330
C
102
}
330
C
100
AcDbDictionary
  3
BYBLOCK
350
45
  3
BYLAYER
350
44
  3
GLOBAL
350
46
  0
DICTIONARY
  5
6B
102
{ACAD_REACTORS
330
C
102
}
330
C
100
AcDbDictionary
  3
STANDARD
350
6C
  0
DICTIONARY
  5
17
102
{ACAD_REACTORS
330
C
102
}
330
C
100
AcDbDictionary
  3
STANDARD
350
18
  0
DICTIONARY
  5
19
102
{ACAD_REACTORS
330
C
102
}
330
C
100
AcDbDictionary
  0
DICTIONARY
  5
47
102
{ACAD_REACTORS
330
C
102
}
330
C
100
AcDbDictionary
  3
A0
350
48
  3
A1
350
49
  3
A2
350
4A
  3
A3
350
4B
  3
A4
350
4C
  3
A5
350
4D
  3
A6
350
4E
  3
A7
350
4F
  3
A8
350
50
  3
A9
350
51
  3
B0
350
52
  3
B1
350
53
  3
B2
350
54
  3
B3
350
55
  3
B4
350
56
  3
B5
350
57
  3
B6
350
58
  3
B7
350
59
  3
B8
350
5A
  3
B9
350
5B
  3
C0
350
5C
  3
C1
350
5D
  3
C2
350
5E
  3
C3
350
5F
  3
C4
350
60
  3
C5
350
61
  3
C6
350
62
  3
C7
350
63
  3
C8
350
64
  3
C9
350
65
  3
D0
350
66
  3
D1
350
67
  3
D2
350
68
  0
DICTIONARY
  5
2A
102
{ACAD_REACTORS
330
C
102
}
330
C
100
AcDbDictionary
  3
2DWIREFRAME
350
2F
  3
BASIC
350
32
  3
BRIGHTEN
350
36
  3
COLORCHANGE
350
3A
  3
CONCEPTUAL
350
34
  3
DIM
350
35
  3
EDGECOLOROFF
350
3D
  3
FACEPATTERN
350
39
  3
FLAT
350
2B
  3
FLATWITHEDGES
350
2C
  3
GOURAUD
350
2D
  3
GOURAUDWITHEDGES
350
2E
  3
HIDDEN
350
31
  3
JITTEROFF
350
3B
  3
LINEPATTERN
350
38
  3
OVERHANGOFF
350
3C
  3
REALISTIC
350
33
  3
SHADED
350
42
  3
SHADED_WITH_EDGES
350
41
  3
SHADES_OF_GRAY
350
3E
  3
SKETCHY
350
3F
  3
THICKEN
350
37
  3
WIREFRAME
350
30
  3
X-RAY
350
40
  0
DICTIONARY
  5
311
102
{ACAD_REACTORS
330
C
102
}
330
C
100
AcDbDictionary
  3
CEPSNID
350
31B
  3
CEPSNTYPE
350
31A
  3
DIMSTYLEDATA
350
331
  3
FINGERPRINTGUID
350
31C
  3
HYPERLINKBASE
350
314
  3
INSUNITS
350
319
  3
LAYOUTDICT
350
316
  3
LWETCUNION
350
318
  3
PLOTSETDICT
350
317
  3
PSVPSCALE
350
31E
  3
PUCSBASE
350
321
  3
PUCSORGBACK
350
327
  3
PUCSORGBOTTOM
350
323
  3
PUCSORGFRONT
350
326
  3
PUCSORGLEFT
350
324
  3
PUCSORGRIGHT
350
325
  3
PUCSORGTOP
350
322
  3
PUCSORTHOREF
350
31F
  3
PUCSORTHOVIEW
350
320
  3
STYLESHEET
350
315
  3
TSTACKALIGN
350
312
  3
TSTACKSIZE
350
313
  3
UCSBASE
350
32A
  3
UCSORGBACK
350
330
  3
UCSORGBOTTOM
350
32C
  3
UCSORGFRONT
350
32F
  3
UCSORGLEFT
350
32D
  3
UCSORGRIGHT
350
32E
  3
UCSORGTOP
350
32B
  3
UCSORTHOREF
350
328
  3
UCSORTHOVIEW
350
329
  3
VERSIONGUID
350
31D
  0
DICTIONARY
  5
332
102
{ACAD_REACTORS
330
C
102
}
330
C
100
AcDbDictionary
  3
CANNOSCALE
350
33B
  3
CMLEADERSTYLE
350
334
  3
CTABLESTYLE
350
333
  3
DIMASSOC
350
337
  3
HIDETEXT
350
338
  3
MSLTSCALE
350
33C
  0
XRECORD
  5
33A
102
{ACAD_REACTORS
330
339
102
}
330
339
100
AcDbXrecord
102
VTR_0.000_0.000_1.000_1.000_VISUALSTYLE
340
2F
102
VTR_0.000_0.000_1.000_1.000_GRIDDISPLAY
 70
     3
102
VTR_0.000_0.000_1.000_1.000_GRIDMAJOR
 70
     5
102
VTR_0.000_0.000_1.000_1.000_DEFAULTLIGHTING
280
     1
102
VTR_0.000_0.000_1.000_1.000_DEFAULTLIGHTINGTYPE
 70
     1
102
VTR_0.000_0.000_1.000_1.000_BRIGHTNESS
141
0.0
102
VTR_0.000_0.000_1.000_1.000_CONTRAST
142
0.0
  0
MATERIAL
  5
45
102
{ACAD_REACTORS
330
43
102
}
102
{ACAD_XDICTIONARY
360
33F
102
}
330
43
100
AcDbMaterial
  1
BYBLOCK
  0
MATERIAL
  5
44
102
{ACAD_REACTORS
330
43
102
}
102
{ACAD_XDICTIONARY
360
33D
102
}
330
43
100
AcDbMaterial
  1
BYLAYER
  0
MATERIAL
  5
46
102
{ACAD_REACTORS
330
43
102
}
102
{ACAD_XDICTIONARY
360
341
102
}
330
43
100
AcDbMaterial
  1
GLOBAL
  0
ACAD_PROXY_OBJECT
  5
6C
102
{ACAD_REACTORS
330
6B
102
}
330
6B
100
AcDbProxyObject
 90
      499
 91
      505
 93
      610
310
40901902A4063FBFFFFFE056BD1B81E855B9FC0AD7A3703D0AD73F4214DD185B99185C9900AD7A3703D0AC73F90141901A02B5E8DC0F42B1CFC02B5E8DC0F42B1CFE5764000000000000300FC0
340
14
340
0
340
11
340
0
 94
        0
1001
ACAD_MLEADERVER
1070
     2
  0
MLINESTYLE
  5
18
102
{ACAD_REACTORS
330
17
102
}
330
17
100
AcDbMlineStyle
  2
Standard
 70
     0
  3

 62
   256
 51
90.0
 52
90.0
 71
     2
 49
0.5
 62
   256
  6
BYLAYER
 49
-0.5
 62
   256
  6
BYLAYER
  0
ACAD_PROXY_OBJECT
  5
48
102
{ACAD_REACTORS
330
47
102
}
330
47
100
AcDbProxyObject
 90
      499
 91
      503
 93
       41
310
903313A31580
  0
ACAD_PROXY_OBJECT
  5
49
102
{ACAD_REACTORS
330
47
102
}
330
47
100
AcDbProxyObject
 90
      499
 91
      503
 93
      105
310
903313A324000000000000004000
  0
ACAD_PROXY_OBJECT
  5
4A
102
{ACAD_REACTORS
330
47
102
}
330
47
100
AcDbProxyObject
 90
      499
 91
      503
 93
      105
310
903313A344000000000000104000
  0
ACAD_PROXY_OBJECT
  5
4B
102
{ACAD_REACTORS
330
47
102
}
330
47
100
AcDbProxyObject
 90
      499
 91
      503
 93
      105
310
903313A354000000000000144000
  0
ACAD_PROXY_OBJECT
  5
4C
102
{ACAD_REACTORS
330
47
102
}
330
47
100
AcDbProxyObject
 90
      499
 91
      503
 93
      105
310
903313A384000000000000204000
  0
ACAD_PROXY_OBJECT
  5
4D
102
{ACAD_REACTORS
330
47
102
}
330
47
100
AcDbProxyObject
 90
      499
 91
      503
 93
      113
310
904313A31304000000000000244000
  0
ACAD_PROXY_OBJECT
  5
4E
102
{ACAD_REACTORS
330
47
102
}
330
47
100
AcDbProxyObject
 90
      499
 91
      503
 93
      113
310
904313A31364000000000000304000
  0
ACAD_PROXY_OBJECT
  5
4F
102
{ACAD_REACTORS
330
47
102
}
330
47
100
AcDbProxyObject
 90
      499
 91
      503
 93
      113
310
904313A32304000000000000344000
  0
ACAD_PROXY_OBJECT
  5
50
102
{ACAD_REACTORS
330
47
102
}
330
47
100
AcDbProxyObject
 90
      499
 91
      503
 93
      113
310
904313A333040000000000003E4000
  0
ACAD_PROXY_OBJECT
  5
51
102
{ACAD_REACTORS
330
47
102
}
330
47
100
AcDbProxyObject
 90
      499
 91
      503
 93
      113
310
904313A34304000000000000444000
  0
ACAD_PROXY_OBJECT
  5
52
102
{ACAD_REACTORS
330
47
102
}
330
47
100
AcDbProxyObject
 90
      499
 91
      503
 93
      113
310
904313A35304000000000000494000
  0
ACAD_PROXY_OBJECT
  5
53
102
{ACAD_REACTORS
330
47
102
}
330
47
100
AcDbProxyObject
 90
      499
 91
      503
 93
      121
310
905313A3130304000000000000594000
  0
ACAD_PROXY_OBJECT
  5
54
102
{ACAD_REACTORS
330
47
102
}
330
47
100
AcDbProxyObject
 90
      499
 91
      503
 93
      105
310
903323A310000000000000010100
  0
ACAD_PROXY_OBJECT
  5
55
102
{ACAD_REACTORS
330
47
102
}
330
47
100
AcDbProxyObject
 90
      499
 91
      503
 93
      105
310
903343A310000000000000410100
  0
ACAD_PROXY_OBJECT
  5
56
102
{ACAD_REACTORS
330
47
102
}
330
47
100
AcDbProxyObject
 90
      499
 91
      503
 93
      105
310
903383A310000000000000810100
  0
ACAD_PROXY_OBJECT
  5
57
102
{ACAD_REACTORS
330
47
102
}
330
47
100
AcDbProxyObject
 90
      499
 91
      503
 93
      113
310
90431303A310000000000000910100
  0
ACAD_PROXY_OBJECT
  5
58
102
{ACAD_REACTORS
330
47
102
}
330
47
100
AcDbProxyObject
 90
      499
 91
      503
 93
      121
310
9053130303A310000000000001650100
  0
ACAD_PROXY_OBJECT
  5
59
102
{ACAD_REACTORS
330
47
102
}
330
47
100
AcDbProxyObject
 90
      499
 91
      503
 93
      257
310
90E312F31323822203D2031272D3022000000000000200FC000000000000284000
  0
ACAD_PROXY_OBJECT
  5
5A
102
{ACAD_REACTORS
330
47
102
}
330
47
100
AcDbProxyObject
 90
      499
 91
      503
 93
      249
310
90D312F363422203D2031272D3022000000000000240FC000000000000284000
  0
ACAD_PROXY_OBJECT
  5
5B
102
{ACAD_REACTORS
330
47
102
}
330
47
100
AcDbProxyObject
 90
      499
 91
      503
 93
      249
310
90D312F333222203D2031272D3022000000000000280FC000000000000284000
  0
ACAD_PROXY_OBJECT
  5
5C
102
{ACAD_REACTORS
330
47
102
}
330
47
100
AcDbProxyObject
 90
      499
 91
      503
 93
      249
310
90D312F313622203D2031272D30220000000000002C0FC000000000000284000
  0
ACAD_PROXY_OBJECT
  5
5D
102
{ACAD_REACTORS
330
47
102
}
330
47
100
AcDbProxyObject
 90
      499
 91
      503
 93
      249
310
90D332F333222203D2031272D30220000000000002E0FC000000000000284000
  0
ACAD_PROXY_OBJECT
  5
5E
102
{ACAD_REACTORS
330
47
102
}
330
47
100
AcDbProxyObject
 90
      499
 91
      503
 93
      241
310
90C312F3822203D2031272D3022000000000000300FC000000000000284000
  0
ACAD_PROXY_OBJECT
  5
5F
102
{ACAD_REACTORS
330
47
102
}
330
47
100
AcDbProxyObject
 90
      499
 91
      503
 93
      249
310
90D332F313622203D2031272D3022000000000000320FC000000000000284000
  0
ACAD_PROXY_OBJECT
  5
60
102
{ACAD_REACTORS
330
47
102
}
330
47
100
AcDbProxyObject
 90
      499
 91
      503
 93
      241
310
90C312F3422203D2031272D3022000000000000340FC000000000000284000
  0
ACAD_PROXY_OBJECT
  5
61
102
{ACAD_REACTORS
330
47
102
}
330
47
100
AcDbProxyObject
 90
      499
 91
      503
 93
      241
310
90C332F3822203D2031272D3022000000000000360FC000000000000284000
  0
ACAD_PROXY_OBJECT
  5
62
102
{ACAD_REACTORS
330
47
102
}
330
47
100
AcDbProxyObject
 90
      499
 91
      503
 93
      241
310
90C312F3222203D2031272D3022000000000000380FC000000000000284000
  0
ACAD_PROXY_OBJECT
  5
63
102
{ACAD_REACTORS
330
47
102
}
330
47
100
AcDbProxyObject
 90
      499
 91
      503
 93
      241
310
90C332F3422203D2031272D30220000000000003A0FC000000000000284000
  0
ACAD_PROXY_OBJECT
  5
64
102
{ACAD_REACTORS
330
47
102
}
330
47
100
AcDbProxyObject
 90
      499
 91
      503
 93
      161
310
90A3122203D2031272D30224000000000000284000
  0
ACAD_PROXY_OBJECT
  5
65
102
{ACAD_REACTORS
330
47
102
}
330
47
100
AcDbProxyObject
 90
      499
 91
      503
 93
      257
310
90E312D312F3222203D2031272D30220000000000003E0FC000000000000284000
  0
ACAD_PROXY_OBJECT
  5
66
102
{ACAD_REACTORS
330
47
102
}
330
47
100
AcDbProxyObject
 90
      499
 91
      503
 93
      225
310
90A3322203D2031272D302200000000000002100000000000000284000
  0
ACAD_PROXY_OBJECT
  5
67
102
{ACAD_REACTORS
330
47
102
}
330
47
100
AcDbProxyObject
 90
      499
 91
      503
 93
      225
310
90A3622203D2031272D302200000000000006100000000000000284000
  0
ACAD_PROXY_OBJECT
  5
68
102
{ACAD_REACTORS
330
47
102
}
330
47
100
AcDbProxyObject
 90
      499
 91
      503
 93
      249
310
90D31272D3022203D2031272D30220000000000000A100000000000000284000
  0
ACAD_PROXY_OBJECT
  5
2F
102
{ACAD_REACTORS
330
2A
102
}
330
2A
100
AcDbProxyObject
 90
      499
 91
      501
 93
      436
310
42CC9915DA5C99599C985B595049028333333333333E33F0000000000000F90107901411070040501600405405064090741402480A0340
1001
ACAD
1000
AcDbSavedByObjectVersion
1070
     0
  0
ACAD_PROXY_OBJECT
  5
32
102
{ACAD_REACTORS
330
2A
102
}
330
2A
100
AcDbProxyObject
 90
      499
 91
      501
 93
      388
310
4150985CDA58D07406404333333333333E33F0000000000000F90107A41107004050150841D405064090741402480A0350
1001
ACAD
1000
AcDbSavedByObjectVersion
1070
     0
  0
ACAD_PROXY_OBJECT
  5
36
102
{ACAD_REACTORS
330
2A
102
}
330
2A
100
AcDbProxyObject
 90
      499
 91
      501
 93
      428
310
42109C9A59DA1D195B90C409028333333333333E33F0000000000000F9010790141107004050150841D405064090741402480A029950
1001
ACAD
1000
AcDbSavedByObjectVersion
1070
     0
  0
ACAD_PROXY_OBJECT
  5
3A
102
{ACAD_REACTORS
330
2A
102
}
330
2A
100
AcDbProxyObject
 90
      499
 91
      501
 93
      452
310
42D0DBDB1BDC90DA185B99D95104090240C333333333333E33F0000000000000F90108901411070040501508421405064090741402480A0350
1001
ACAD
1000
AcDbSavedByObjectVersion
1070
     0
  0
ACAD_PROXY_OBJECT
  5
34
102
{ACAD_REACTORS
330
2A
102
}
330
2A
100
AcDbProxyObject
 90
      499
 91
      501
 93
      500
310
4290DBDB98D95C1D1D585B10940D028333333333333E33F0000000000000F90107902409070040501000000000018199010841D405064090740C02480A0340
1001
ACAD
1000
AcDbSavedByObjectVersion
1070
     0
  0
ACAD_PROXY_OBJECT
  5
35
102
{ACAD_REACTORS
330
2A
102
}
330
2A
100
AcDbProxyObject
 90
      499
 91
      501
 93
      412
310
40D11A5B50B409028333333333333E33F0000000000000F9010790141107004050150841D405064090741402480A02677FFFFFD0
1001
ACAD
1000
AcDbSavedByObjectVersion
1070
     0
  0
ACAD_PROXY_OBJECT
  5
3D
102
{ACAD_REACTORS
330
2A
102
}
330
2A
100
AcDbProxyObject
 90
      499
 91
      501
 93
      452
310
43115919D950DBDB1BDC93D999916409028333333333333E33F0000000000000F9010790141107004050150841D405064090741402480A0350
1001
ACAD
1000
AcDbSavedByObjectVersion
1070
     0
  0
ACAD_PROXY_OBJECT
  5
39
102
{ACAD_REACTORS
330
2A
102
}
330
2A
100
AcDbProxyObject
 90
      499
 91
      501
 93
      444
310
42D19858D95C185D1D195C9B90F409028333333333333E33F0000000000000F9010790141107004050150841D405064090741402480A0350
1001
ACAD
1000
AcDbSavedByObjectVersion
1070
     0
  0
ACAD_PROXY_OBJECT
  5
2B
102
{ACAD_REACTORS
330
2A
102
}
330
2A
100
AcDbProxyObject
 90
      499
 91
      501
 93
      380
310
41119B185D240901404333333333333E33F0000000000000F9010740A907004050150841D405064090741402480A1B50
1001
ACAD
1000
AcDbSavedByObjectVersion
1070
     0
  0
ACAD_PROXY_OBJECT
  5
2C
102
{ACAD_REACTORS
330
2A
102
}
330
2A
100
AcDbProxyObject
 90
      499
 91
      501
 93
      468
310
43519B185D15DA5D1A115919D95CD0140901404333333333333E33F0000000000000F90107409019070040501600405405064090741402480A1B50
1001
ACAD
1000
AcDbSavedByObjectVersion
1070
     0
  0
ACAD_PROXY_OBJECT
  5
2D
102
{ACAD_REACTORS
330
2A
102
}
330
2A
100
AcDbProxyObject
 90
      499
 91
      501
 93
      404
310
41D1DBDD5C985D5910240902404333333333333E33F0000000000000F9010740A9070040501641D405064090741402480A1B50
1001
ACAD
1000
AcDbSavedByObjectVersion
1070
     0
  0
ACAD_PROXY_OBJECT
  5
2E
102
{ACAD_REACTORS
330
2A
102
}
330
2A
100
AcDbProxyObject
 90
      499
 91
      501
 93
      492
310
4411DBDD5C985D5915DA5D1A115919D95CD0340902404333333333333E33F0000000000000F90107409019070040501600405405064090741402480A1B50
1001
ACAD
1000
AcDbSavedByObjectVersion
1070
     0
  0
ACAD_PROXY_OBJECT
  5
31
102
{ACAD_REACTORS
330
2A
102
}
330
2A
100
AcDbProxyObject
 90
      499
 91
      501
 93
      476
310
41921A5919195B90640502408333333333333E33F0000000000000F901079024090700405020000000000001110200405405064090740C02480A0340
1001
ACAD
1000
AcDbSavedByObjectVersion
1070
     0
  0
ACAD_PROXY_OBJECT
  5
3B
102
{ACAD_REACTORS
330
2A
102
}
330
2A
100
AcDbProxyObject
 90
      499
 91
      501
 93
      428
310
42529A5D1D195C93D999914409028333333333333E33F0000000000000F9010790141107004050150A41D405064090741402480A0350
1001
ACAD
1000
AcDbSavedByObjectVersion
1070
     0
  0
ACAD_PROXY_OBJECT
  5
38
102
{ACAD_REACTORS
330
2A
102
}
330
2A
100
AcDbProxyObject
 90
      499
 91
      501
 93
      444
310
42D31A5B995C185D1D195C9B90E409028333333333333E33F0000000000000F9010790141107004050750841D405064090741402483A0350
1001
ACAD
1000
AcDbSavedByObjectVersion
1070
     0
  0
ACAD_PROXY_OBJECT
  5
3C
102
{ACAD_REACTORS
330
2A
102
}
330
2A
100
AcDbProxyObject
 90
      499
 91
      501
 93
      444
310
42D3DD995C9A185B99D3D999915409028333333333333E33F0000000000000F9010790141107004050150941D405064090741402480A0350
1001
ACAD
1000
AcDbSavedByObjectVersion
1070
     0
  0
ACAD_PROXY_OBJECT
  5
33
102
{ACAD_REACTORS
330
2A
102
}
330
2A
100
AcDbProxyObject
 90
      499
 91
      501
 93
      428
310
425499585B1A5CDD1A58D08409038333333333333E33F0000000000000F9010740A907004050150800405405064090740C02480A1B40
1001
ACAD
1000
AcDbSavedByObjectVersion
1070
     0
  0
ACAD_PROXY_OBJECT
  5
42
102
{ACAD_REACTORS
330
2A
102
}
330
2A
100
AcDbProxyObject
 90
      499
 91
      501
 93
      420
310
4194DA1859195911B40902404333333333333E33F0000000000000F9010740A41107004050150800405405064090840C02480A0B40
1001
ACAD
1000
AcDbSavedByObjectVersion
1070
     0
  0
ACAD_PROXY_OBJECT
  5
41
102
{ACAD_REACTORS
330
2A
102
}
330
2A
100
AcDbProxyObject
 90
      499
 91
      501
 93
      516
310
4454DA18591959081DDA5D1A08195919D95CD1A40902404333333333333E33F0000000000000F901074090142907004050250800405405064090740C02480A0B40
1001
ACAD
1000
AcDbSavedByObjectVersion
1070
     0
  0
ACAD_PROXY_OBJECT
  5
3E
102
{ACAD_REACTORS
330
2A
102
}
330
2A
100
AcDbProxyObject
 90
      499
 91
      501
 93
      532
310
4394DA1859195CC81BD98811DC985E5174090240C333333333333E33F0000000000000F901079024090741D01000000000000111010841D405064090740C02480A0340
1001
ACAD
1000
AcDbSavedByObjectVersion
1070
     0
  0
ACAD_PROXY_OBJECT
  5
3F
102
{ACAD_REACTORS
330
2A
102
}
330
2A
100
AcDbProxyObject
 90
      499
 91
      501
 93
      476
310
41D4DAD95D18DA1E51840502408333333333333E33F0000000000000F901079024090741D01000000000000111010B41D405064090741802480A0340
1001
ACAD
1000
AcDbSavedByObjectVersion
1070
     0
  0
ACAD_PROXY_OBJECT
  5
37
102
{ACAD_REACTORS
330
2A
102
}
330
2A
100
AcDbProxyObject
 90
      499
 91
      501
 93
      412
310
41D51A1A58DAD95B90D409028333333333333E33F0000000000000F9010790141107004050150C41D405064090741402480A0350
1001
ACAD
1000
AcDbSavedByObjectVersion
1070
     0
  0
ACAD_PROXY_OBJECT
  5
30
102
{ACAD_REACTORS
330
2A
102
}
330
2A
100
AcDbProxyObject
 90
      499
 91
      501
 93
      420
310
4255DA5C99599C985B595059028333333333333E33F0000000000000F90107901411070040501600405405064090740C02480A0340
1001
ACAD
1000
AcDbSavedByObjectVersion
1070
     0
  0
ACAD_PROXY_OBJECT
  5
40
102
{ACAD_REACTORS
330
2A
102
}
330
2A
100
AcDbProxyObject
 90
      499
 91
      501
 93
      404
310
41560B54985E51940902404000000000000E03F0000000000000F9010740501907004050150841D405064090740C02480A1B40
1001
ACAD
1000
AcDbSavedByObjectVersion
1070
     0
  0
XRECORD
  5
31B
102
{ACAD_REACTORS
330
311
102
}
330
311
100
AcDbXrecord
340
0
  0
XRECORD
  5
31A
102
{ACAD_REACTORS
330
311
102
}
330
311
100
AcDbXrecord
 90
        0
  0
XRECORD
  5
331
102
{ACAD_REACTORS
330
311
102
}
330
311
100
AcDbXrecord
1000
DSTYLE
1002
{
1070
   171
 70
     2
1070
   143
 40
25.4
1070
   274
 70
     2
1070
    41
 40
0.18
1070
   141
 40
0.09
1070
   271
 70
     4
1070
    43
 40
0.38
1070
   278
 70
    46
1070
    44
 40
0.18
1070
    42
 40
0.0625
1070
   147
 40
0.09
1070
    77
 70
     0
1070
   272
 70
     4
1070
    73
 70
     1
1070
   172
 70
     0
1070
    74
 70
     1
1070
   283
 70
     1
1070
   340
340
11
1070
   140
 40
0.18
1070
   284
 70
     0
1070
    78
 70
     0
1002
}
  0
XRECORD
  5
31C
102
{ACAD_REACTORS
330
311
102
}
330
311
100
AcDbXrecord
  1
{7E77DB02-BB2B-4D9F-A4DE-7285325DD2EC}
  0
XRECORD
  5
314
102
{ACAD_REACTORS
330
311
102
}
330
311
100
AcDbXrecord
  1

  0
XRECORD
  5
319
102
{ACAD_REACTORS
330
311
102
}
330
311
100
AcDbXrecord
 90
        4
  0
XRECORD
  5
316
102
{ACAD_REACTORS
330
311
102
}
330
311
100
AcDbXrecord
340
1A
  0
XRECORD
  5
318
102
{ACAD_REACTORS
330
311
102
}
330
311
100
AcDbXrecord
 90
    10781
  0
XRECORD
  5
317
102
{ACAD_REACTORS
330
311
102
}
330
311
100
AcDbXrecord
340
19
  0
XRECORD
  5
31E
102
{ACAD_REACTORS
330
311
102
}
330
311
100
AcDbXrecord
 40
0.0
  0
XRECORD
  5
321
102
{ACAD_REACTORS
330
311
102
}
330
311
100
AcDbXrecord
340
0
  0
XRECORD
  5
327
102
{ACAD_REACTORS
330
311
102
}
330
311
100
AcDbXrecord
 10
0.0
 20
0.0
 30
0.0
  0
XRECORD
  5
323
102
{ACAD_REACTORS
330
311
102
}
330
311
100
AcDbXrecord
 10
0.0
 20
0.0
 30
0.0
  0
XRECORD
  5
326
102
{ACAD_REACTORS
330
311
102
}
330
311
100
AcDbXrecord
 10
0.0
 20
0.0
 30
0.0
  0
XRECORD
  5
324
102
{ACAD_REACTORS
330
311
102
}
330
311
100
AcDbXrecord
 10
0.0
 20
0.0
 30
0.0
  0
XRECORD
  5
325
102
{ACAD_REACTORS
330
311
102
}
330
311
100
AcDbXrecord
 10
0.0
 20
0.0
 30
0.0
  0
XRECORD
  5
322
102
{ACAD_REACTORS
330
311
102
}
330
311
100
AcDbXrecord
 10
0.0
 20
0.0
 30
0.0
  0
XRECORD
  5
31F
102
{ACAD_REACTORS
330
311
102
}
330
311
100
AcDbXrecord
340
0
  0
XRECORD
  5
320
102
{ACAD_REACTORS
330
311
102
}
330
311
100
AcDbXrecord
 70
     0
  0
XRECORD
  5
315
102
{ACAD_REACTORS
330
311
102
}
330
311
100
AcDbXrecord
  1

  0
XRECORD
  5
312
102
{ACAD_REACTORS
330
311
102
}
330
311
100
AcDbXrecord
 90
        1
  0
XRECORD
  5
313
102
{ACAD_REACTORS
330
311
102
}
330
311
100
AcDbXrecord
 90
       70
  0
XRECORD
  5
32A
102
{ACAD_REACTORS
330
311
102
}
330
311
100
AcDbXrecord
340
0
  0
XRECORD
  5
330
102
{ACAD_REACTORS
330
311
102
}
330
311
100
AcDbXrecord
 10
0.0
 20
0.0
 30
0.0
  0
XRECORD
  5
32C
102
{ACAD_REACTORS
330
311
102
}
330
311
100
AcDbXrecord
 10
0.0
 20
0.0
 30
0.0
  0
XRECORD
  5
32F
102
{ACAD_REACTORS
330
311
102
}
330
311
100
AcDbXrecord
 10
0.0
 20
0.0
 30
0.0
  0
XRECORD
  5
32D
102
{ACAD_REACTORS
330
311
102
}
330
311
100
AcDbXrecord
 10
0.0
 20
0.0
 30
0.0
  0
XRECORD
  5
32E
102
{ACAD_REACTORS
330
311
102
}
330
311
100
AcDbXrecord
 10
0.0
 20
0.0
 30
0.0
  0
XRECORD
  5
32B
102
{ACAD_REACTORS
330
311
102
}
330
311
100
AcDbXrecord
 10
0.0
 20
0.0
 30
0.0
  0
XRECORD
  5
328
102
{ACAD_REACTORS
330
311
102
}
330
311
100
AcDbXrecord
340
0
  0
XRECORD
  5
329
102
{ACAD_REACTORS
330
311
102
}
330
311
100
AcDbXrecord
 70
     0
  0
XRECORD
  5
31D
102
{ACAD_REACTORS
330
311
102
}
330
311
100
AcDbXrecord
  1
{FAEB1C32-E019-11D5-929B-00C0DF256EC4}
  0
DICTIONARYVAR
  5
33B
102
{ACAD_REACTORS
330
332
102
}
330
332
100
DictionaryVariables
280
     0
  1
1:1
  0
DICTIONARYVAR
  5
334
102
{ACAD_REACTORS
330
332
102
}
330
332
100
DictionaryVariables
280
     0
  1
Standard
  0
DICTIONARYVAR
  5
333
102
{ACAD_REACTORS
330
332
102
}
330
332
100
DictionaryVariables
280
     0
  1
Standard
  0
DICTIONARYVAR
  5
337
102
{ACAD_REACTORS
330
332
102
}
330
332
100
DictionaryVariables
280
     0
  1
2
  0
DICTIONARYVAR
  5
338
102
{ACAD_REACTORS
330
332
102
}
330
332
100
DictionaryVariables
280
     0
  1
1
  0
DICTIONARYVAR
  5
33C
102
{ACAD_REACTORS
330
332
102
}
330
332
100
DictionaryVariables
280
     0
  1
1
  0
DICTIONARY
  5
33F
330
45
100
AcDbDictionary
280
     1
  3
ACAD_XREC_ROUNDTRIP
360
340
  0
DICTIONARY
  5
33D
330
44
100
AcDbDictionary
280
     1
  3
ACAD_XREC_ROUNDTRIP
360
33E
  0
DICTIONARY
  5
341
330
46
100
AcDbDictionary
280
     1
  3
ACAD_XREC_ROUNDTRIP
360
342
  0
XRECORD
  5
340
102
{ACAD_REACTORS
330
33F
102
}
330
33F
100
AcDbXrecord
102
MATERIAL
148
0.0
149
0.0
149
0.0
 93
        0
 94
      127
282
     0
 72
     1
 77
     1
171
     1
175
     1
179
     1
273
     0
  0
XRECORD
  5
33E
102
{ACAD_REACTORS
330
33D
102
}
330
33D
100
AcDbXrecord
102
MATERIAL
148
0.0
149
0.0
149
0.0
 93
        0
 94
      127
282
     0
 72
     1
 77
     1
171
     1
175
     1
179
     1
273
     0
  0
XRECORD
  5
342
102
{ACAD_REACTORS
330
341
102
}
330
341
100
AcDbXrecord
102
MATERIAL
148
0.0
149
0.0
149
0.0
 93
        0
 94
      127
282
     0
 72
     1
 77
     1
171
     1
175
     1
179
     1
273
     0
  0
ENDSEC
  0
EOF
