  0
SECTION
  2
HEADER
  9
$ACADVER
  1
AC1014
  9
$ACADMAINTVER
 70
     9
  9
$DWGCODEPAGE
  3
ANSI_1252
  9
$INSBASE
 10
0.0
 20
0.0
 30
0.0
  9
$EXTMIN
 10
1.000000000000000E+20
 20
1.000000000000000E+20
 30
1.000000000000000E+20
  9
$EXTMAX
 10
-1.000000000000000E+20
 20
-1.000000000000000E+20
 30
-1.000000000000000E+20
  9
$LIMMIN
 10
0.0
 20
0.0
  9
$LIMMAX
 10
12.0
 20
9.0
  9
$ORTHOMODE
 70
     0
  9
$REGENMODE
 70
     1
  9
$FILLMODE
 70
     1
  9
$QTEXTMODE
 70
     0
  9
$MIRRTEXT
 70
     1
  9
$DRAGMODE
 70
     2
  9
$LTSCALE
 40
1.0
  9
$OSMODE
 70
    37
  9
$ATTMODE
 70
     1
  9
$TEXTSIZE
 40
0.2
  9
$TRACEWID
 40
0.05
  9
$TEXTSTYLE
  7
STANDARD
  9
$CLAYER
  8
0
  9
$CELTYPE
  6
BYLAYER
  9
$CECOLOR
 62
   256
  9
$CELTSCALE
 40
1.0
  9
$DELOBJ
 70
     1
  9
$DISPSILH
 70
     0
  9
$DIMSCALE
 40
1.0
  9
$DIMASZ
 40
0.18
  9
$DIMEXO
 40
0.0625
  9
$DIMDLI
 40
0.38
  9
$DIMRND
 40
0.0
  9
$DIMDLE
 40
0.0
  9
$DIMEXE
 40
0.18
  9
$DIMTP
 40
0.0
  9
$DIMTM
 40
0.0
  9
$DIMTXT
 40
0.18
  9
$DIMCEN
 40
0.09
  9
$DIMTSZ
 40
0.0
  9
$DIMTOL
 70
     0
  9
$DIMLIM
 70
     0
  9
$DIMTIH
 70
     1
  9
$DIMTOH
 70
     1
  9
$DIMSE1
 70
     0
  9
$DIMSE2
 70
     0
  9
$DIMTAD
 70
     0
  9
$DIMZIN
 70
     0
  9
$DIMBLK
  1

  9
$DIMASO
 70
     1
  9
$DIMSHO
 70
     1
  9
$DIMPOST
  1

  9
$DIMAPOST
  1

  9
$DIMALT
 70
     0
  9
$DIMALTD
 70
     2
  9
$DIMALTF
 40
25.4
  9
$DIMLFAC
 40
1.0
  9
$DIMTOFL
 70
     0
  9
$DIMTVP
 40
0.0
  9
$DIMTIX
 70
     0
  9
$DIMSOXD
 70
     0
  9
$DIMSAH
 70
     0
  9
$DIMBLK1
  1

  9
$DIMBLK2
  1

  9
$DIMSTYLE
  2
STANDARD
  9
$DIMCLRD
 70
     0
  9
$DIMCLRE
 70
     0
  9
$DIMCLRT
 70
     0
  9
$DIMTFAC
 40
1.0
  9
$DIMGAP
 40
0.09
  9
$DIMJUST
 70
     0
  9
$DIMSD1
 70
     0
  9
$DIMSD2
 70
     0
  9
$DIMTOLJ
 70
     1
  9
$DIMTZIN
 70
     0
  9
$DIMALTZ
 70
     0
  9
$DIMALTTZ
 70
     0
  9
$DIMFIT
 70
     3
  9
$DIMUPT
 70
     0
  9
$DIMUNIT
 70
     2
  9
$DIMDEC
 70
     4
  9
$DIMTDEC
 70
     4
  9
$DIMALTU
 70
     2
  9
$DIMALTTD
 70
     2
  9
$DIMTXSTY
  7
STANDARD
  9
$DIMAUNIT
 70
     0
  9
$LUNITS
 70
     2
  9
$LUPREC
 70
     4
  9
$SKETCHINC
 40
0.1
  9
$FILLETRAD
 40
0.5
  9
$AUNITS
 70
     0
  9
$AUPREC
 70
     0
  9
$MENU
  1
.
  9
$ELEVATION
 40
0.0
  9
$PELEVATION
 40
0.0
  9
$THICKNESS
 40
0.0
  9
$LIMCHECK
 70
     0
  9
$CHAMFERA
 40
0.0
  9
$CHAMFERB
 40
0.0
  9
$CHAMFERC
 40
0.0
  9
$CHAMFERD
 40
0.0
  9
$SKPOLY
 70
     0
  9
$TDCREATE
 40
2458727.665174815
  9
$TDUPDATE
 40
2458727.665175081
  9
$TDINDWG
 40
0.0000000116
  9
$TDUSRTIMER
 40
0.0000000116
  9
$USRTIMER
 70
     1
  9
$ANGBASE
 50
0.0
  9
$ANGDIR
 70
     0
  9
$PDMODE
 70
     0
  9
$PDSIZE
 40
0.0
  9
$PLINEWID
 40
0.0
  9
$COORDS
 70
     1
  9
$SPLFRAME
 70
     0
  9
$SPLINETYPE
 70
     6
  9
$SPLINESEGS
 70
     8
  9
$ATTDIA
 70
     0
  9
$ATTREQ
 70
     1
  9
$HANDLING
 70
     1
  9
$HANDSEED
  5
230
  9
$SURFTAB1
 70
     6
  9
$SURFTAB2
 70
     6
  9
$SURFTYPE
 70
     6
  9
$SURFU
 70
     6
  9
$SURFV
 70
     6
  9
$UCSNAME
  2

  9
$UCSORG
 10
0.0
 20
0.0
 30
0.0
  9
$UCSXDIR
 10
1.0
 20
0.0
 30
0.0
  9
$UCSYDIR
 10
0.0
 20
1.0
 30
0.0
  9
$PUCSNAME
  2

  9
$PUCSORG
 10
0.0
 20
0.0
 30
0.0
  9
$PUCSXDIR
 10
1.0
 20
0.0
 30
0.0
  9
$PUCSYDIR
 10
0.0
 20
1.0
 30
0.0
  9
$USERI1
 70
     0
  9
$USERI2
 70
     0
  9
$USERI3
 70
     0
  9
$USERI4
 70
     0
  9
$USERI5
 70
     0
  9
$USERR1
 40
0.0
  9
$USERR2
 40
0.0
  9
$USERR3
 40
0.0
  9
$USERR4
 40
0.0
  9
$USERR5
 40
0.0
  9
$WORLDVIEW
 70
     1
  9
$SHADEDGE
 70
     3
  9
$SHADEDIF
 70
    70
  9
$TILEMODE
 70
     1
  9
$MAXACTVP
 70
    64
  9
$PINSBASE
 10
0.0
 20
0.0
 30
0.0
  9
$PLIMCHECK
 70
     0
  9
$PEXTMIN
 10
1.000000000000000E+20
 20
1.000000000000000E+20
 30
1.000000000000000E+20
  9
$PEXTMAX
 10
-1.000000000000000E+20
 20
-1.000000000000000E+20
 30
-1.000000000000000E+20
  9
$PLIMMIN
 10
0.0
 20
0.0
  9
$PLIMMAX
 10
12.0
 20
9.0
  9
$UNITMODE
 70
     0
  9
$VISRETAIN
 70
     1
  9
$PLINEGEN
 70
     0
  9
$PSLTSCALE
 70
     1
  9
$TREEDEPTH
 70
  3020
  9
$PICKSTYLE
 70
     1
  9
$CMLSTYLE
  2
STANDARD
  9
$CMLJUST
 70
     0
  9
$CMLSCALE
 40
1.0
  9
$PROXYGRAPHICS
 70
     1
  9
$MEASUREMENT
 70
     1
  0
ENDSEC
  0
SECTION
  2
CLASSES
  0
CLASS
  1
ACDBDICTIONARYWDFLT
  2
AcDbDictionaryWithDefault
  3
ObjectDBX Classes
 90
        0
280
     0
281
     0
  0
CLASS
  1
VISUALSTYLE
  2
AcDbVisualStyle
  3
ObjectDBX Classes
 90
     4095
280
     0
281
     0
  0
CLASS
  1
MATERIAL
  2
AcDbMaterial
  3
ObjectDBX Classes
 90
     1153
280
     0
281
     0
  0
CLASS
  1
SCALE
  2
AcDbScale
  3
ObjectDBX Classes
 90
     1153
280
     0
281
     0
  0
CLASS
  1
TABLESTYLE
  2
AcDbTableStyle
  3
ObjectDBX Classes
 90
     4095
280
     0
281
     0
  0
CLASS
  1
MLEADERSTYLE
  2
AcDbMLeaderStyle
  3
ACDB_MLEADERSTYLE_CLASS
 90
     4095
280
     0
281
     0
  0
CLASS
  1
SUN
  2
AcDbSun
  3
SCENEOE
 90
     1153
280
     0
281
     0
  0
CLASS
  1
DICTIONARYVAR
  2
AcDbDictionaryVar
  3
ObjectDBX Classes
 90
        0
280
     0
281
     0
  0
CLASS
  1
XRECORD
  2
AcDbXrecord
  3
ObjectDBX Classes
 90
        0
280
     0
281
     0
  0
CLASS
  1
LWPOLYLINE
  2
AcDbPolyline
  3
ObjectDBX Classes
 90
        0
280
     0
281
     1
  0
CLASS
  1
HATCH
  2
AcDbHatch
  3
ObjectDBX Classes
 90
        0
280
     0
281
     1
  0
CLASS
  1
ACDBPLACEHOLDER
  2
AcDbPlaceHolder
  3
ObjectDBX Classes
 90
        0
280
     0
281
     0
  0
CLASS
  1
LAYOUT
  2
AcDbLayout
  3
ObjectDBX Classes
 90
        0
280
     0
281
     0
  0
ENDSEC
  0
SECTION
  2
TABLES
  0
TABLE
  2
VPORT
  5
8
102
{ACAD_XDICTIONARY
360
225
102
}
330
0
100
AcDbSymbolTable
 70
     1
  0
VPORT
  5
29
330
8
100
AcDbSymbolTableRecord
100
AcDbViewportTableRecord
  2
*ACTIVE
 70
     0
 10
0.0
 20
0.0
 11
1.0
 21
1.0
 12
0.0
 22
0.0
 13
0.0
 23
0.0
 14
0.5
 24
0.5
 15
0.5
 25
0.5
 16
0.0
 26
0.0
 36
1.0
 17
0.0
 27
0.0
 37
-1000.0
 40
93.24888896195563
 41
1.75
 42
50.0
 43
263.7492550850669
 44
350.3002006595264
 50
0.0
 51
0.0
 71
     0
 72
   100
 73
     1
 74
     3
 75
     0
 76
     0
 77
     0
 78
     0
  0
ENDTAB
  0
TABLE
  2
LTYPE
  5
5
330
0
100
AcDbSymbolTable
 70
     1
  0
LTYPE
  5
14
330
5
100
AcDbSymbolTableRecord
100
AcDbLinetypeTableRecord
  2
BYBLOCK
 70
     0
  3

 72
    65
 73
     0
 40
0.0
  0
LTYPE
  5
15
330
5
100
AcDbSymbolTableRecord
100
AcDbLinetypeTableRecord
  2
BYLAYER
 70
     0
  3

 72
    65
 73
     0
 40
0.0
  0
LTYPE
  5
16
330
5
100
AcDbSymbolTableRecord
100
AcDbLinetypeTableRecord
  2
CONTINUOUS
 70
     0
  3
Solid line
 72
    65
 73
     0
 40
0.0
  0
ENDTAB
  0
TABLE
  2
LAYER
  5
2
330
0
100
AcDbSymbolTable
 70
     3
  0
LAYER
  5
10
330
2
100
AcDbSymbolTableRecord
100
AcDbLayerTableRecord
  2
0
 70
     0
 62
     7
  6
CONTINUOUS
  0
LAYER
  5
6E
330
2
100
AcDbSymbolTableRecord
100
AcDbLayerTableRecord
  2
PROFILEEDGES
 70
     0
 62
     7
  6
CONTINUOUS
  0
LAYER
  5
6F
330
2
100
AcDbSymbolTableRecord
100
AcDbLayerTableRecord
  2
SECTIONCUTEDGES
 70
     0
 62
     7
  6
CONTINUOUS
  0
ENDTAB
  0
TABLE
  2
STYLE
  5
3
330
0
100
AcDbSymbolTable
 70
     1
  0
STYLE
  5
11
330
3
100
AcDbSymbolTableRecord
100
AcDbTextStyleTableRecord
  2
STANDARD
 70
     0
 40
0.0
 41
1.0
 50
0.0
 71
     0
 42
0.2
  3
txt
  4

  0
ENDTAB
  0
TABLE
  2
VIEW
  5
6
330
0
100
AcDbSymbolTable
 70
     0
  0
ENDTAB
  0
TABLE
  2
UCS
  5
7
330
0
100
AcDbSymbolTable
 70
     0
  0
ENDTAB
  0
TABLE
  2
APPID
  5
9
330
0
100
AcDbSymbolTable
 70
     2
  0
APPID
  5
12
330
9
100
AcDbSymbolTableRecord
100
AcDbRegAppTableRecord
  2
ACAD
 70
     0
  0
APPID
  5
22F
330
9
100
AcDbSymbolTableRecord
100
AcDbRegAppTableRecord
  2
ACAD_MLEADERVER
 70
     0
  0
ENDTAB
  0
TABLE
  2
DIMSTYLE
  5
A
330
0
100
AcDbSymbolTable
 70
     1
  0
DIMSTYLE
105
27
330
A
100
AcDbSymbolTableRecord
100
AcDbDimStyleTableRecord
  2
STANDARD
 70
     0
  3

  4

  5

  6

  7

 40
1.0
 41
0.18
 42
0.0625
 43
0.38
 44
0.18
 45
0.0
 46
0.0
 47
0.0
 48
0.0
140
0.18
141
0.09
142
0.0
143
25.4
144
1.0
145
0.0
146
1.0
147
0.09
 71
     0
 72
     0
 73
     1
 74
     1
 75
     0
 76
     0
 77
     0
 78
     0
170
     0
171
     2
172
     0
173
     0
174
     0
175
     0
176
     0
177
     0
178
     0
270
     2
271
     4
272
     4
273
     2
274
     2
340
11
275
     0
280
     0
281
     0
282
     0
283
     1
284
     0
285
     0
286
     0
287
     3
288
     0
  0
ENDTAB
  0
TABLE
  2
BLOCK_RECORD
  5
1
330
0
100
AcDbSymbolTable
 70
     1
  0
BLOCK_RECORD
  5
1F
330
1
100
AcDbSymbolTableRecord
100
AcDbBlockTableRecord
  2
*MODEL_SPACE
  0
BLOCK_RECORD
  5
1B
330
1
100
AcDbSymbolTableRecord
100
AcDbBlockTableRecord
  2
*PAPER_SPACE
  0
ENDTAB
  0
ENDSEC
  0
SECTION
  2
BLOCKS
  0
BLOCK
  5
20
330
1F
100
AcDbEntity
  8
0
100
AcDbBlockBegin
  2
*MODEL_SPACE
 70
     0
 10
0.0
 20
0.0
 30
0.0
  3
*MODEL_SPACE
  1

  0
ENDBLK
  5
21
330
1F
100
AcDbEntity
  8
0
100
AcDbBlockEnd
  0
BLOCK
  5
1C
330
1B
100
AcDbEntity
 67
     1
  8
0
100
AcDbBlockBegin
  2
*PAPER_SPACE
 70
     0
 10
0.0
 20
0.0
 30
0.0
  3
*PAPER_SPACE
  1

  0
ENDBLK
  5
1D
330
1B
100
AcDbEntity
 67
     1
  8
0
100
AcDbBlockEnd
  0
ENDSEC
  0
SECTION
  2
ENTITIES
  0
LINE
  5
70
330
1F
100
AcDbEntity
  8
0
100
AcDbLine
 10
-42.05814232712297
 20
39.05654410145777
 30
0.0
 11
-42.20237699525613
 21
38.83214073045514
 31
0.0
  0
LINE
  5
71
330
1F
100
AcDbEntity
  8
0
100
AcDbLine
 10
-42.37756051768496
 20
38.3299393738933
 30
0.0
 11
-42.40419659782525
 21
38.06451337112113
 31
0.0
  0
LINE
  5
72
330
1F
100
AcDbEntity
  8
0
100
AcDbLine
 10
-42.23552321887071
 20
37.28892709872117
 30
0.0
 11
-42.10105847197833
 21
37.0585374451076
 31
0.0
  0
LINE
  5
73
330
1F
100
AcDbEntity
  8
0
100
AcDbLine
 10
-35.21815792097727
 20
29.84320921558398
 30
0.0
 11
14.10825487870954
 21
-20.42920533494909
 31
0.0
  0
LINE
  5
74
330
1F
100
AcDbEntity
  8
0
100
AcDbLine
 10
14.94310646775302
 20
-21.37480238007324
 30
0.0
 11
15.31415380487657
 21
-21.88519865187296
 31
0.0
  0
LINE
  5
75
330
1F
100
AcDbEntity
  8
0
100
AcDbLine
 10
15.65227122888725
 20
-22.4179730557891
 30
0.0
 11
15.95611555512558
 21
-22.97101768214233
 31
0.0
  0
LINE
  5
76
330
1F
100
AcDbEntity
  8
0
100
AcDbLine
 10
15.95611555512558
 20
-22.97101768214233
 30
0.0
 11
16.22446985744193
 21
-23.54212279467818
 31
0.0
  0
LINE
  5
77
330
1F
100
AcDbEntity
  8
0
100
AcDbLine
 10
16.22446985744193
 20
-23.54212279467818
 30
0.0
 11
16.45627593572615
 21
-24.12902394787242
 31
0.0
  0
LINE
  5
78
330
1F
100
AcDbEntity
  8
0
100
AcDbLine
 10
16.65060123601554
 20
-24.72937011612222
 30
0.0
 11
16.80667894127244
 21
-25.34077111723269
 31
0.0
  0
LINE
  5
79
330
1F
100
AcDbEntity
  8
0
100
AcDbLine
 10
-42.20237699525613
 20
38.83214073045514
 30
0.0
 11
-42.30972942685892
 21
38.58793452374898
 31
0.0
  0
LINE
  5
7A
330
1F
100
AcDbEntity
  8
0
100
AcDbLine
 10
16.45627593572615
 20
-24.12902394787242
 30
0.0
 11
16.65060123601554
 21
-24.72937011612222
 31
0.0
  0
LINE
  5
7B
330
1F
100
AcDbEntity
  8
0
100
AcDbLine
 10
-42.33229326090571
 20
37.5375177557568
 30
0.0
 11
-42.23552321887071
 21
37.28892709872117
 31
0.0
  0
LINE
  5
7C
330
1F
100
AcDbEntity
  8
0
100
AcDbLine
 10
-42.38898221336718
 20
37.7981853057224
 30
0.0
 11
-42.33229326090571
 21
37.5375177557568
 31
0.0
  0
LINE
  5
7D
330
1F
100
AcDbEntity
  8
0
100
AcDbLine
 10
16.96508916217495
 20
-26.14884292754892
 30
0.0
 11
17.08324450018306
 21
-26.96376575500441
 31
0.0
  0
LINE
  5
7E
330
1F
100
AcDbEntity
  8
0
100
AcDbLine
 10
17.08324450018306
 20
-26.96376575500441
 30
0.0
 11
17.16085452870754
 21
-27.78355032850949
 31
0.0
  0
LINE
  5
7F
330
1F
100
AcDbEntity
  8
0
100
AcDbLine
 10
-37.11453109060231
 20
43.82123416765887
 30
0.0
 11
-42.05814232712297
 21
39.05654410145777
 31
0.0
  0
LINE
  5
80
330
1F
100
AcDbEntity
  8
0
100
AcDbLine
 10
-42.30972942685892
 20
38.58793452374898
 30
0.0
 11
-42.37756051768496
 21
38.3299393738933
 31
0.0
  0
LINE
  5
81
330
1F
100
AcDbEntity
  8
0
100
AcDbLine
 10
-42.40419659782525
 20
38.06451337112113
 30
0.0
 11
-42.38898221336718
 21
37.7981853057224
 31
0.0
  0
LINE
  5
82
330
1F
100
AcDbEntity
  8
0
100
AcDbLine
 10
-42.10105847197833
 20
37.0585374451076
 30
0.0
 11
-41.93220660274314
 21
36.85201741183199
 31
0.0
  0
LINE
  5
83
330
1F
100
AcDbEntity
  8
0
100
AcDbLine
 10
-41.93220660274314
 20
36.85201741183199
 30
0.0
 11
-35.21815792097727
 21
29.84320921558398
 31
0.0
  0
LINE
  5
84
330
1F
100
AcDbEntity
  8
0
100
AcDbLine
 10
14.10825487870954
 20
-20.42920533494909
 30
0.0
 11
14.54060475302802
 21
-20.88882874591668
 31
0.0
  0
LINE
  5
85
330
1F
100
AcDbEntity
  8
0
100
AcDbLine
 10
14.54060475302802
 20
-20.88882874591668
 30
0.0
 11
14.94310646775302
 21
-21.37480238007324
 31
0.0
  0
LINE
  5
86
330
1F
100
AcDbEntity
  8
0
100
AcDbLine
 10
15.31415380487657
 20
-21.88519865187296
 30
0.0
 11
15.65227122888725
 21
-22.4179730557891
 31
0.0
  0
LINE
  5
87
330
1F
100
AcDbEntity
  8
0
100
AcDbLine
 10
16.80667894127244
 20
-25.34077111723269
 30
0.0
 11
16.96508916217495
 21
-26.14884292754892
 31
0.0
  0
LINE
  5
88
330
1F
100
AcDbEntity
  8
0
100
AcDbLine
 10
17.16085452870754
 20
-27.78355032850949
 30
0.0
 11
17.19772564266882
 21
-28.60617308799917
 31
0.0
  0
LINE
  5
89
330
1F
100
AcDbEntity
  8
0
100
AcDbLine
 10
17.19772564266882
 20
-28.60617308799917
 30
0.0
 11
17.19377126864407
 21
-29.42960713669798
 31
0.0
  0
LINE
  5
8A
330
1F
100
AcDbEntity
  8
0
100
AcDbLine
 10
17.19377126864407
 20
-29.42960713669798
 30
0.0
 11
17.16071911238174
 21
-29.81366852632774
 31
0.0
  0
LINE
  5
8B
330
1F
100
AcDbEntity
  8
0
100
AcDbLine
 10
17.16071911238174
 20
-29.81366852632774
 30
0.0
 11
17.17010656025922
 21
-30.19902978261477
 31
0.0
  0
LINE
  5
8C
330
1F
100
AcDbEntity
  8
0
100
AcDbLine
 10
17.17010656025922
 20
-30.19902978261477
 30
0.0
 11
17.22181164130215
 21
-30.58102832378246
 31
0.0
  0
LINE
  5
8D
330
1F
100
AcDbEntity
  8
0
100
AcDbLine
 10
17.22181164130215
 20
-30.58102832378246
 30
0.0
 11
17.31521153086907
 21
-30.95501962942189
 31
0.0
  0
LINE
  5
8E
330
1F
100
AcDbEntity
  8
0
100
AcDbLine
 10
17.31521153086907
 20
-30.95501962942189
 30
0.0
 11
17.44917475867082
 21
-31.31647618962817
 31
0.0
  0
LINE
  5
8F
330
1F
100
AcDbEntity
  8
0
100
AcDbLine
 10
17.44917475867082
 20
-31.31647618962817
 30
0.0
 11
17.62207203128031
 21
-31.66100321076901
 31
0.0
  0
LINE
  5
90
330
1F
100
AcDbEntity
  8
0
100
AcDbLine
 10
17.62207203128031
 20
-31.66100321076901
 30
0.0
 11
17.83181067419837
 21
-31.98443162537034
 31
0.0
  0
LINE
  5
91
330
1F
100
AcDbEntity
  8
0
100
AcDbLine
 10
17.83181067419837
 20
-31.98443162537034
 30
0.0
 11
18.07584545436375
 21
-32.28283379788437
 31
0.0
  0
LINE
  5
92
330
1F
100
AcDbEntity
  8
0
100
AcDbLine
 10
18.07584545436375
 20
-32.28283379788437
 30
0.0
 11
18.35121424694393
 21
-32.55258604158227
 31
0.0
  0
LINE
  5
93
330
1F
100
AcDbEntity
  8
0
100
AcDbLine
 10
18.35121424694393
 20
-32.55258604158227
 30
0.0
 11
18.65457781993182
 21
-32.79042366528904
 31
0.0
  0
LINE
  5
94
330
1F
100
AcDbEntity
  8
0
100
AcDbLine
 10
18.65457781993182
 20
-32.79042366528904
 30
0.0
 11
18.98225383258142
 21
-32.99344997444719
 31
0.0
  0
LINE
  5
95
330
1F
100
AcDbEntity
  8
0
100
AcDbLine
 10
18.98225383258142
 20
-32.99344997444719
 30
0.0
 11
19.33027064177571
 21
-33.15922242320753
 31
0.0
  0
LINE
  5
96
330
1F
100
AcDbEntity
  8
0
100
AcDbLine
 10
19.33027064177571
 20
-33.15922242320753
 30
0.0
 11
19.69440725535571
 21
-33.28570840584558
 31
0.0
  0
LINE
  5
97
330
1F
100
AcDbEntity
  8
0
100
AcDbLine
 10
19.69440725535571
 20
-33.28570840584558
 30
0.0
 11
20.07024652612558
 21
-33.37138665534894
 31
0.0
  0
LINE
  5
98
330
1F
100
AcDbEntity
  8
0
100
AcDbLine
 10
20.07024652612558
 20
-33.37138665534894
 30
0.0
 11
20.56898937009757
 21
-33.47850163667153
 31
0.0
  0
LINE
  5
99
330
1F
100
AcDbEntity
  8
0
100
AcDbLine
 10
20.56898937009757
 20
-33.47850163667153
 30
0.0
 11
21.05683011642534
 21
-33.62759420124046
 31
0.0
  0
LINE
  5
9A
330
1F
100
AcDbEntity
  8
0
100
AcDbLine
 10
21.05683011642534
 20
-33.62759420124046
 30
0.0
 11
21.53024225066626
 21
-33.81759117302123
 31
0.0
  0
LINE
  5
9B
330
1F
100
AcDbEntity
  8
0
100
AcDbLine
 10
21.53024225066626
 20
-33.81759117302123
 30
0.0
 11
21.98580329078915
 21
-34.04711049697604
 31
0.0
  0
LINE
  5
9C
330
1F
100
AcDbEntity
  8
0
100
AcDbLine
 10
21.98580329078915
 20
-34.04711049697604
 30
0.0
 11
22.420227560885
 21
-34.31450073312119
 31
0.0
  0
LINE
  5
9D
330
1F
100
AcDbEntity
  8
0
100
AcDbLine
 10
22.420227560885
 20
-34.31450073312119
 30
0.0
 11
22.83036329808678
 21
-34.61781803369141
 31
0.0
  0
LINE
  5
9E
330
1F
100
AcDbEntity
  8
0
100
AcDbLine
 10
22.83036329808678
 20
-34.61781803369141
 30
0.0
 11
23.21325530691056
 21
-34.95488210841879
 31
0.0
  0
LINE
  5
9F
330
1F
100
AcDbEntity
  8
0
100
AcDbLine
 10
23.21325530691056
 20
-34.95488210841879
 30
0.0
 11
23.56613444292699
 21
-35.32325289551589
 31
0.0
  0
LINE
  5
A0
330
1F
100
AcDbEntity
  8
0
100
AcDbLine
 10
23.56613444292699
 20
-35.32325289551589
 30
0.0
 11
23.88644306940508
 21
-35.7202621263032
 31
0.0
  0
LINE
  5
A1
330
1F
100
AcDbEntity
  8
0
100
AcDbLine
 10
23.88644306940508
 20
-35.7202621263032
 30
0.0
 11
24.17187576045248
 21
-36.14304550219942
 31
0.0
  0
LINE
  5
A2
330
1F
100
AcDbEntity
  8
0
100
AcDbLine
 10
24.17187576045248
 20
-36.14304550219942
 30
0.0
 11
24.4203599367136
 21
-36.5885495525162
 31
0.0
  0
LINE
  5
A3
330
1F
100
AcDbEntity
  8
0
100
AcDbLine
 10
24.4203599367136
 20
-36.5885495525162
 30
0.0
 11
24.63010861574471
 21
-37.05354902422383
 31
0.0
  0
LINE
  5
A4
330
1F
100
AcDbEntity
  8
0
100
AcDbLine
 10
24.63010861574471
 20
-37.05354902422383
 30
0.0
 11
24.79959982298708
 21
-37.53468423273938
 31
0.0
  0
LINE
  5
A5
330
1F
100
AcDbEntity
  8
0
100
AcDbLine
 10
24.79959982298708
 20
-37.53468423273938
 30
0.0
 11
24.92760677857861
 21
-38.02846990989971
 31
0.0
  0
LINE
  5
A6
330
1F
100
AcDbEntity
  8
0
100
AcDbLine
 10
24.92760677857861
 20
-38.02846990989971
 30
0.0
 11
25.0132106944001
 21
-38.53135680231043
 31
0.0
  0
LINE
  5
A7
330
1F
100
AcDbEntity
  8
0
100
AcDbLine
 10
25.0132106944001
 20
-38.53135680231043
 30
0.0
 11
25.08109563462918
 21
-38.90394154443556
 31
0.0
  0
LINE
  5
A8
330
1F
100
AcDbEntity
  8
0
100
AcDbLine
 10
25.08109563462918
 20
-38.90394154443556
 30
0.0
 11
25.18883826209026
 21
-39.26701741756117
 31
0.0
  0
LINE
  5
A9
330
1F
100
AcDbEntity
  8
0
100
AcDbLine
 10
25.18883826209026
 20
-39.26701741756117
 30
0.0
 11
25.33517822980154
 21
-39.61631897966159
 31
0.0
  0
LINE
  5
AA
330
1F
100
AcDbEntity
  8
0
100
AcDbLine
 10
25.33517822980154
 20
-39.61631897966159
 30
0.0
 11
25.51840477548793
 21
-39.94776885789966
 31
0.0
  0
LINE
  5
AB
330
1F
100
AcDbEntity
  8
0
100
AcDbLine
 10
25.51840477548793
 20
-39.94776885789966
 30
0.0
 11
25.73636815645337
 21
-40.25747820789891
 31
0.0
  0
LINE
  5
AC
330
1F
100
AcDbEntity
  8
0
100
AcDbLine
 10
25.73636815645337
 20
-40.25747820789891
 30
0.0
 11
25.98652202107665
 21
-40.54183240656205
 31
0.0
  0
LINE
  5
AD
330
1F
100
AcDbEntity
  8
0
100
AcDbLine
 10
25.98652202107665
 20
-40.54183240656205
 30
0.0
 11
26.26593514986464
 21
-40.79748388809436
 31
0.0
  0
LINE
  5
AE
330
1F
100
AcDbEntity
  8
0
100
AcDbLine
 10
26.26593514986464
 20
-40.79748388809436
 30
0.0
 11
26.57133321458537
 21
-41.02145308331887
 31
0.0
  0
LINE
  5
AF
330
1F
100
AcDbEntity
  8
0
100
AcDbLine
 10
26.57133321458537
 20
-41.02145308331887
 30
0.0
 11
26.89914543630157
 21
-41.21110738701934
 31
0.0
  0
LINE
  5
B0
330
1F
100
AcDbEntity
  8
0
100
AcDbLine
 10
26.89914543630157
 20
-41.21110738701934
 30
0.0
 11
27.24552820492633
 21
-41.36423846205712
 31
0.0
  0
LINE
  5
B1
330
1F
100
AcDbEntity
  8
0
100
AcDbLine
 10
27.24552820492633
 20
-41.36423846205712
 30
0.0
 11
27.60642667757218
 21
-41.47904944232488
 31
0.0
  0
LINE
  5
B2
330
1F
100
AcDbEntity
  8
0
100
AcDbLine
 10
27.60642667757218
 20
-41.47904944232488
 30
0.0
 11
38.02561771208785
 21
-44.18238809763845
 31
0.0
  0
LINE
  5
B3
330
1F
100
AcDbEntity
  8
0
100
AcDbLine
 10
38.02561771208785
 20
-44.18238809763845
 30
0.0
 11
38.41349260653694
 21
-44.25993685210214
 31
0.0
  0
LINE
  5
B4
330
1F
100
AcDbEntity
  8
0
100
AcDbLine
 10
38.41349260653694
 20
-44.25993685210214
 30
0.0
 11
38.80763881943689
 21
-44.29322225692892
 31
0.0
  0
LINE
  5
B5
330
1F
100
AcDbEntity
  8
0
100
AcDbLine
 10
38.80763881943689
 20
-44.29322225692892
 30
0.0
 11
39.20302245132492
 21
-44.2818206990037
 31
0.0
  0
LINE
  5
B6
330
1F
100
AcDbEntity
  8
0
100
AcDbLine
 10
39.20302245132492
 20
-44.2818206990037
 30
0.0
 11
39.59459807401474
 21
-44.22588076810232
 31
0.0
  0
LINE
  5
B7
330
1F
100
AcDbEntity
  8
0
100
AcDbLine
 10
39.59459807401474
 20
-44.22588076810232
 30
0.0
 11
39.9773588940728
 21
-44.12611000057353
 31
0.0
  0
LINE
  5
B8
330
1F
100
AcDbEntity
  8
0
100
AcDbLine
 10
39.9773588940728
 20
-44.12611000057353
 30
0.0
 11
40.34641999618642
 21
-43.98379349382912
 31
0.0
  0
LINE
  5
B9
330
1F
100
AcDbEntity
  8
0
100
AcDbLine
 10
40.34641999618642
 20
-43.98379349382912
 30
0.0
 11
40.69706622592236
 21
-43.80074238069432
 31
0.0
  0
LINE
  5
BA
330
1F
100
AcDbEntity
  8
0
100
AcDbLine
 10
40.69706622592236
 20
-43.80074238069432
 30
0.0
 11
41.02481698733698
 21
-43.57929643194846
 31
0.0
  0
LINE
  5
BB
330
1F
100
AcDbEntity
  8
0
100
AcDbLine
 10
41.02481698733698
 20
-43.57929643194846
 30
0.0
 11
41.32548875986857
 21
-43.32228838953368
 31
0.0
  0
LINE
  5
BC
330
1F
100
AcDbEntity
  8
0
100
AcDbLine
 10
41.32548875986857
 20
-43.32228838953368
 30
0.0
 11
41.59523947565311
 21
-43.03298466456648
 31
0.0
  0
LINE
  5
BD
330
1F
100
AcDbEntity
  8
0
100
AcDbLine
 10
41.59523947565311
 20
-43.03298466456648
 30
0.0
 11
41.83062919932879
 21
-42.71509541003555
 31
0.0
  0
LINE
  5
BE
330
1F
100
AcDbEntity
  8
0
100
AcDbLine
 10
41.83062919932879
 20
-42.71509541003555
 30
0.0
 11
42.02864286033228
 21
-42.37268380727659
 31
0.0
  0
LINE
  5
BF
330
1F
100
AcDbEntity
  8
0
100
AcDbLine
 10
42.02864286033228
 20
-42.37268380727659
 30
0.0
 11
42.18675749995894
 21
-42.01010768252656
 31
0.0
  0
LINE
  5
C0
330
1F
100
AcDbEntity
  8
0
100
AcDbLine
 10
42.18675749995894
 20
-42.01010768252656
 30
0.0
 11
42.30295020079237
 21
-41.63201218985703
 31
0.0
  0
LINE
  5
C1
330
1F
100
AcDbEntity
  8
0
100
AcDbLine
 10
42.30295020079237
 20
-41.63201218985703
 30
0.0
 11
42.3757407956648
 21
-41.24321699335684
 31
0.0
  0
LINE
  5
C2
330
1F
100
AcDbEntity
  8
0
100
AcDbLine
 10
42.3757407956648
 20
-41.24321699335684
 30
0.0
 11
42.40419659782525
 21
-40.84869355047756
 31
0.0
  0
LINE
  5
C3
330
1F
100
AcDbEntity
  8
0
100
AcDbLine
 10
42.40419659782525
 20
-40.84869355047756
 30
0.0
 11
42.38795513323535
 21
-40.4534743985082
 31
0.0
  0
LINE
  5
C4
330
1F
100
AcDbEntity
  8
0
100
AcDbLine
 10
42.38795513323535
 20
-40.4534743985082
 30
0.0
 11
42.32722567147562
 21
-40.06261503833345
 31
0.0
  0
LINE
  5
C5
330
1F
100
AcDbEntity
  8
0
100
AcDbLine
 10
42.32722567147562
 20
-40.06261503833345
 30
0.0
 11
40.07612748089539
 21
-29.53644922629543
 31
0.0
  0
LINE
  5
C6
330
1F
100
AcDbEntity
  8
0
100
AcDbLine
 10
40.07612748089539
 20
-29.53644922629543
 30
0.0
 11
39.97700415465208
 21
-29.17093256586391
 31
0.0
  0
LINE
  5
C7
330
1F
100
AcDbEntity
  8
0
100
AcDbLine
 10
39.97700415465208
 20
-29.17093256586391
 30
0.0
 11
39.8389695604924
 21
-28.81826134232843
 31
0.0
  0
LINE
  5
C8
330
1F
100
AcDbEntity
  8
0
100
AcDbLine
 10
39.8389695604924
 20
-28.81826134232843
 30
0.0
 11
39.66363672063796
 21
-28.48257008724606
 31
0.0
  0
LINE
  5
C9
330
1F
100
AcDbEntity
  8
0
100
AcDbLine
 10
39.66363672063796
 20
-28.48257008724606
 30
0.0
 11
39.45305825009387
 21
-28.1677895572168
 31
0.0
  0
LINE
  5
CA
330
1F
100
AcDbEntity
  8
0
100
AcDbLine
 10
39.45305825009387
 20
-28.1677895572168
 30
0.0
 11
39.20970532399161
 21
-27.8776000758502
 31
0.0
  0
LINE
  5
CB
330
1F
100
AcDbEntity
  8
0
100
AcDbLine
 10
33.57037988800377
 20
-24.84046350766654
 30
0.0
 11
30.83692671803984
 21
-23.17068855335303
 31
0.0
  0
LINE
  5
CC
330
1F
100
AcDbEntity
  8
0
100
AcDbLine
 10
28.16575668675815
 20
-21.4029879863958
 30
0.0
 11
27.68258591653748
 21
-21.05173959638243
 31
0.0
  0
LINE
  5
CD
330
1F
100
AcDbEntity
  8
0
100
AcDbLine
 10
27.68258591653748
 20
-21.05173959638243
 30
0.0
 11
25.5603763497181
 21
-19.53968234056003
 31
0.0
  0
LINE
  5
CE
330
1F
100
AcDbEntity
  8
0
100
AcDbLine
 10
25.5603763497181
 20
-19.53968234056003
 30
0.0
 11
23.02420589762189
 21
-17.58321765435878
 31
0.0
  0
LINE
  5
CF
330
1F
100
AcDbEntity
  8
0
100
AcDbLine
 10
23.02420589762189
 20
-17.58321765435878
 30
0.0
 11
22.69354262993961
 21
-17.30846629658278
 31
0.0
  0
LINE
  5
D0
330
1F
100
AcDbEntity
  8
0
100
AcDbLine
 10
22.69354262993961
 20
-17.30846629658278
 30
0.0
 11
22.66741263939846
 21
-17.29752052787391
 31
0.0
  0
LINE
  5
D1
330
1F
100
AcDbEntity
  8
0
100
AcDbLine
 10
22.66741263939846
 20
-17.29752052787391
 30
0.0
 11
20.56057466648867
 21
-15.53616226003665
 31
0.0
  0
LINE
  5
D2
330
1F
100
AcDbEntity
  8
0
100
AcDbLine
 10
20.56057466648867
 20
-15.53616226003665
 30
0.0
 11
18.17271676709713
 21
-13.40120341201362
 31
0.0
  0
LINE
  5
D3
330
1F
100
AcDbEntity
  8
0
100
AcDbLine
 10
18.17271676709713
 20
-13.40120341201362
 30
0.0
 11
16.95677059694755
 21
-12.23206890633104
 31
0.0
  0
LINE
  5
D4
330
1F
100
AcDbEntity
  8
0
100
AcDbLine
 10
16.95677059694755
 20
-12.23206890633104
 30
0.0
 11
-27.99687417436364
 21
36.76079937240791
 31
0.0
  0
LINE
  5
D5
330
1F
100
AcDbEntity
  8
0
100
AcDbLine
 10
-27.99687417436364
 20
36.76079937240791
 30
0.0
 11
-34.71092285612952
 21
43.76960756865588
 31
0.0
  0
LINE
  5
D6
330
1F
100
AcDbEntity
  8
0
100
AcDbLine
 10
-34.71092285612952
 20
43.76960756865588
 30
0.0
 11
-34.91000249516449
 21
43.94716981549337
 31
0.0
  0
LINE
  5
D7
330
1F
100
AcDbEntity
  8
0
100
AcDbLine
 10
-34.91000249516449
 20
43.94716981549337
 30
0.0
 11
-35.13440777197916
 21
44.09140456017188
 31
0.0
  0
LINE
  5
D8
330
1F
100
AcDbEntity
  8
0
100
AcDbLine
 10
-35.13440777197916
 20
44.09140456017188
 30
0.0
 11
-35.37861397868528
 21
44.19875699177464
 31
0.0
  0
LINE
  5
D9
330
1F
100
AcDbEntity
  8
0
100
AcDbLine
 10
-35.37861397868528
 20
44.19875699177464
 30
0.0
 11
-35.63660722272889
 21
44.26658800605534
 31
0.0
  0
LINE
  5
DA
330
1F
100
AcDbEntity
  8
0
100
AcDbLine
 10
-35.63660722272889
 20
44.26658800605534
 30
0.0
 11
-35.90203520785848
 21
44.29322225692892
 31
0.0
  0
LINE
  5
DB
330
1F
100
AcDbEntity
  8
0
100
AcDbLine
 10
-35.90203520785848
 20
44.29322225692892
 30
0.0
 11
-36.16836121435451
 21
44.27801160754968
 31
0.0
  0
LINE
  5
DC
330
1F
100
AcDbEntity
  8
0
100
AcDbLine
 10
-36.16836121435451
 20
44.27801160754968
 30
0.0
 11
-36.42902891741074
 21
44.22131884346404
 31
0.0
  0
LINE
  5
DD
330
1F
100
AcDbEntity
  8
0
100
AcDbLine
 10
-36.42902891741074
 20
44.22131884346404
 30
0.0
 11
-36.67761949790105
 21
44.12455070724113
 31
0.0
  0
LINE
  5
DE
330
1F
100
AcDbEntity
  8
0
100
AcDbLine
 10
-36.67761949790105
 20
44.12455070724113
 30
0.0
 11
-36.90801113387202
 21
43.990084131082
 31
0.0
  0
LINE
  5
DF
330
1F
100
AcDbEntity
  8
0
100
AcDbLine
 10
-36.90801113387202
 20
43.990084131082
 30
0.0
 11
-37.11453109060231
 21
43.82123416765887
 31
0.0
  0
LINE
  5
E0
330
1F
100
AcDbEntity
  8
0
100
AcDbLine
 10
29.63185661127654
 20
-39.13438769842175
 30
0.0
 11
29.43329576636024
 21
-39.31761437254936
 31
0.0
  0
LINE
  5
E1
330
1F
100
AcDbEntity
  8
0
100
AcDbLine
 10
29.43329576636024
 20
-39.31761437254936
 30
0.0
 11
29.20593349745774
 21
-39.46358340162023
 31
0.0
  0
LINE
  5
E2
330
1F
100
AcDbEntity
  8
0
100
AcDbLine
 10
29.20593349745774
 20
-39.46358340162023
 30
0.0
 11
28.95667922411608
 21
-39.56784589376236
 31
0.0
  0
LINE
  5
E3
330
1F
100
AcDbEntity
  8
0
100
AcDbLine
 10
28.95667922411608
 20
-39.56784589376236
 30
0.0
 11
28.69310431350181
 21
-39.62724704426329
 31
0.0
  0
LINE
  5
E4
330
1F
100
AcDbEntity
  8
0
100
AcDbLine
 10
28.69310431350181
 20
-39.62724704426329
 30
0.0
 11
28.4232226745568
 21
-39.63997077214158
 31
0.0
  0
LINE
  5
E5
330
1F
100
AcDbEntity
  8
0
100
AcDbLine
 10
28.4232226745568
 20
-39.63997077214158
 30
0.0
 11
28.15523078646256
 21
-39.60564381179778
 31
0.0
  0
LINE
  5
E6
330
1F
100
AcDbEntity
  8
0
100
AcDbLine
 10
28.15523078646256
 20
-39.60564381179778
 30
0.0
 11
27.89726879104533
 21
-39.52529557531111
 31
0.0
  0
LINE
  5
E7
330
1F
100
AcDbEntity
  8
0
100
AcDbLine
 10
27.89726879104533
 20
-39.52529557531111
 30
0.0
 11
27.65717913573105
 21
-39.40137900072227
 31
0.0
  0
LINE
  5
E8
330
1F
100
AcDbEntity
  8
0
100
AcDbLine
 10
27.65717913573105
 20
-39.40137900072227
 30
0.0
 11
27.44225578744796
 21
-39.23764594623668
 31
0.0
  0
LINE
  5
E9
330
1F
100
AcDbEntity
  8
0
100
AcDbLine
 10
27.44225578744796
 20
-39.23764594623668
 30
0.0
 11
27.25902911332037
 21
-39.03908510132039
 31
0.0
  0
LINE
  5
EA
330
1F
100
AcDbEntity
  8
0
100
AcDbLine
 10
27.25902911332037
 20
-39.03908510132039
 30
0.0
 11
27.11306770749772
 21
-38.81172313859913
 31
0.0
  0
LINE
  5
EB
330
1F
100
AcDbEntity
  8
0
100
AcDbLine
 10
27.11306770749772
 20
-38.81172313859913
 30
0.0
 11
27.00880125064081
 21
-38.56247252379094
 31
0.0
  0
LINE
  5
EC
330
1F
100
AcDbEntity
  8
0
100
AcDbLine
 10
27.00880125064081
 20
-38.56247252379094
 30
0.0
 11
26.949403911764
 21
-38.29889776626732
 31
0.0
  0
LINE
  5
ED
330
1F
100
AcDbEntity
  8
0
100
AcDbLine
 10
26.949403911764
 20
-38.29889776626732
 30
0.0
 11
26.93667621917092
 21
-38.02901978585578
 31
0.0
  0
LINE
  5
EE
330
1F
100
AcDbEntity
  8
0
100
AcDbLine
 10
26.93667621917092
 20
-38.02901978585578
 30
0.0
 11
26.9710071442295
 21
-37.76102423922809
 31
0.0
  0
LINE
  5
EF
330
1F
100
AcDbEntity
  8
0
100
AcDbLine
 10
26.9710071442295
 20
-37.76102423922809
 30
0.0
 11
27.05135156909206
 21
-37.50306209072023
 31
0.0
  0
LINE
  5
F0
330
1F
100
AcDbEntity
  8
0
100
AcDbLine
 10
27.05135156909206
 20
-37.50306209072023
 30
0.0
 11
27.17527180221442
 21
-37.26297640012068
 31
0.0
  0
LINE
  5
F1
330
1F
100
AcDbEntity
  8
0
100
AcDbLine
 10
27.17527180221442
 20
-37.26297640012068
 30
0.0
 11
27.33899723345178
 21
-37.04805274565632
 31
0.0
  0
LINE
  5
F2
330
1F
100
AcDbEntity
  8
0
100
AcDbLine
 10
27.33899723345178
 20
-37.04805274565632
 30
0.0
 11
27.53755807836806
 21
-36.86482607152875
 31
0.0
  0
LINE
  5
F3
330
1F
100
AcDbEntity
  8
0
100
AcDbLine
 10
27.53755807836806
 20
-36.86482607152875
 30
0.0
 11
27.76492004108927
 21
-36.71886466570606
 31
0.0
  0
LINE
  5
F4
330
1F
100
AcDbEntity
  8
0
100
AcDbLine
 10
27.76492004108927
 20
-36.71886466570606
 30
0.0
 11
28.01417462061219
 21
-36.61459455031567
 31
0.0
  0
LINE
  5
F5
330
1F
100
AcDbEntity
  8
0
100
AcDbLine
 10
28.01417462061219
 20
-36.61459455031567
 30
0.0
 11
28.27774953122648
 21
-36.55519339981474
 31
0.0
  0
LINE
  5
F6
330
1F
100
AcDbEntity
  8
0
100
AcDbLine
 10
28.27774953122648
 20
-36.55519339981474
 30
0.0
 11
28.5476311701715
 21
-36.54246967193645
 31
0.0
  0
LINE
  5
F7
330
1F
100
AcDbEntity
  8
0
100
AcDbLine
 10
28.5476311701715
 20
-36.54246967193645
 30
0.0
 11
28.81562305826572
 21
-36.57679663228025
 31
0.0
  0
LINE
  5
F8
330
1F
100
AcDbEntity
  8
0
100
AcDbLine
 10
28.81562305826572
 20
-36.57679663228025
 30
0.0
 11
29.07358505368297
 21
-36.65714486876691
 31
0.0
  0
LINE
  5
F9
330
1F
100
AcDbEntity
  8
0
100
AcDbLine
 10
29.07358505368297
 20
-36.65714486876691
 30
0.0
 11
29.31367440281596
 21
-36.78106906660405
 31
0.0
  0
LINE
  5
FA
330
1F
100
AcDbEntity
  8
0
100
AcDbLine
 10
29.31367440281596
 20
-36.78106906660405
 30
0.0
 11
29.52859805728034
 21
-36.94479449784144
 31
0.0
  0
LINE
  5
FB
330
1F
100
AcDbEntity
  8
0
100
AcDbLine
 10
29.52859805728034
 20
-36.94479449784144
 30
0.0
 11
29.71182473140793
 21
-37.14335534275767
 31
0.0
  0
LINE
  5
FC
330
1F
100
AcDbEntity
  8
0
100
AcDbLine
 10
29.71182473140793
 20
-37.14335534275767
 30
0.0
 11
29.85778613723058
 21
-37.37071730547888
 31
0.0
  0
LINE
  5
FD
330
1F
100
AcDbEntity
  8
0
100
AcDbLine
 10
29.85778613723058
 20
-37.37071730547888
 30
0.0
 11
29.96205259408751
 21
-37.61996792028709
 31
0.0
  0
LINE
  5
FE
330
1F
100
AcDbEntity
  8
0
100
AcDbLine
 10
29.96205259408751
 20
-37.61996792028709
 30
0.0
 11
30.02144993296427
 21
-37.88354267781075
 31
0.0
  0
LINE
  5
FF
330
1F
100
AcDbEntity
  8
0
100
AcDbLine
 10
30.02144993296427
 20
-37.88354267781075
 30
0.0
 11
30.03417731937609
 21
-38.15342828147047
 31
0.0
  0
LINE
  5
100
330
1F
100
AcDbEntity
  8
0
100
AcDbLine
 10
30.03417731937609
 20
-38.15342828147047
 30
0.0
 11
29.99984670049878
 21
-38.42141620484998
 31
0.0
  0
LINE
  5
101
330
1F
100
AcDbEntity
  8
0
100
AcDbLine
 10
29.99984670049878
 20
-38.42141620484998
 30
0.0
 11
29.91950227563626
 21
-38.6793783533578
 31
0.0
  0
LINE
  5
102
330
1F
100
AcDbEntity
  8
0
100
AcDbLine
 10
29.91950227563626
 20
-38.6793783533578
 30
0.0
 11
29.79558204251388
 21
-38.91946404395735
 31
0.0
  0
LINE
  5
103
330
1F
100
AcDbEntity
  8
0
100
AcDbLine
 10
29.79558204251388
 20
-38.91946404395735
 30
0.0
 11
29.63185661127654
 21
-39.13438769842175
 31
0.0
  0
LINE
  5
104
330
1F
100
AcDbEntity
  8
0
100
AcDbLine
 10
38.20412640628914
 20
-30.32706406601904
 30
0.0
 11
38.0894513625493
 21
-30.85301413790637
 31
0.0
  0
LINE
  5
105
330
1F
100
AcDbEntity
  8
0
100
AcDbLine
 10
38.0894513625493
 20
-30.85301413790637
 30
0.0
 11
37.96553082324566
 21
-31.09310745175414
 31
0.0
  0
LINE
  5
106
330
1F
100
AcDbEntity
  8
0
100
AcDbLine
 10
37.96553082324566
 20
-31.09310745175414
 30
0.0
 11
37.80180539200832
 21
-31.30803110621855
 31
0.0
  0
LINE
  5
107
330
1F
100
AcDbEntity
  8
0
100
AcDbLine
 10
37.80180539200832
 20
-31.30803110621855
 30
0.0
 11
37.60324454709205
 21
-31.49125778034615
 31
0.0
  0
LINE
  5
108
330
1F
100
AcDbEntity
  8
0
100
AcDbLine
 10
37.60324454709205
 20
-31.49125778034615
 30
0.0
 11
37.37588258437081
 21
-31.63721918616876
 31
0.0
  0
LINE
  5
109
330
1F
100
AcDbEntity
  8
0
100
AcDbLine
 10
37.37588258437081
 20
-31.63721918616876
 30
0.0
 11
37.12662800484787
 21
-31.74148930155916
 31
0.0
  0
LINE
  5
10A
330
1F
100
AcDbEntity
  8
0
100
AcDbLine
 10
37.12662800484787
 20
-31.74148930155916
 30
0.0
 11
36.86305340041488
 21
-31.80088282881187
 31
0.0
  0
LINE
  5
10B
330
1F
100
AcDbEntity
  8
0
100
AcDbLine
 10
36.86305340041488
 20
-31.80088282881187
 30
0.0
 11
36.59317145528856
 21
-31.81361417993837
 31
0.0
  0
LINE
  5
10C
330
1F
100
AcDbEntity
  8
0
100
AcDbLine
 10
36.59317145528856
 20
-31.81361417993837
 30
0.0
 11
36.32517987337562
 21
-31.77927959634635
 31
0.0
  0
LINE
  5
10D
330
1F
100
AcDbEntity
  8
0
100
AcDbLine
 10
36.32517987337562
 20
-31.77927959634635
 30
0.0
 11
36.06721757177711
 21
-31.6989389831079
 31
0.0
  0
LINE
  5
10E
330
1F
100
AcDbEntity
  8
0
100
AcDbLine
 10
36.06721757177711
 20
-31.6989389831079
 30
0.0
 11
35.82713203426824
 21
-31.57501493836143
 31
0.0
  0
LINE
  5
10F
330
1F
100
AcDbEntity
  8
0
100
AcDbLine
 10
35.82713203426824
 20
-31.57501493836143
 30
0.0
 11
35.61220837980385
 21
-31.41128950712411
 31
0.0
  0
LINE
  5
110
330
1F
100
AcDbEntity
  8
0
100
AcDbLine
 10
35.61220837980385
 20
-31.41128950712411
 30
0.0
 11
35.42898170567627
 21
-31.21272866220781
 31
0.0
  0
LINE
  5
111
330
1F
100
AcDbEntity
  8
0
100
AcDbLine
 10
35.42898170567627
 20
-31.21272866220781
 30
0.0
 11
35.28301648822948
 21
-30.98536654639592
 31
0.0
  0
LINE
  5
112
330
1F
100
AcDbEntity
  8
0
100
AcDbLine
 10
35.28301648822948
 20
-30.98536654639592
 30
0.0
 11
35.17875033755386
 21
-30.73610830833951
 31
0.0
  0
LINE
  5
113
330
1F
100
AcDbEntity
  8
0
100
AcDbLine
 10
35.17875033755386
 20
-30.73610830833951
 30
0.0
 11
35.11935269249578
 21
-30.47254117406414
 31
0.0
  0
LINE
  5
114
330
1F
100
AcDbEntity
  8
0
100
AcDbLine
 10
35.11935269249578
 20
-30.47254117406414
 30
0.0
 11
35.10662530608398
 21
-30.20265557040435
 31
0.0
  0
LINE
  5
115
330
1F
100
AcDbEntity
  8
0
100
AcDbLine
 10
35.10662530608398
 20
-30.20265557040435
 30
0.0
 11
35.22130034982384
 21
-29.67670549851702
 31
0.0
  0
LINE
  5
116
330
1F
100
AcDbEntity
  8
0
100
AcDbLine
 10
35.22130034982384
 20
-29.67670549851702
 30
0.0
 11
35.34522088912744
 21
-29.43661218466923
 31
0.0
  0
LINE
  5
117
330
1F
100
AcDbEntity
  8
0
100
AcDbLine
 10
35.34522088912744
 20
-29.43661218466923
 30
0.0
 11
35.50895013198895
 21
-29.22168868329553
 31
0.0
  0
LINE
  5
118
330
1F
100
AcDbEntity
  8
0
100
AcDbLine
 10
35.50895013198895
 20
-29.22168868329553
 30
0.0
 11
35.70751097690523
 21
-29.03846200916792
 31
0.0
  0
LINE
  5
119
330
1F
100
AcDbEntity
  8
0
100
AcDbLine
 10
35.70751097690523
 20
-29.03846200916792
 30
0.0
 11
35.93487293962647
 21
-28.89250060334527
 31
0.0
  0
LINE
  5
11A
330
1F
100
AcDbEntity
  8
0
100
AcDbLine
 10
35.93487293962647
 20
-28.89250060334527
 30
0.0
 11
36.18412340134397
 21
-28.78823795811246
 31
0.0
  0
LINE
  5
11B
330
1F
100
AcDbEntity
  8
0
100
AcDbLine
 10
36.18412340134397
 20
-28.78823795811246
 30
0.0
 11
36.44769831195826
 21
-28.72883680761151
 31
0.0
  0
LINE
  5
11C
330
1F
100
AcDbEntity
  8
0
100
AcDbLine
 10
36.44769831195826
 20
-28.72883680761151
 30
0.0
 11
36.71758025708452
 21
-28.716105456485
 31
0.0
  0
LINE
  5
11D
330
1F
100
AcDbEntity
  8
0
100
AcDbLine
 10
36.71758025708452
 20
-28.716105456485
 30
0.0
 11
36.9855718389975
 21
-28.75044004007705
 31
0.0
  0
LINE
  5
11E
330
1F
100
AcDbEntity
  8
0
100
AcDbLine
 10
36.9855718389975
 20
-28.75044004007705
 30
0.0
 11
37.24353383441475
 21
-28.83078827656371
 31
0.0
  0
LINE
  5
11F
330
1F
100
AcDbEntity
  8
0
100
AcDbLine
 10
37.24353383441475
 20
-28.83078827656371
 30
0.0
 11
37.48362348972903
 21
-28.9547048511526
 31
0.0
  0
LINE
  5
120
330
1F
100
AcDbEntity
  8
0
100
AcDbLine
 10
37.48362348972903
 20
-28.9547048511526
 30
0.0
 11
37.69854714419339
 21
-29.11843028238994
 31
0.0
  0
LINE
  5
121
330
1F
100
AcDbEntity
  8
0
100
AcDbLine
 10
37.69854714419339
 20
-29.11843028238994
 30
0.0
 11
37.88177381832099
 21
-29.31699112730624
 31
0.0
  0
LINE
  5
122
330
1F
100
AcDbEntity
  8
0
100
AcDbLine
 10
37.88177381832099
 20
-29.31699112730624
 30
0.0
 11
38.02773522414365
 21
-29.54435309002746
 31
0.0
  0
LINE
  5
123
330
1F
100
AcDbEntity
  8
0
100
AcDbLine
 10
38.02773522414365
 20
-29.54435309002746
 30
0.0
 11
38.13200137481927
 21
-29.79361132808388
 31
0.0
  0
LINE
  5
124
330
1F
100
AcDbEntity
  8
0
100
AcDbLine
 10
38.13200137481927
 20
-29.79361132808388
 30
0.0
 11
38.19139901987737
 21
-30.05717846235926
 31
0.0
  0
LINE
  5
125
330
1F
100
AcDbEntity
  8
0
100
AcDbLine
 10
38.19139901987737
 20
-30.05717846235926
 30
0.0
 11
38.20412640628914
 21
-30.32706406601904
 31
0.0
  0
LINE
  5
126
330
1F
100
AcDbEntity
  8
0
100
AcDbLine
 10
-32.07876644361034
 20
34.77862988917394
 30
0.0
 11
-31.81519343880813
 21
34.8380311162202
 31
0.0
  0
LINE
  5
127
330
1F
100
AcDbEntity
  8
0
100
AcDbLine
 10
-31.81519343880813
 20
34.8380311162202
 30
0.0
 11
-31.54531164677248
 21
34.85075865572261
 31
0.0
  0
LINE
  5
128
330
1F
100
AcDbEntity
  8
0
100
AcDbLine
 10
-31.54531164677248
 20
34.85075865572261
 30
0.0
 11
-31.27731895886283
 21
34.81642784548203
 31
0.0
  0
LINE
  5
129
330
1F
100
AcDbEntity
  8
0
100
AcDbLine
 10
-31.27731895886283
 20
34.81642784548203
 30
0.0
 11
-31.01935886925768
 21
34.73607968554067
 31
0.0
  0
LINE
  5
12A
330
1F
100
AcDbEntity
  8
0
100
AcDbLine
 10
-31.01935886925768
 20
34.73607968554067
 30
0.0
 11
-30.7792692139434
 21
34.61216311095183
 31
0.0
  0
LINE
  5
12B
330
1F
100
AcDbEntity
  8
0
100
AcDbLine
 10
-30.7792692139434
 20
34.61216311095183
 30
0.0
 11
-30.5643466654757
 21
34.44843390636301
 31
0.0
  0
LINE
  5
12C
330
1F
100
AcDbEntity
  8
0
100
AcDbLine
 10
-30.5643466654757
 20
34.44843390636301
 30
0.0
 11
-30.38111903844207
 21
34.24987302317407
 31
0.0
  0
LINE
  5
12D
330
1F
100
AcDbEntity
  8
0
100
AcDbLine
 10
-30.38111903844207
 20
34.24987302317407
 30
0.0
 11
-30.23515572680735
 21
34.0225109839075
 31
0.0
  0
LINE
  5
12E
330
1F
100
AcDbEntity
  8
0
100
AcDbLine
 10
-30.23515572680735
 20
34.0225109839075
 30
0.0
 11
-30.13089037594711
 21
33.77325659574789
 31
0.0
  0
LINE
  5
12F
330
1F
100
AcDbEntity
  8
0
100
AcDbLine
 10
-30.13089037594711
 20
33.77325659574789
 30
0.0
 11
-30.07149193107364
 21
33.50968561157574
 31
0.0
  0
LINE
  5
130
330
1F
100
AcDbEntity
  8
0
100
AcDbLine
 10
-30.07149193107364
 20
33.50968561157574
 30
0.0
 11
-30.05876454466187
 21
33.23980000791593
 31
0.0
  0
LINE
  5
131
330
1F
100
AcDbEntity
  8
0
100
AcDbLine
 10
-30.05876454466187
 20
33.23980000791593
 30
0.0
 11
-30.09309531662979
 21
32.97180827291234
 31
0.0
  0
LINE
  5
132
330
1F
100
AcDbEntity
  8
0
100
AcDbLine
 10
-30.09309531662979
 20
32.97180827291234
 30
0.0
 11
-30.17344054130772
 21
32.71384997430123
 31
0.0
  0
LINE
  5
133
330
1F
100
AcDbEntity
  8
0
100
AcDbLine
 10
-30.17344054130772
 20
32.71384997430123
 30
0.0
 11
-30.29735997461468
 21
32.47376043380496
 31
0.0
  0
LINE
  5
134
330
1F
100
AcDbEntity
  8
0
100
AcDbLine
 10
-30.29735997461468
 20
32.47376043380496
 30
0.0
 11
-30.46108731166411
 21
32.2588368558859
 31
0.0
  0
LINE
  5
135
330
1F
100
AcDbEntity
  8
0
100
AcDbLine
 10
-30.46108731166411
 20
32.2588368558859
 30
0.0
 11
-30.65964910948642
 21
32.07561022003097
 31
0.0
  0
LINE
  5
136
330
1F
100
AcDbEntity
  8
0
100
AcDbLine
 10
-30.65964910948642
 20
32.07561022003097
 30
0.0
 11
-30.88701027239225
 21
31.9296449643115
 31
0.0
  0
LINE
  5
137
330
1F
100
AcDbEntity
  8
0
100
AcDbLine
 10
-30.88701027239225
 20
31.9296449643115
 30
0.0
 11
-31.13626469882456
 21
31.82537866054523
 31
0.0
  0
LINE
  5
138
330
1F
100
AcDbEntity
  8
0
100
AcDbLine
 10
-31.13626469882456
 20
31.82537866054523
 30
0.0
 11
-31.39983755053612
 21
31.76598124512313
 31
0.0
  0
LINE
  5
139
330
1F
100
AcDbEntity
  8
0
100
AcDbLine
 10
-31.39983755053612
 20
31.76598124512313
 30
0.0
 11
-31.6697202954778
 21
31.75325374389338
 31
0.0
  0
LINE
  5
13A
330
1F
100
AcDbEntity
  8
0
100
AcDbLine
 10
-31.6697202954778
 20
31.75325374389338
 30
0.0
 11
-31.93771203048141
 21
31.7875845158613
 31
0.0
  0
LINE
  5
13B
330
1F
100
AcDbEntity
  8
0
100
AcDbLine
 10
-31.93771203048141
 20
31.7875845158613
 30
0.0
 11
-32.19567227317722
 21
31.8679288641785
 31
0.0
  0
LINE
  5
13C
330
1F
100
AcDbEntity
  8
0
100
AcDbLine
 10
-32.19567227317722
 20
31.8679288641785
 30
0.0
 11
-32.43576177540086
 21
31.99184925039151
 31
0.0
  0
LINE
  5
13D
330
1F
100
AcDbEntity
  8
0
100
AcDbLine
 10
-32.43576177540086
 20
31.99184925039151
 30
0.0
 11
-32.65068527677459
 21
32.15557849325301
 31
0.0
  0
LINE
  5
13E
330
1F
100
AcDbEntity
  8
0
100
AcDbLine
 10
-32.65068527677459
 20
32.15557849325301
 30
0.0
 11
-32.83391195090219
 21
32.35413933816927
 31
0.0
  0
LINE
  5
13F
330
1F
100
AcDbEntity
  8
0
100
AcDbLine
 10
-32.83391195090219
 20
32.35413933816927
 30
0.0
 11
-32.9798752625369
 21
32.58150137743586
 31
0.0
  0
LINE
  5
140
330
1F
100
AcDbEntity
  8
0
100
AcDbLine
 10
-32.9798752625369
 20
32.58150137743586
 30
0.0
 11
-33.08414156630317
 21
32.83075580386809
 31
0.0
  0
LINE
  5
141
330
1F
100
AcDbEntity
  8
0
100
AcDbLine
 10
-33.08414156630317
 20
32.83075580386809
 30
0.0
 11
-33.14353905827061
 21
33.09432674976763
 31
0.0
  0
LINE
  5
142
330
1F
100
AcDbEntity
  8
0
100
AcDbLine
 10
-33.14353905827061
 20
33.09432674976763
 30
0.0
 11
-33.15626659777303
 21
33.36420854180326
 31
0.0
  0
LINE
  5
143
330
1F
100
AcDbEntity
  8
0
100
AcDbLine
 10
-33.15626659777303
 20
33.36420854180326
 30
0.0
 11
-33.12193567271445
 21
33.63220408843105
 31
0.0
  0
LINE
  5
144
330
1F
100
AcDbEntity
  8
0
100
AcDbLine
 10
-33.12193567271445
 20
33.63220408843105
 30
0.0
 11
-33.04159140094256
 21
33.89016242531475
 31
0.0
  0
LINE
  5
145
330
1F
100
AcDbEntity
  8
0
100
AcDbLine
 10
-33.04159140094256
 20
33.89016242531475
 30
0.0
 11
-32.91767101472956
 21
34.13025192753837
 31
0.0
  0
LINE
  5
146
330
1F
100
AcDbEntity
  8
0
100
AcDbLine
 10
-32.91767101472956
 20
34.13025192753837
 30
0.0
 11
-32.75394367768016
 21
34.34517550545743
 31
0.0
  0
LINE
  5
147
330
1F
100
AcDbEntity
  8
0
100
AcDbLine
 10
-32.75394367768016
 20
34.34517550545743
 30
0.0
 11
-32.55538283276387
 21
34.52840217958506
 31
0.0
  0
LINE
  5
148
330
1F
100
AcDbEntity
  8
0
100
AcDbLine
 10
-32.55538283276387
 20
34.52840217958506
 30
0.0
 11
-32.328020716952
 21
34.67436739703184
 31
0.0
  0
LINE
  5
149
330
1F
100
AcDbEntity
  8
0
100
AcDbLine
 10
-32.328020716952
 20
34.67436739703184
 30
0.0
 11
-32.07876644361034
 21
34.77862988917394
 31
0.0
  0
LINE
  5
14A
330
1F
100
AcDbEntity
  8
0
100
AcDbLine
 10
25.94596958487267
 20
-32.30661903736075
 30
0.0
 11
25.70319366104534
 21
-31.9704103898412
 31
0.0
  0
LINE
  5
14B
330
1F
100
AcDbEntity
  8
0
100
AcDbLine
 10
25.70319366104534
 20
-31.9704103898412
 30
0.0
 11
25.50189096933584
 21
-31.60785266198565
 31
0.0
  0
LINE
  5
14C
330
1F
100
AcDbEntity
  8
0
100
AcDbLine
 10
25.50189096933584
 20
-31.60785266198565
 30
0.0
 11
25.34487718041619
 21
-31.22402968310295
 31
0.0
  0
LINE
  5
14D
330
1F
100
AcDbEntity
  8
0
100
AcDbLine
 10
25.34487718041619
 20
-31.22402968310295
 30
0.0
 11
25.23436399742383
 21
-30.82432935312769
 31
0.0
  0
LINE
  5
14E
330
1F
100
AcDbEntity
  8
0
100
AcDbLine
 10
25.23436399742383
 20
-30.82432935312769
 30
0.0
 11
25.17190123178828
 21
-30.41436496068764
 31
0.0
  0
LINE
  5
14F
330
1F
100
AcDbEntity
  8
0
100
AcDbLine
 10
25.17190123178828
 20
-30.41436496068764
 30
0.0
 11
25.15836111310463
 21
-29.9998905619196
 31
0.0
  0
LINE
  5
150
330
1F
100
AcDbEntity
  8
0
100
AcDbLine
 10
25.15836111310463
 20
-29.9998905619196
 30
0.0
 11
25.19394135094632
 21
-29.58672474798685
 31
0.0
  0
LINE
  5
151
330
1F
100
AcDbEntity
  8
0
100
AcDbLine
 10
25.19394135094632
 20
-29.58672474798685
 30
0.0
 11
25.27813419824199
 21
-29.18066541153276
 31
0.0
  0
LINE
  5
152
330
1F
100
AcDbEntity
  8
0
100
AcDbLine
 10
25.27813419824199
 20
-29.18066541153276
 30
0.0
 11
25.4097638177055
 21
-28.78741489201387
 31
0.0
  0
LINE
  5
153
330
1F
100
AcDbEntity
  8
0
100
AcDbLine
 10
25.4097638177055
 20
-28.78741489201387
 30
0.0
 11
25.58698233276291
 21
-28.41248819053952
 31
0.0
  0
LINE
  5
154
330
1F
100
AcDbEntity
  8
0
100
AcDbLine
 10
25.58698233276291
 20
-28.41248819053952
 30
0.0
 11
25.80729865219052
 21
-28.06116067876881
 31
0.0
  0
LINE
  5
155
330
1F
100
AcDbEntity
  8
0
100
AcDbLine
 10
25.80729865219052
 20
-28.06116067876881
 30
0.0
 11
26.06762529688045
 21
-27.73834781093532
 31
0.0
  0
LINE
  5
156
330
1F
100
AcDbEntity
  8
0
100
AcDbLine
 10
26.06762529688045
 20
-27.73834781093532
 30
0.0
 11
26.36429776414272
 21
-27.44859826605204
 31
0.0
  0
LINE
  5
157
330
1F
100
AcDbEntity
  8
0
100
AcDbLine
 10
26.36429776414272
 20
-27.44859826605204
 30
0.0
 11
26.69316358851773
 21
-27.19596772068526
 31
0.0
  0
LINE
  5
158
330
1F
100
AcDbEntity
  8
0
100
AcDbLine
 10
26.69316358851773
 20
-27.19596772068526
 30
0.0
 11
27.04959820063538
 21
-26.98400421482076
 31
0.0
  0
LINE
  5
159
330
1F
100
AcDbEntity
  8
0
100
AcDbLine
 10
27.04959820063538
 20
-26.98400421482076
 30
0.0
 11
27.42859885564433
 21
-26.81569084005263
 31
0.0
  0
LINE
  5
15A
330
1F
100
AcDbEntity
  8
0
100
AcDbLine
 10
27.42859885564433
 20
-26.81569084005263
 30
0.0
 11
27.82484837482938
 21
-26.69337957979962
 31
0.0
  0
LINE
  5
15B
330
1F
100
AcDbEntity
  8
0
100
AcDbLine
 10
27.82484837482938
 20
-26.69337957979962
 30
0.0
 11
28.23278375484595
 21
-26.61879406493665
 31
0.0
  0
LINE
  5
15C
330
1F
100
AcDbEntity
  8
0
100
AcDbLine
 10
28.23278375484595
 20
-26.61879406493665
 30
0.0
 11
28.64667454347156
 21
-26.59297927286962
 31
0.0
  0
LINE
  5
15D
330
1F
100
AcDbEntity
  8
0
100
AcDbLine
 10
28.64667454347156
 20
-26.59297927286962
 30
0.0
 11
29.06071462476597
 21
-26.6162975784626
 31
0.0
  0
LINE
  5
15E
330
1F
100
AcDbEntity
  8
0
100
AcDbLine
 10
29.06071462476597
 20
-26.6162975784626
 30
0.0
 11
29.46909113448694
 21
-26.68842388642103
 31
0.0
  0
LINE
  5
15F
330
1F
100
AcDbEntity
  8
0
100
AcDbLine
 10
29.46909113448694
 20
-26.68842388642103
 30
0.0
 11
29.86606831582088
 21
-26.80834899928589
 31
0.0
  0
LINE
  5
160
330
1F
100
AcDbEntity
  8
0
100
AcDbLine
 10
29.86606831582088
 20
-26.80834899928589
 30
0.0
 11
30.24607930454337
 21
-26.97437566836063
 31
0.0
  0
LINE
  5
161
330
1F
100
AcDbEntity
  8
0
100
AcDbLine
 10
30.24607930454337
 20
-26.97437566836063
 30
0.0
 11
30.60378466555464
 21
-27.18418202914764
 31
0.0
  0
LINE
  5
162
330
1F
100
AcDbEntity
  8
0
100
AcDbLine
 10
30.60378466555464
 20
-27.18418202914764
 30
0.0
 11
30.93416387185894
 21
-27.43482527552348
 31
0.0
  0
LINE
  5
163
330
1F
100
AcDbEntity
  8
0
100
AcDbLine
 10
30.93416387185894
 20
-27.43482527552348
 30
0.0
 11
31.23258207671093
 21
-27.7227901548597
 31
0.0
  0
LINE
  5
164
330
1F
100
AcDbEntity
  8
0
100
AcDbLine
 10
31.23258207671093
 20
-27.7227901548597
 30
0.0
 11
31.49484606325265
 21
-28.04402175737583
 31
0.0
  0
LINE
  5
165
330
1F
100
AcDbEntity
  8
0
100
AcDbLine
 10
31.49484606325265
 20
-28.04402175737583
 30
0.0
 11
31.71727329737767
 21
-28.39401228059203
 31
0.0
  0
LINE
  5
166
330
1F
100
AcDbEntity
  8
0
100
AcDbLine
 10
31.71727329737767
 20
-28.39401228059203
 30
0.0
 11
31.89675046426706
 21
-28.7678644647656
 31
0.0
  0
LINE
  5
167
330
1F
100
AcDbEntity
  8
0
100
AcDbLine
 10
31.89675046426706
 20
-28.7678644647656
 30
0.0
 11
32.03074779634198
 21
-29.16031507499791
 31
0.0
  0
LINE
  5
168
330
1F
100
AcDbEntity
  8
0
100
AcDbLine
 10
32.03074779634198
 20
-29.16031507499791
 30
0.0
 11
32.11738659522164
 21
-29.56585978192908
 31
0.0
  0
LINE
  5
169
330
1F
100
AcDbEntity
  8
0
100
AcDbLine
 10
32.11738659522164
 20
-29.56585978192908
 30
0.0
 11
32.15545614657501
 21
-29.97880728992858
 31
0.0
  0
LINE
  5
16A
330
1F
100
AcDbEntity
  8
0
100
AcDbLine
 10
32.15545614657501
 20
-29.97880728992858
 30
0.0
 11
32.14441446993218
 21
-30.39335572266847
 31
0.0
  0
LINE
  5
16B
330
1F
100
AcDbEntity
  8
0
100
AcDbLine
 10
32.14441446993218
 20
-30.39335572266847
 30
0.0
 11
32.08442276075014
 21
-30.80368563300906
 31
0.0
  0
LINE
  5
16C
330
1F
100
AcDbEntity
  8
0
100
AcDbLine
 10
32.08442276075014
 20
-30.80368563300906
 30
0.0
 11
31.97632296429832
 21
-31.20404309327636
 31
0.0
  0
LINE
  5
16D
330
1F
100
AcDbEntity
  8
0
100
AcDbLine
 10
31.97632296429832
 20
-31.20404309327636
 30
0.0
 11
31.82162739677865
 21
-31.58880799831485
 31
0.0
  0
LINE
  5
16E
330
1F
100
AcDbEntity
  8
0
100
AcDbLine
 10
31.82162739677865
 20
-31.58880799831485
 30
0.0
 11
31.62250806026461
 21
-31.95256999178929
 31
0.0
  0
LINE
  5
16F
330
1F
100
AcDbEntity
  8
0
100
AcDbLine
 10
31.62250806026461
 20
-31.95256999178929
 30
0.0
 11
31.38176567479439
 21
-32.29023412002518
 31
0.0
  0
LINE
  5
170
330
1F
100
AcDbEntity
  8
0
100
AcDbLine
 10
31.38176567479439
 20
-32.29023412002518
 30
0.0
 11
31.10277478472672
 21
-32.59705680498166
 31
0.0
  0
LINE
  5
171
330
1F
100
AcDbEntity
  8
0
100
AcDbLine
 10
31.10277478472672
 20
-32.59705680498166
 30
0.0
 11
30.7894578271834
 21
-32.86872115818962
 31
0.0
  0
LINE
  5
172
330
1F
100
AcDbEntity
  8
0
100
AcDbLine
 10
30.7894578271834
 20
-32.86872115818962
 30
0.0
 11
30.44620522539137
 21
-33.1014253979184
 31
0.0
  0
LINE
  5
173
330
1F
100
AcDbEntity
  8
0
100
AcDbLine
 10
30.44620522539137
 20
-33.1014253979184
 30
0.0
 11
30.07784016552161
 21
-33.29190434110488
 31
0.0
  0
LINE
  5
174
330
1F
100
AcDbEntity
  8
0
100
AcDbLine
 10
30.07784016552161
 20
-33.29190434110488
 30
0.0
 11
29.68953290387102
 21
-33.43747177484828
 31
0.0
  0
LINE
  5
175
330
1F
100
AcDbEntity
  8
0
100
AcDbLine
 10
29.68953290387102
 20
-33.43747177484828
 30
0.0
 11
29.2867332136203
 21
-33.53608646310447
 31
0.0
  0
LINE
  5
176
330
1F
100
AcDbEntity
  8
0
100
AcDbLine
 10
29.2867332136203
 20
-33.53608646310447
 30
0.0
 11
28.87509673925085
 21
-33.586379730956
 31
0.0
  0
LINE
  5
177
330
1F
100
AcDbEntity
  8
0
100
AcDbLine
 10
28.87509673925085
 20
-33.586379730956
 30
0.0
 11
28.4604020593575
 21
-33.58762922687399
 31
0.0
  0
LINE
  5
178
330
1F
100
AcDbEntity
  8
0
100
AcDbLine
 10
28.4604020593575
 20
-33.58762922687399
 30
0.0
 11
28.04847169853465
 21
-33.53982447013904
 31
0.0
  0
LINE
  5
179
330
1F
100
AcDbEntity
  8
0
100
AcDbLine
 10
28.04847169853465
 20
-33.53982447013904
 30
0.0
 11
27.64508568474642
 21
-33.443632836764
 31
0.0
  0
LINE
  5
17A
330
1F
100
AcDbEntity
  8
0
100
AcDbLine
 10
27.64508568474642
 20
-33.443632836764
 30
0.0
 11
27.25590882228686
 21
-33.30040427401965
 31
0.0
  0
LINE
  5
17B
330
1F
100
AcDbEntity
  8
0
100
AcDbLine
 10
27.25590882228686
 20
-33.30040427401965
 30
0.0
 11
26.88639982516372
 21
-33.11215237976328
 31
0.0
  0
LINE
  5
17C
330
1F
100
AcDbEntity
  8
0
100
AcDbLine
 10
26.88639982516372
 20
-33.11215237976328
 30
0.0
 11
26.54175536746132
 21
-32.88152161308562
 31
0.0
  0
LINE
  5
17D
330
1F
100
AcDbEntity
  8
0
100
AcDbLine
 10
26.54175536746132
 20
-32.88152161308562
 30
0.0
 11
26.22680107714748
 21
-32.61174473844143
 31
0.0
  0
LINE
  5
17E
330
1F
100
AcDbEntity
  8
0
100
AcDbLine
 10
26.22680107714748
 20
-32.61174473844143
 30
0.0
 11
25.94596958487267
 21
-32.30661903736075
 31
0.0
  0
LINE
  5
17F
330
1F
100
AcDbEntity
  8
0
100
AcDbLine
 10
37.33686959281609
 20
-40.38779733270832
 30
0.0
 11
33.91459642027412
 21
-39.49986212112612
 31
0.0
  0
LINE
  5
180
330
1F
100
AcDbEntity
  8
0
100
AcDbLine
 10
33.91459642027412
 20
-39.49986212112612
 30
0.0
 11
33.62783331537527
 21
-39.40173452945906
 31
0.0
  0
LINE
  5
181
330
1F
100
AcDbEntity
  8
0
100
AcDbLine
 10
33.62783331537527
 20
-39.40173452945906
 30
0.0
 11
33.35919328642326
 21
-39.26140016188197
 31
0.0
  0
LINE
  5
182
330
1F
100
AcDbEntity
  8
0
100
AcDbLine
 10
33.35919328642326
 20
-39.26140016188197
 30
0.0
 11
33.11483847928052
 21
-39.08208437858707
 31
0.0
  0
LINE
  5
183
330
1F
100
AcDbEntity
  8
0
100
AcDbLine
 10
33.11483847928052
 20
-39.08208437858707
 30
0.0
 11
32.90039146985267
 21
-38.86789949834467
 31
0.0
  0
LINE
  5
184
330
1F
100
AcDbEntity
  8
0
100
AcDbLine
 10
32.90039146985267
 20
-38.86789949834467
 30
0.0
 11
32.72076649663418
 21
-38.62376930018983
 31
0.0
  0
LINE
  5
185
330
1F
100
AcDbEntity
  8
0
100
AcDbLine
 10
32.72076649663418
 20
-38.62376930018983
 30
0.0
 11
32.58009812712641
 21
-38.35530398963745
 31
0.0
  0
LINE
  5
186
330
1F
100
AcDbEntity
  8
0
100
AcDbLine
 10
32.58009812712641
 20
-38.35530398963745
 30
0.0
 11
32.48160924445065
 21
-38.06866509219902
 31
0.0
  0
LINE
  5
187
330
1F
100
AcDbEntity
  8
0
100
AcDbLine
 10
32.48160924445065
 20
-38.06866509219902
 30
0.0
 11
32.42756670131634
 21
-37.77043386798412
 31
0.0
  0
LINE
  5
188
330
1F
100
AcDbEntity
  8
0
100
AcDbLine
 10
32.42756670131634
 20
-37.77043386798412
 30
0.0
 11
32.41921090498272
 21
-37.46746340817052
 31
0.0
  0
LINE
  5
189
330
1F
100
AcDbEntity
  8
0
100
AcDbLine
 10
32.41921090498272
 20
-37.46746340817052
 30
0.0
 11
32.45673236643527
 21
-37.1667020755695
 31
0.0
  0
LINE
  5
18A
330
1F
100
AcDbEntity
  8
0
100
AcDbLine
 10
32.45673236643527
 20
-37.1667020755695
 30
0.0
 11
32.53926897603787
 21
-36.87507122647252
 31
0.0
  0
LINE
  5
18B
330
1F
100
AcDbEntity
  8
0
100
AcDbLine
 10
32.53926897603787
 20
-36.87507122647252
 30
0.0
 11
32.66492570529975
 21
-36.59925984221992
 31
0.0
  0
LINE
  5
18C
330
1F
100
AcDbEntity
  8
0
100
AcDbLine
 10
32.66492570529975
 20
-36.59925984221992
 30
0.0
 11
32.83081762201716
 21
-36.3456040881358
 31
0.0
  0
LINE
  5
18D
330
1F
100
AcDbEntity
  8
0
100
AcDbLine
 10
32.83081762201716
 20
-36.3456040881358
 30
0.0
 11
33.03313761224764
 21
-36.11992205151623
 31
0.0
  0
LINE
  5
18E
330
1F
100
AcDbEntity
  8
0
100
AcDbLine
 10
33.03313761224764
 20
-36.11992205151623
 30
0.0
 11
34.48684990589692
 21
-34.72690645204176
 31
0.0
  0
LINE
  5
18F
330
1F
100
AcDbEntity
  8
0
100
AcDbLine
 10
34.48684990589692
 20
-34.72690645204176
 30
0.0
 11
34.72100851061039
 21
-34.53434341211403
 31
0.0
  0
LINE
  5
190
330
1F
100
AcDbEntity
  8
0
100
AcDbLine
 10
34.72100851061039
 20
-34.53434341211403
 30
0.0
 11
34.98158345603184
 21
-34.37939271960292
 31
0.0
  0
LINE
  5
191
330
1F
100
AcDbEntity
  8
0
100
AcDbLine
 10
34.98158345603184
 20
-34.37939271960292
 30
0.0
 11
35.26258346808478
 21
-34.26560097078306
 31
0.0
  0
LINE
  5
192
330
1F
100
AcDbEntity
  8
0
100
AcDbLine
 10
35.26258346808478
 20
-34.26560097078306
 30
0.0
 11
35.55755407932298
 21
-34.19559516376138
 31
0.0
  0
LINE
  5
193
330
1F
100
AcDbEntity
  8
0
100
AcDbLine
 10
35.55755407932298
 20
-34.19559516376138
 30
0.0
 11
35.85971944011819
 21
-34.17097386101609
 31
0.0
  0
LINE
  5
194
330
1F
100
AcDbEntity
  8
0
100
AcDbLine
 10
35.85971944011819
 20
-34.17097386101609
 30
0.0
 11
36.16213127818229
 21
-34.1923055366839
 31
0.0
  0
LINE
  5
195
330
1F
100
AcDbEntity
  8
0
100
AcDbLine
 10
36.16213127818229
 20
-34.1923055366839
 30
0.0
 11
36.45784545800241
 21
-34.25910512573595
 31
0.0
  0
LINE
  5
196
330
1F
100
AcDbEntity
  8
0
100
AcDbLine
 10
36.45784545800241
 20
-34.25910512573595
 30
0.0
 11
36.74006743492023
 21
-34.3698245949258
 31
0.0
  0
LINE
  5
197
330
1F
100
AcDbEntity
  8
0
100
AcDbLine
 10
36.74006743492023
 20
-34.3698245949258
 30
0.0
 11
37.0023130931566
 21
-34.52193575816941
 31
0.0
  0
LINE
  5
198
330
1F
100
AcDbEntity
  8
0
100
AcDbLine
 10
37.0023130931566
 20
-34.52193575816941
 30
0.0
 11
37.23854977590427
 21
-34.71193594089878
 31
0.0
  0
LINE
  5
199
330
1F
100
AcDbEntity
  8
0
100
AcDbLine
 10
37.23854977590427
 20
-34.71193594089878
 30
0.0
 11
37.44335971025157
 21
-34.9354614415256
 31
0.0
  0
LINE
  5
19A
330
1F
100
AcDbEntity
  8
0
100
AcDbLine
 10
37.44335971025157
 20
-34.9354614415256
 30
0.0
 11
37.61202811816742
 21
-35.18737506134752
 31
0.0
  0
LINE
  5
19B
330
1F
100
AcDbEntity
  8
0
100
AcDbLine
 10
37.61202811816742
 20
-35.18737506134752
 30
0.0
 11
37.74068727712307
 21
-35.46188642380672
 31
0.0
  0
LINE
  5
19C
330
1F
100
AcDbEntity
  8
0
100
AcDbLine
 10
37.74068727712307
 20
-35.46188642380672
 30
0.0
 11
37.82637230099647
 21
-35.75268401916058
 31
0.0
  0
LINE
  5
19D
330
1F
100
AcDbEntity
  8
0
100
AcDbLine
 10
37.82637230099647
 20
-35.75268401916058
 30
0.0
 11
38.56589917435926
 21
-39.2107236281657
 31
0.0
  0
LINE
  5
19E
330
1F
100
AcDbEntity
  8
0
100
AcDbLine
 10
38.56589917435926
 20
-39.2107236281657
 30
0.0
 11
38.58716762000897
 21
-39.37878867387579
 31
0.0
  0
LINE
  5
19F
330
1F
100
AcDbEntity
  8
0
100
AcDbLine
 10
38.58716762000897
 20
-39.37878867387579
 30
0.0
 11
38.57976281648422
 21
-39.54803855993846
 31
0.0
  0
LINE
  5
1A0
330
1F
100
AcDbEntity
  8
0
100
AcDbLine
 10
38.57976281648422
 20
-39.54803855993846
 30
0.0
 11
38.54389184849432
 21
-39.71360248999157
 31
0.0
  0
LINE
  5
1A1
330
1F
100
AcDbEntity
  8
0
100
AcDbLine
 10
38.54389184849432
 20
-39.71360248999157
 30
0.0
 11
38.48058875445158
 21
-39.87074214365955
 31
0.0
  0
LINE
  5
1A2
330
1F
100
AcDbEntity
  8
0
100
AcDbLine
 10
38.48058875445158
 20
-39.87074214365955
 30
0.0
 11
38.39167304223614
 21
-40.01493400137782
 31
0.0
  0
LINE
  5
1A3
330
1F
100
AcDbEntity
  8
0
100
AcDbLine
 10
38.39167304223614
 20
-40.01493400137782
 30
0.0
 11
38.279688671926
 21
-40.1420577823303
 31
0.0
  0
LINE
  5
1A4
330
1F
100
AcDbEntity
  8
0
100
AcDbLine
 10
38.279688671926
 20
-40.1420577823303
 30
0.0
 11
38.14785617303869
 21
-40.24844797009955
 31
0.0
  0
LINE
  5
1A5
330
1F
100
AcDbEntity
  8
0
100
AcDbLine
 10
38.14785617303869
 20
-40.24844797009955
 30
0.0
 11
37.99995537144346
 21
-40.33105708449963
 31
0.0
  0
LINE
  5
1A6
330
1F
100
AcDbEntity
  8
0
100
AcDbLine
 10
37.99995537144346
 20
-40.33105708449963
 30
0.0
 11
37.84023115475068
 21
-40.38752061663504
 31
0.0
  0
LINE
  5
1A7
330
1F
100
AcDbEntity
  8
0
100
AcDbLine
 10
37.84023115475068
 20
-40.38752061663504
 30
0.0
 11
37.67326935707077
 21
-40.41620549273834
 31
0.0
  0
LINE
  5
1A8
330
1F
100
AcDbEntity
  8
0
100
AcDbLine
 10
37.67326935707077
 20
-40.41620549273834
 30
0.0
 11
37.50386318343755
 21
-40.41630397131547
 31
0.0
  0
LINE
  5
1A9
330
1F
100
AcDbEntity
  8
0
100
AcDbLine
 10
37.50386318343755
 20
-40.41630397131547
 30
0.0
 11
37.33686959281609
 21
-40.38779733270832
 31
0.0
  0
LINE
  5
1AA
330
1F
100
AcDbEntity
  8
0
100
AcDbLine
 10
21.80549620744921
 20
-30.96443876459932
 30
0.0
 11
21.60693155090878
 21
-31.14766528563627
 31
0.0
  0
LINE
  5
1AB
330
1F
100
AcDbEntity
  8
0
100
AcDbLine
 10
21.60693155090878
 20
-31.14766528563627
 30
0.0
 11
21.13031882028875
 21
-31.39789695993995
 31
0.0
  0
LINE
  5
1AC
330
1F
100
AcDbEntity
  8
0
100
AcDbLine
 10
21.13031882028875
 20
-31.39789695993995
 30
0.0
 11
20.86674390967449
 21
-31.4572981104409
 31
0.0
  0
LINE
  5
1AD
330
1F
100
AcDbEntity
  8
0
100
AcDbLine
 10
20.86674390967449
 20
-31.4572981104409
 30
0.0
 11
20.59686227072949
 21
-31.47002183831919
 31
0.0
  0
LINE
  5
1AE
330
1F
100
AcDbEntity
  8
0
100
AcDbLine
 10
20.59686227072949
 20
-31.47002183831919
 30
0.0
 11
20.32887038263522
 21
-31.43569487797538
 31
0.0
  0
LINE
  5
1AF
330
1F
100
AcDbEntity
  8
0
100
AcDbLine
 10
20.32887038263522
 20
-31.43569487797538
 30
0.0
 11
20.070908387218
 21
-31.3553466414887
 31
0.0
  0
LINE
  5
1B0
330
1F
100
AcDbEntity
  8
0
100
AcDbLine
 10
20.070908387218
 20
-31.3553466414887
 30
0.0
 11
19.83081873190372
 21
-31.23143006689983
 31
0.0
  0
LINE
  5
1B1
330
1F
100
AcDbEntity
  8
0
100
AcDbLine
 10
19.83081873190372
 20
-31.23143006689983
 30
0.0
 11
19.61589538362064
 21
-31.06769701241425
 31
0.0
  0
LINE
  5
1B2
330
1F
100
AcDbEntity
  8
0
100
AcDbLine
 10
19.61589538362064
 20
-31.06769701241425
 30
0.0
 11
19.43266870949303
 21
-30.86913616749793
 31
0.0
  0
LINE
  5
1B3
330
1F
100
AcDbEntity
  8
0
100
AcDbLine
 10
19.43266870949303
 20
-30.86913616749793
 30
0.0
 11
19.28670730367037
 21
-30.64177420477673
 31
0.0
  0
LINE
  5
1B4
330
1F
100
AcDbEntity
  8
0
100
AcDbLine
 10
19.28670730367037
 20
-30.64177420477673
 30
0.0
 11
19.18244084681348
 21
-30.39252358996852
 31
0.0
  0
LINE
  5
1B5
330
1F
100
AcDbEntity
  8
0
100
AcDbLine
 10
19.18244084681348
 20
-30.39252358996852
 30
0.0
 11
19.12304350793667
 21
-30.12894883244493
 31
0.0
  0
LINE
  5
1B6
330
1F
100
AcDbEntity
  8
0
100
AcDbLine
 10
19.12304350793667
 20
-30.12894883244493
 30
0.0
 11
19.11031581534361
 21
-29.85907085203339
 31
0.0
  0
LINE
  5
1B7
330
1F
100
AcDbEntity
  8
0
100
AcDbLine
 10
19.11031581534361
 20
-29.85907085203339
 30
0.0
 11
19.14464674040218
 21
-29.5910753054057
 31
0.0
  0
LINE
  5
1B8
330
1F
100
AcDbEntity
  8
0
100
AcDbLine
 10
19.14464674040218
 20
-29.5910753054057
 30
0.0
 11
19.22499116526474
 21
-29.33311315689781
 31
0.0
  0
LINE
  5
1B9
330
1F
100
AcDbEntity
  8
0
100
AcDbLine
 10
19.22499116526474
 20
-29.33311315689781
 30
0.0
 11
19.34891139838707
 21
-29.09302746629827
 31
0.0
  0
LINE
  5
1BA
330
1F
100
AcDbEntity
  8
0
100
AcDbLine
 10
19.34891139838707
 20
-29.09302746629827
 30
0.0
 11
19.51263682962442
 21
-28.87810381183392
 31
0.0
  0
LINE
  5
1BB
330
1F
100
AcDbEntity
  8
0
100
AcDbLine
 10
19.51263682962442
 20
-28.87810381183392
 30
0.0
 11
19.71119767454072
 21
-28.69487713770632
 31
0.0
  0
LINE
  5
1BC
330
1F
100
AcDbEntity
  8
0
100
AcDbLine
 10
19.71119767454072
 20
-28.69487713770632
 30
0.0
 11
19.93855994344322
 21
-28.54890810863543
 31
0.0
  0
LINE
  5
1BD
330
1F
100
AcDbEntity
  8
0
100
AcDbLine
 10
19.93855994344322
 20
-28.54890810863543
 30
0.0
 11
20.45138912739914
 21
-28.38524446599232
 31
0.0
  0
LINE
  5
1BE
330
1F
100
AcDbEntity
  8
0
100
AcDbLine
 10
20.45138912739914
 20
-28.38524446599232
 30
0.0
 11
20.72127076634417
 21
-28.37252073811403
 31
0.0
  0
LINE
  5
1BF
330
1F
100
AcDbEntity
  8
0
100
AcDbLine
 10
20.72127076634417
 20
-28.37252073811403
 30
0.0
 11
20.9892626544384
 21
-28.40684769845784
 31
0.0
  0
LINE
  5
1C0
330
1F
100
AcDbEntity
  8
0
100
AcDbLine
 10
20.9892626544384
 20
-28.40684769845784
 30
0.0
 11
21.24722464985562
 21
-28.4871959349445
 31
0.0
  0
LINE
  5
1C1
330
1F
100
AcDbEntity
  8
0
100
AcDbLine
 10
21.24722464985562
 20
-28.4871959349445
 30
0.0
 11
21.48731049354578
 21
-28.61111235644276
 31
0.0
  0
LINE
  5
1C2
330
1F
100
AcDbEntity
  8
0
100
AcDbLine
 10
21.48731049354578
 20
-28.61111235644276
 30
0.0
 11
21.70223384182887
 21
-28.77484541092834
 31
0.0
  0
LINE
  5
1C3
330
1F
100
AcDbEntity
  8
0
100
AcDbLine
 10
21.70223384182887
 20
-28.77484541092834
 30
0.0
 11
21.8854643275806
 21
-28.97340640893527
 31
0.0
  0
LINE
  5
1C4
330
1F
100
AcDbEntity
  8
0
100
AcDbLine
 10
21.8854643275806
 20
-28.97340640893527
 30
0.0
 11
22.03142573340326
 21
-29.20076837165649
 31
0.0
  0
LINE
  5
1C5
330
1F
100
AcDbEntity
  8
0
100
AcDbLine
 10
22.03142573340326
 20
-29.20076837165649
 30
0.0
 11
22.13569219026018
 21
-29.4500189864647
 31
0.0
  0
LINE
  5
1C6
330
1F
100
AcDbEntity
  8
0
100
AcDbLine
 10
22.13569219026018
 20
-29.4500189864647
 30
0.0
 11
22.19508952913698
 21
-29.71359374398831
 31
0.0
  0
LINE
  5
1C7
330
1F
100
AcDbEntity
  8
0
100
AcDbLine
 10
22.19508952913698
 20
-29.71359374398831
 30
0.0
 11
22.20781691554874
 21
-29.98347934764805
 31
0.0
  0
LINE
  5
1C8
330
1F
100
AcDbEntity
  8
0
100
AcDbLine
 10
22.20781691554874
 20
-29.98347934764805
 30
0.0
 11
22.17348629667146
 21
-30.25146727102757
 31
0.0
  0
LINE
  5
1C9
330
1F
100
AcDbEntity
  8
0
100
AcDbLine
 10
22.17348629667146
 20
-30.25146727102757
 30
0.0
 11
22.09314187180893
 21
-30.50942941953541
 31
0.0
  0
LINE
  5
1CA
330
1F
100
AcDbEntity
  8
0
100
AcDbLine
 10
22.09314187180893
 20
-30.50942941953541
 30
0.0
 11
21.96922163868657
 21
-30.74951511013496
 31
0.0
  0
LINE
  5
1CB
330
1F
100
AcDbEntity
  8
0
100
AcDbLine
 10
21.96922163868657
 20
-30.74951511013496
 30
0.0
 11
21.80549620744921
 21
-30.96443876459932
 31
0.0
  0
LINE
  5
1CC
330
1F
100
AcDbEntity
  8
0
100
AcDbLine
 10
-36.47861279758212
 20
40.42456669081476
 30
0.0
 11
-36.05839635815331
 21
40.11667022659093
 31
0.0
  0
LINE
  5
1CD
330
1F
100
AcDbEntity
  8
0
100
AcDbLine
 10
-36.05839635815331
 20
40.11667022659093
 30
0.0
 11
-35.8946679766909
 21
39.91281080180469
 31
0.0
  0
LINE
  5
1CE
330
1F
100
AcDbEntity
  8
0
100
AcDbLine
 10
-35.8946679766909
 20
39.91281080180469
 30
0.0
 11
-35.76882719479016
 21
39.68361888575841
 31
0.0
  0
LINE
  5
1CF
330
1F
100
AcDbEntity
  8
0
100
AcDbLine
 10
-35.76882719479016
 20
39.68361888575841
 30
0.0
 11
-35.74071219232493
 21
39.60088869583785
 31
0.0
  0
LINE
  5
1D0
330
1F
100
AcDbEntity
  8
0
100
AcDbLine
 10
-35.74071219232493
 20
39.60088869583785
 30
0.0
 11
-35.72135717529723
 21
39.56167422522103
 31
0.0
  0
LINE
  5
1D1
330
1F
100
AcDbEntity
  8
0
100
AcDbLine
 10
-35.72135717529723
 20
39.56167422522103
 30
0.0
 11
-35.71281183406175
 21
39.51879011018698
 31
0.0
  0
LINE
  5
1D2
330
1F
100
AcDbEntity
  8
0
100
AcDbLine
 10
-35.71281183406175
 20
39.51879011018698
 30
0.0
 11
-35.68469648887499
 21
39.43605891178641
 31
0.0
  0
LINE
  5
1D3
330
1F
100
AcDbEntity
  8
0
100
AcDbLine
 10
-35.68469648887499
 20
39.43605891178641
 30
0.0
 11
-35.64483346339504
 21
39.17764771883181
 31
0.0
  0
LINE
  5
1D4
330
1F
100
AcDbEntity
  8
0
100
AcDbLine
 10
-35.64483346339504
 20
39.17764771883181
 30
0.0
 11
-35.65044779183172
 21
38.91624123794446
 31
0.0
  0
LINE
  5
1D5
330
1F
100
AcDbEntity
  8
0
100
AcDbLine
 10
-35.65044779183172
 20
38.91624123794446
 30
0.0
 11
-35.66746569647684
 21
38.83053499953369
 31
0.0
  0
LINE
  5
1D6
330
1F
100
AcDbEntity
  8
0
100
AcDbLine
 10
-35.66746569647684
 20
38.83053499953369
 30
0.0
 11
-35.67031098921822
 21
38.78689685729083
 31
0.0
  0
LINE
  5
1D7
330
1F
100
AcDbEntity
  8
0
100
AcDbLine
 10
-35.67031098921822
 20
38.78689685729083
 30
0.0
 11
-35.68435411709019
 21
38.74548087367893
 31
0.0
  0
LINE
  5
1D8
330
1F
100
AcDbEntity
  8
0
100
AcDbLine
 10
-35.68435411709019
 20
38.74548087367893
 30
0.0
 11
-35.70137145171782
 21
38.65977750601258
 31
0.0
  0
LINE
  5
1D9
330
1F
100
AcDbEntity
  8
0
100
AcDbLine
 10
-35.70137145171782
 20
38.65977750601258
 30
0.0
 11
-35.79605411011936
 21
38.41605886737047
 31
0.0
  0
LINE
  5
1DA
330
1F
100
AcDbEntity
  8
0
100
AcDbLine
 10
-35.79605411011936
 20
38.41605886737047
 30
0.0
 11
-35.93161988565132
 21
38.19247937394884
 31
0.0
  0
LINE
  5
1DB
330
1F
100
AcDbEntity
  8
0
100
AcDbLine
 10
-35.93161988565132
 20
38.19247937394884
 30
0.0
 11
-35.98920804107787
 21
38.12676772896461
 31
0.0
  0
LINE
  5
1DC
330
1F
100
AcDbEntity
  8
0
100
AcDbLine
 10
-35.98920804107787
 20
38.12676772896461
 30
0.0
 11
-36.01349237927256
 21
38.09039688134656
 31
0.0
  0
LINE
  5
1DD
330
1F
100
AcDbEntity
  8
0
100
AcDbLine
 10
-36.01349237927256
 20
38.09039688134656
 30
0.0
 11
-36.04636317839395
 21
38.06155018441018
 31
0.0
  0
LINE
  5
1DE
330
1F
100
AcDbEntity
  8
0
100
AcDbLine
 10
-36.04636317839395
 20
38.06155018441018
 30
0.0
 11
-36.1039491765892
 21
37.9958410009602
 31
0.0
  0
LINE
  5
1DF
330
1F
100
AcDbEntity
  8
0
100
AcDbLine
 10
-36.1039491765892
 20
37.9958410009602
 30
0.0
 11
-36.30780867792082
 21
37.83211071368572
 31
0.0
  0
LINE
  5
1E0
330
1F
100
AcDbEntity
  8
0
100
AcDbLine
 10
-36.30780867792082
 20
37.83211071368572
 30
0.0
 11
-36.53700059396706
 21
37.70626993178498
 31
0.0
  0
LINE
  5
1E1
330
1F
100
AcDbEntity
  8
0
100
AcDbLine
 10
-36.53700059396706
 20
37.70626993178498
 30
0.0
 11
-36.61973859357253
 21
37.67815251732003
 31
0.0
  0
LINE
  5
1E2
330
1F
100
AcDbEntity
  8
0
100
AcDbLine
 10
-36.61973859357253
 20
37.67815251732003
 30
0.0
 11
-36.65894616913783
 21
37.65880090347073
 31
0.0
  0
LINE
  5
1E3
330
1F
100
AcDbEntity
  8
0
100
AcDbLine
 10
-36.65894616913783
 20
37.65880090347073
 30
0.0
 11
-36.70182445212686
 21
37.65025672436288
 31
0.0
  0
LINE
  5
1E4
330
1F
100
AcDbEntity
  8
0
100
AcDbLine
 10
-36.70182445212686
 20
37.65025672436288
 30
0.0
 11
-36.78456247375114
 21
37.62213930241512
 31
0.0
  0
LINE
  5
1E5
330
1F
100
AcDbEntity
  8
0
100
AcDbLine
 10
-36.78456247375114
 20
37.62213930241512
 30
0.0
 11
-37.04297366670575
 21
37.58227627693517
 31
0.0
  0
LINE
  5
1E6
330
1F
100
AcDbEntity
  8
0
100
AcDbLine
 10
-37.04297366670575
 20
37.58227627693517
 30
0.0
 11
-37.3043800710478
 21
37.58789251118397
 31
0.0
  0
LINE
  5
1E7
330
1F
100
AcDbEntity
  8
0
100
AcDbLine
 10
-37.3043800710478
 20
37.58789251118397
 30
0.0
 11
-37.39008338151809
 21
37.60490929337875
 31
0.0
  0
LINE
  5
1E8
330
1F
100
AcDbEntity
  8
0
100
AcDbLine
 10
-37.39008338151809
 20
37.60490929337875
 30
0.0
 11
-37.433723537068
 21
37.6077547173917
 31
0.0
  0
LINE
  5
1E9
330
1F
100
AcDbEntity
  8
0
100
AcDbLine
 10
-37.433723537068
 20
37.6077547173917
 30
0.0
 11
-37.4751376099433
 21
37.62179719738051
 31
0.0
  0
LINE
  5
1EA
330
1F
100
AcDbEntity
  8
0
100
AcDbLine
 10
-37.4751376099433
 20
37.62179719738051
 30
0.0
 11
-37.56084197371291
 21
37.63881418871267
 31
0.0
  0
LINE
  5
1EB
330
1F
100
AcDbEntity
  8
0
100
AcDbLine
 10
-37.56084197371291
 20
37.63881418871267
 30
0.0
 11
-37.80456244162178
 21
37.73349882947157
 31
0.0
  0
LINE
  5
1EC
330
1F
100
AcDbEntity
  8
0
100
AcDbLine
 10
-37.80456244162178
 20
37.73349882947157
 30
0.0
 11
-38.02814002923134
 21
37.86906452845822
 31
0.0
  0
LINE
  5
1ED
330
1F
100
AcDbEntity
  8
0
100
AcDbLine
 10
-38.02814002923134
 20
37.86906452845822
 30
0.0
 11
-38.09384667199113
 21
37.92664776753467
 31
0.0
  0
LINE
  5
1EE
330
1F
100
AcDbEntity
  8
0
100
AcDbLine
 10
-38.09384667199113
 20
37.92664776753467
 30
0.0
 11
-38.13022351301229
 21
37.95093610744605
 31
0.0
  0
LINE
  5
1EF
330
1F
100
AcDbEntity
  8
0
100
AcDbLine
 10
-38.13022351301229
 20
37.95093610744605
 30
0.0
 11
-38.38850930370671
 21
38.24525265816069
 31
0.0
  0
LINE
  5
1F0
330
1F
100
AcDbEntity
  8
0
100
AcDbLine
 10
-38.38850930370671
 20
38.24525265816069
 30
0.0
 11
-38.56181949088812
 21
38.59638989731132
 31
0.0
  0
LINE
  5
1F1
330
1F
100
AcDbEntity
  8
0
100
AcDbLine
 10
-38.56181949088812
 20
38.59638989731132
 30
0.0
 11
-38.63834327170872
 21
38.98041840233161
 31
0.0
  0
LINE
  5
1F2
330
1F
100
AcDbEntity
  8
0
100
AcDbLine
 10
-38.63834327170872
 20
38.98041840233161
 30
0.0
 11
-38.61286567696713
 21
39.3711672652415
 31
0.0
  0
LINE
  5
1F3
330
1F
100
AcDbEntity
  8
0
100
AcDbLine
 10
-38.61286567696713
 20
39.3711672652415
 30
0.0
 11
-38.48712296264127
 21
39.74200759677672
 31
0.0
  0
LINE
  5
1F4
330
1F
100
AcDbEntity
  8
0
100
AcDbLine
 10
-38.48712296264127
 20
39.74200759677672
 30
0.0
 11
-38.26968428691278
 21
40.06766724118579
 31
0.0
  0
LINE
  5
1F5
330
1F
100
AcDbEntity
  8
0
100
AcDbLine
 10
-38.26968428691278
 20
40.06766724118579
 30
0.0
 11
-37.97536773619817
 21
40.3259530318802
 31
0.0
  0
LINE
  5
1F6
330
1F
100
AcDbEntity
  8
0
100
AcDbLine
 10
-37.97536773619817
 20
40.3259530318802
 30
0.0
 11
-37.62423049704751
 21
40.4992632190616
 31
0.0
  0
LINE
  5
1F7
330
1F
100
AcDbEntity
  8
0
100
AcDbLine
 10
-37.62423049704751
 20
40.4992632190616
 30
0.0
 11
-37.24020199202724
 21
40.57578699988223
 31
0.0
  0
LINE
  5
1F8
330
1F
100
AcDbEntity
  8
0
100
AcDbLine
 10
-37.24020199202724
 20
40.57578699988223
 30
0.0
 11
-36.84945312911734
 21
40.55030940514064
 31
0.0
  0
LINE
  5
1F9
330
1F
100
AcDbEntity
  8
0
100
AcDbLine
 10
-36.84945312911734
 20
40.55030940514064
 30
0.0
 11
-36.47861279758212
 21
40.42456669081476
 31
0.0
  0
LINE
  5
1FA
330
1F
100
AcDbEntity
  8
0
100
AcDbLine
 10
39.20970532399161
 20
-27.8776000758502
 30
0.0
 11
36.36252787943417
 21
-26.41012086657948
 31
0.0
  0
LINE
  5
1FB
330
1F
100
AcDbEntity
  8
0
100
AcDbLine
 10
36.36252787943417
 20
-26.41012086657948
 30
0.0
 11
33.57037988800377
 21
-24.84046350766654
 31
0.0
  0
LINE
  5
1FC
330
1F
100
AcDbEntity
  8
0
100
AcDbLine
 10
30.83692671803984
 20
-23.17068855335303
 30
0.0
 11
28.16575668675815
 21
-21.4029879863958
 31
0.0
  0
ENDSEC
  0
SECTION
  2
OBJECTS
  0
DICTIONARY
  5
C
330
0
100
AcDbDictionary
  3
ACAD_GROUP
350
D
  3
ACAD_LAYOUT
350
1A
  3
ACAD_MATERIAL
350
43
  3
ACAD_MLEADERSTYLE
350
6B
  3
ACAD_MLINESTYLE
350
17
  3
ACAD_PLOTSETTINGS
350
19
  3
ACAD_SCALELIST
350
47
  3
ACAD_VISUALSTYLE
350
2A
  3
ACDBHEADERROUNDTRIPXREC
350
1FD
  3
ACDBVARIABLEDICTIONARY
350
21E
  0
DICTIONARY
  5
225
330
8
100
AcDbDictionary
280
     1
  3
ACAD_XREC_ROUNDTRIP
360
226
  0
DICTIONARY
  5
D
102
{ACAD_REACTORS
330
C
102
}
330
C
100
AcDbDictionary
  0
DICTIONARY
  5
1A
102
{ACAD_REACTORS
330
C
102
}
330
C
100
AcDbDictionary
  0
DICTIONARY
  5
43
102
{ACAD_REACTORS
330
C
102
}
330
C
100
AcDbDictionary
  3
BYBLOCK
350
45
  3
BYLAYER
350
44
  3
GLOBAL
350
46
  0
DICTIONARY
  5
6B
102
{ACAD_REACTORS
330
C
102
}
330
C
100
AcDbDictionary
  3
STANDARD
350
6C
  0
DICTIONARY
  5
17
102
{ACAD_REACTORS
330
C
102
}
330
C
100
AcDbDictionary
  3
STANDARD
350
18
  0
DICTIONARY
  5
19
102
{ACAD_REACTORS
330
C
102
}
330
C
100
AcDbDictionary
  0
DICTIONARY
  5
47
102
{ACAD_REACTORS
330
C
102
}
330
C
100
AcDbDictionary
  3
A0
350
48
  3
A1
350
49
  3
A2
350
4A
  3
A3
350
4B
  3
A4
350
4C
  3
A5
350
4D
  3
A6
350
4E
  3
A7
350
4F
  3
A8
350
50
  3
A9
350
51
  3
B0
350
52
  3
B1
350
53
  3
B2
350
54
  3
B3
350
55
  3
B4
350
56
  3
B5
350
57
  3
B6
350
58
  3
B7
350
59
  3
B8
350
5A
  3
B9
350
5B
  3
C0
350
5C
  3
C1
350
5D
  3
C2
350
5E
  3
C3
350
5F
  3
C4
350
60
  3
C5
350
61
  3
C6
350
62
  3
C7
350
63
  3
C8
350
64
  3
C9
350
65
  3
D0
350
66
  3
D1
350
67
  3
D2
350
68
  0
DICTIONARY
  5
2A
102
{ACAD_REACTORS
330
C
102
}
330
C
100
AcDbDictionary
  3
2DWIREFRAME
350
2F
  3
BASIC
350
32
  3
BRIGHTEN
350
36
  3
COLORCHANGE
350
3A
  3
CONCEPTUAL
350
34
  3
DIM
350
35
  3
EDGECOLOROFF
350
3D
  3
FACEPATTERN
350
39
  3
FLAT
350
2B
  3
FLATWITHEDGES
350
2C
  3
GOURAUD
350
2D
  3
GOURAUDWITHEDGES
350
2E
  3
HIDDEN
350
31
  3
JITTEROFF
350
3B
  3
LINEPATTERN
350
38
  3
OVERHANGOFF
350
3C
  3
REALISTIC
350
33
  3
SHADED
350
42
  3
SHADED_WITH_EDGES
350
41
  3
SHADES_OF_GRAY
350
3E
  3
SKETCHY
350
3F
  3
THICKEN
350
37
  3
WIREFRAME
350
30
  3
X-RAY
350
40
  0
DICTIONARY
  5
1FD
102
{ACAD_REACTORS
330
C
102
}
330
C
100
AcDbDictionary
  3
CEPSNID
350
207
  3
CEPSNTYPE
350
206
  3
DIMSTYLEDATA
350
21D
  3
FINGERPRINTGUID
350
208
  3
HYPERLINKBASE
350
200
  3
INSUNITS
350
205
  3
LAYOUTDICT
350
202
  3
LWETCUNION
350
204
  3
PLOTSETDICT
350
203
  3
PSVPSCALE
350
20A
  3
PUCSBASE
350
20D
  3
PUCSORGBACK
350
213
  3
PUCSORGBOTTOM
350
20F
  3
PUCSORGFRONT
350
212
  3
PUCSORGLEFT
350
210
  3
PUCSORGRIGHT
350
211
  3
PUCSORGTOP
350
20E
  3
PUCSORTHOREF
350
20B
  3
PUCSORTHOVIEW
350
20C
  3
STYLESHEET
350
201
  3
TSTACKALIGN
350
1FE
  3
TSTACKSIZE
350
1FF
  3
UCSBASE
350
216
  3
UCSORGBACK
350
21C
  3
UCSORGBOTTOM
350
218
  3
UCSORGFRONT
350
21B
  3
UCSORGLEFT
350
219
  3
UCSORGRIGHT
350
21A
  3
UCSORGTOP
350
217
  3
UCSORTHOREF
350
214
  3
UCSORTHOVIEW
350
215
  3
VERSIONGUID
350
209
  0
DICTIONARY
  5
21E
102
{ACAD_REACTORS
330
C
102
}
330
C
100
AcDbDictionary
  3
CANNOSCALE
350
227
  3
CMLEADERSTYLE
350
220
  3
CTABLESTYLE
350
21F
  3
DIMASSOC
350
223
  3
HIDETEXT
350
224
  3
MSLTSCALE
350
228
  0
XRECORD
  5
226
102
{ACAD_REACTORS
330
225
102
}
330
225
100
AcDbXrecord
102
VTR_0.000_0.000_1.000_1.000_VISUALSTYLE
340
2F
102
VTR_0.000_0.000_1.000_1.000_GRIDDISPLAY
 70
     3
102
VTR_0.000_0.000_1.000_1.000_GRIDMAJOR
 70
     5
102
VTR_0.000_0.000_1.000_1.000_DEFAULTLIGHTING
280
     1
102
VTR_0.000_0.000_1.000_1.000_DEFAULTLIGHTINGTYPE
 70
     1
102
VTR_0.000_0.000_1.000_1.000_BRIGHTNESS
141
0.0
102
VTR_0.000_0.000_1.000_1.000_CONTRAST
142
0.0
  0
MATERIAL
  5
45
102
{ACAD_REACTORS
330
43
102
}
102
{ACAD_XDICTIONARY
360
22B
102
}
330
43
100
AcDbMaterial
  1
BYBLOCK
  0
MATERIAL
  5
44
102
{ACAD_REACTORS
330
43
102
}
102
{ACAD_XDICTIONARY
360
229
102
}
330
43
100
AcDbMaterial
  1
BYLAYER
  0
MATERIAL
  5
46
102
{ACAD_REACTORS
330
43
102
}
102
{ACAD_XDICTIONARY
360
22D
102
}
330
43
100
AcDbMaterial
  1
GLOBAL
  0
ACAD_PROXY_OBJECT
  5
6C
102
{ACAD_REACTORS
330
6B
102
}
330
6B
100
AcDbProxyObject
 90
      499
 91
      505
 93
      610
310
40901902A4063FBFFFFFE056BD1B81E855B9FC0AD7A3703D0AD73F4214DD185B99185C9900AD7A3703D0AC73F90141901A02B5E8DC0F42B1CFC02B5E8DC0F42B1CFE5764000000000000300FC0
340
14
340
0
340
11
340
0
 94
        0
1001
ACAD_MLEADERVER
1070
     2
  0
MLINESTYLE
  5
18
102
{ACAD_REACTORS
330
17
102
}
330
17
100
AcDbMlineStyle
  2
Standard
 70
     0
  3

 62
   256
 51
90.0
 52
90.0
 71
     2
 49
0.5
 62
   256
  6
BYLAYER
 49
-0.5
 62
   256
  6
BYLAYER
  0
ACAD_PROXY_OBJECT
  5
48
102
{ACAD_REACTORS
330
47
102
}
330
47
100
AcDbProxyObject
 90
      499
 91
      503
 93
       41
310
903313A31580
  0
ACAD_PROXY_OBJECT
  5
49
102
{ACAD_REACTORS
330
47
102
}
330
47
100
AcDbProxyObject
 90
      499
 91
      503
 93
      105
310
903313A324000000000000004000
  0
ACAD_PROXY_OBJECT
  5
4A
102
{ACAD_REACTORS
330
47
102
}
330
47
100
AcDbProxyObject
 90
      499
 91
      503
 93
      105
310
903313A344000000000000104000
  0
ACAD_PROXY_OBJECT
  5
4B
102
{ACAD_REACTORS
330
47
102
}
330
47
100
AcDbProxyObject
 90
      499
 91
      503
 93
      105
310
903313A354000000000000144000
  0
ACAD_PROXY_OBJECT
  5
4C
102
{ACAD_REACTORS
330
47
102
}
330
47
100
AcDbProxyObject
 90
      499
 91
      503
 93
      105
310
903313A384000000000000204000
  0
ACAD_PROXY_OBJECT
  5
4D
102
{ACAD_REACTORS
330
47
102
}
330
47
100
AcDbProxyObject
 90
      499
 91
      503
 93
      113
310
904313A31304000000000000244000
  0
ACAD_PROXY_OBJECT
  5
4E
102
{ACAD_REACTORS
330
47
102
}
330
47
100
AcDbProxyObject
 90
      499
 91
      503
 93
      113
310
904313A31364000000000000304000
  0
ACAD_PROXY_OBJECT
  5
4F
102
{ACAD_REACTORS
330
47
102
}
330
47
100
AcDbProxyObject
 90
      499
 91
      503
 93
      113
310
904313A32304000000000000344000
  0
ACAD_PROXY_OBJECT
  5
50
102
{ACAD_REACTORS
330
47
102
}
330
47
100
AcDbProxyObject
 90
      499
 91
      503
 93
      113
310
904313A333040000000000003E4000
  0
ACAD_PROXY_OBJECT
  5
51
102
{ACAD_REACTORS
330
47
102
}
330
47
100
AcDbProxyObject
 90
      499
 91
      503
 93
      113
310
904313A34304000000000000444000
  0
ACAD_PROXY_OBJECT
  5
52
102
{ACAD_REACTORS
330
47
102
}
330
47
100
AcDbProxyObject
 90
      499
 91
      503
 93
      113
310
904313A35304000000000000494000
  0
ACAD_PROXY_OBJECT
  5
53
102
{ACAD_REACTORS
330
47
102
}
330
47
100
AcDbProxyObject
 90
      499
 91
      503
 93
      121
310
905313A3130304000000000000594000
  0
ACAD_PROXY_OBJECT
  5
54
102
{ACAD_REACTORS
330
47
102
}
330
47
100
AcDbProxyObject
 90
      499
 91
      503
 93
      105
310
903323A310000000000000010100
  0
ACAD_PROXY_OBJECT
  5
55
102
{ACAD_REACTORS
330
47
102
}
330
47
100
AcDbProxyObject
 90
      499
 91
      503
 93
      105
310
903343A310000000000000410100
  0
ACAD_PROXY_OBJECT
  5
56
102
{ACAD_REACTORS
330
47
102
}
330
47
100
AcDbProxyObject
 90
      499
 91
      503
 93
      105
310
903383A310000000000000810100
  0
ACAD_PROXY_OBJECT
  5
57
102
{ACAD_REACTORS
330
47
102
}
330
47
100
AcDbProxyObject
 90
      499
 91
      503
 93
      113
310
90431303A310000000000000910100
  0
ACAD_PROXY_OBJECT
  5
58
102
{ACAD_REACTORS
330
47
102
}
330
47
100
AcDbProxyObject
 90
      499
 91
      503
 93
      121
310
9053130303A310000000000001650100
  0
ACAD_PROXY_OBJECT
  5
59
102
{ACAD_REACTORS
330
47
102
}
330
47
100
AcDbProxyObject
 90
      499
 91
      503
 93
      257
310
90E312F31323822203D2031272D3022000000000000200FC000000000000284000
  0
ACAD_PROXY_OBJECT
  5
5A
102
{ACAD_REACTORS
330
47
102
}
330
47
100
AcDbProxyObject
 90
      499
 91
      503
 93
      249
310
90D312F363422203D2031272D3022000000000000240FC000000000000284000
  0
ACAD_PROXY_OBJECT
  5
5B
102
{ACAD_REACTORS
330
47
102
}
330
47
100
AcDbProxyObject
 90
      499
 91
      503
 93
      249
310
90D312F333222203D2031272D3022000000000000280FC000000000000284000
  0
ACAD_PROXY_OBJECT
  5
5C
102
{ACAD_REACTORS
330
47
102
}
330
47
100
AcDbProxyObject
 90
      499
 91
      503
 93
      249
310
90D312F313622203D2031272D30220000000000002C0FC000000000000284000
  0
ACAD_PROXY_OBJECT
  5
5D
102
{ACAD_REACTORS
330
47
102
}
330
47
100
AcDbProxyObject
 90
      499
 91
      503
 93
      249
310
90D332F333222203D2031272D30220000000000002E0FC000000000000284000
  0
ACAD_PROXY_OBJECT
  5
5E
102
{ACAD_REACTORS
330
47
102
}
330
47
100
AcDbProxyObject
 90
      499
 91
      503
 93
      241
310
90C312F3822203D2031272D3022000000000000300FC000000000000284000
  0
ACAD_PROXY_OBJECT
  5
5F
102
{ACAD_REACTORS
330
47
102
}
330
47
100
AcDbProxyObject
 90
      499
 91
      503
 93
      249
310
90D332F313622203D2031272D3022000000000000320FC000000000000284000
  0
ACAD_PROXY_OBJECT
  5
60
102
{ACAD_REACTORS
330
47
102
}
330
47
100
AcDbProxyObject
 90
      499
 91
      503
 93
      241
310
90C312F3422203D2031272D3022000000000000340FC000000000000284000
  0
ACAD_PROXY_OBJECT
  5
61
102
{ACAD_REACTORS
330
47
102
}
330
47
100
AcDbProxyObject
 90
      499
 91
      503
 93
      241
310
90C332F3822203D2031272D3022000000000000360FC000000000000284000
  0
ACAD_PROXY_OBJECT
  5
62
102
{ACAD_REACTORS
330
47
102
}
330
47
100
AcDbProxyObject
 90
      499
 91
      503
 93
      241
310
90C312F3222203D2031272D3022000000000000380FC000000000000284000
  0
ACAD_PROXY_OBJECT
  5
63
102
{ACAD_REACTORS
330
47
102
}
330
47
100
AcDbProxyObject
 90
      499
 91
      503
 93
      241
310
90C332F3422203D2031272D30220000000000003A0FC000000000000284000
  0
ACAD_PROXY_OBJECT
  5
64
102
{ACAD_REACTORS
330
47
102
}
330
47
100
AcDbProxyObject
 90
      499
 91
      503
 93
      161
310
90A3122203D2031272D30224000000000000284000
  0
ACAD_PROXY_OBJECT
  5
65
102
{ACAD_REACTORS
330
47
102
}
330
47
100
AcDbProxyObject
 90
      499
 91
      503
 93
      257
310
90E312D312F3222203D2031272D30220000000000003E0FC000000000000284000
  0
ACAD_PROXY_OBJECT
  5
66
102
{ACAD_REACTORS
330
47
102
}
330
47
100
AcDbProxyObject
 90
      499
 91
      503
 93
      225
310
90A3322203D2031272D302200000000000002100000000000000284000
  0
ACAD_PROXY_OBJECT
  5
67
102
{ACAD_REACTORS
330
47
102
}
330
47
100
AcDbProxyObject
 90
      499
 91
      503
 93
      225
310
90A3622203D2031272D302200000000000006100000000000000284000
  0
ACAD_PROXY_OBJECT
  5
68
102
{ACAD_REACTORS
330
47
102
}
330
47
100
AcDbProxyObject
 90
      499
 91
      503
 93
      249
310
90D31272D3022203D2031272D30220000000000000A100000000000000284000
  0
ACAD_PROXY_OBJECT
  5
2F
102
{ACAD_REACTORS
330
2A
102
}
330
2A
100
AcDbProxyObject
 90
      499
 91
      501
 93
      436
310
42CC9915DA5C99599C985B595049028333333333333E33F0000000000000F90107901411070040501600405405064090741402480A0340
1001
ACAD
1000
AcDbSavedByObjectVersion
1070
     0
  0
ACAD_PROXY_OBJECT
  5
32
102
{ACAD_REACTORS
330
2A
102
}
330
2A
100
AcDbProxyObject
 90
      499
 91
      501
 93
      388
310
4150985CDA58D07406404333333333333E33F0000000000000F90107A41107004050150841D405064090741402480A0350
1001
ACAD
1000
AcDbSavedByObjectVersion
1070
     0
  0
ACAD_PROXY_OBJECT
  5
36
102
{ACAD_REACTORS
330
2A
102
}
330
2A
100
AcDbProxyObject
 90
      499
 91
      501
 93
      428
310
42109C9A59DA1D195B90C409028333333333333E33F0000000000000F9010790141107004050150841D405064090741402480A029950
1001
ACAD
1000
AcDbSavedByObjectVersion
1070
     0
  0
ACAD_PROXY_OBJECT
  5
3A
102
{ACAD_REACTORS
330
2A
102
}
330
2A
100
AcDbProxyObject
 90
      499
 91
      501
 93
      452
310
42D0DBDB1BDC90DA185B99D95104090240C333333333333E33F0000000000000F90108901411070040501508421405064090741402480A0350
1001
ACAD
1000
AcDbSavedByObjectVersion
1070
     0
  0
ACAD_PROXY_OBJECT
  5
34
102
{ACAD_REACTORS
330
2A
102
}
330
2A
100
AcDbProxyObject
 90
      499
 91
      501
 93
      500
310
4290DBDB98D95C1D1D585B10940D028333333333333E33F0000000000000F90107902409070040501000000000018199010841D405064090740C02480A0340
1001
ACAD
1000
AcDbSavedByObjectVersion
1070
     0
  0
ACAD_PROXY_OBJECT
  5
35
102
{ACAD_REACTORS
330
2A
102
}
330
2A
100
AcDbProxyObject
 90
      499
 91
      501
 93
      412
310
40D11A5B50B409028333333333333E33F0000000000000F9010790141107004050150841D405064090741402480A02677FFFFFD0
1001
ACAD
1000
AcDbSavedByObjectVersion
1070
     0
  0
ACAD_PROXY_OBJECT
  5
3D
102
{ACAD_REACTORS
330
2A
102
}
330
2A
100
AcDbProxyObject
 90
      499
 91
      501
 93
      452
310
43115919D950DBDB1BDC93D999916409028333333333333E33F0000000000000F9010790141107004050150841D405064090741402480A0350
1001
ACAD
1000
AcDbSavedByObjectVersion
1070
     0
  0
ACAD_PROXY_OBJECT
  5
39
102
{ACAD_REACTORS
330
2A
102
}
330
2A
100
AcDbProxyObject
 90
      499
 91
      501
 93
      444
310
42D19858D95C185D1D195C9B90F409028333333333333E33F0000000000000F9010790141107004050150841D405064090741402480A0350
1001
ACAD
1000
AcDbSavedByObjectVersion
1070
     0
  0
ACAD_PROXY_OBJECT
  5
2B
102
{ACAD_REACTORS
330
2A
102
}
330
2A
100
AcDbProxyObject
 90
      499
 91
      501
 93
      380
310
41119B185D240901404333333333333E33F0000000000000F9010740A907004050150841D405064090741402480A1B50
1001
ACAD
1000
AcDbSavedByObjectVersion
1070
     0
  0
ACAD_PROXY_OBJECT
  5
2C
102
{ACAD_REACTORS
330
2A
102
}
330
2A
100
AcDbProxyObject
 90
      499
 91
      501
 93
      468
310
43519B185D15DA5D1A115919D95CD0140901404333333333333E33F0000000000000F90107409019070040501600405405064090741402480A1B50
1001
ACAD
1000
AcDbSavedByObjectVersion
1070
     0
  0
ACAD_PROXY_OBJECT
  5
2D
102
{ACAD_REACTORS
330
2A
102
}
330
2A
100
AcDbProxyObject
 90
      499
 91
      501
 93
      404
310
41D1DBDD5C985D5910240902404333333333333E33F0000000000000F9010740A9070040501641D405064090741402480A1B50
1001
ACAD
1000
AcDbSavedByObjectVersion
1070
     0
  0
ACAD_PROXY_OBJECT
  5
2E
102
{ACAD_REACTORS
330
2A
102
}
330
2A
100
AcDbProxyObject
 90
      499
 91
      501
 93
      492
310
4411DBDD5C985D5915DA5D1A115919D95CD0340902404333333333333E33F0000000000000F90107409019070040501600405405064090741402480A1B50
1001
ACAD
1000
AcDbSavedByObjectVersion
1070
     0
  0
ACAD_PROXY_OBJECT
  5
31
102
{ACAD_REACTORS
330
2A
102
}
330
2A
100
AcDbProxyObject
 90
      499
 91
      501
 93
      476
310
41921A5919195B90640502408333333333333E33F0000000000000F901079024090700405020000000000001110200405405064090740C02480A0340
1001
ACAD
1000
AcDbSavedByObjectVersion
1070
     0
  0
ACAD_PROXY_OBJECT
  5
3B
102
{ACAD_REACTORS
330
2A
102
}
330
2A
100
AcDbProxyObject
 90
      499
 91
      501
 93
      428
310
42529A5D1D195C93D999914409028333333333333E33F0000000000000F9010790141107004050150A41D405064090741402480A0350
1001
ACAD
1000
AcDbSavedByObjectVersion
1070
     0
  0
ACAD_PROXY_OBJECT
  5
38
102
{ACAD_REACTORS
330
2A
102
}
330
2A
100
AcDbProxyObject
 90
      499
 91
      501
 93
      444
310
42D31A5B995C185D1D195C9B90E409028333333333333E33F0000000000000F9010790141107004050750841D405064090741402483A0350
1001
ACAD
1000
AcDbSavedByObjectVersion
1070
     0
  0
ACAD_PROXY_OBJECT
  5
3C
102
{ACAD_REACTORS
330
2A
102
}
330
2A
100
AcDbProxyObject
 90
      499
 91
      501
 93
      444
310
42D3DD995C9A185B99D3D999915409028333333333333E33F0000000000000F9010790141107004050150941D405064090741402480A0350
1001
ACAD
1000
AcDbSavedByObjectVersion
1070
     0
  0
ACAD_PROXY_OBJECT
  5
33
102
{ACAD_REACTORS
330
2A
102
}
330
2A
100
AcDbProxyObject
 90
      499
 91
      501
 93
      428
310
425499585B1A5CDD1A58D08409038333333333333E33F0000000000000F9010740A907004050150800405405064090740C02480A1B40
1001
ACAD
1000
AcDbSavedByObjectVersion
1070
     0
  0
ACAD_PROXY_OBJECT
  5
42
102
{ACAD_REACTORS
330
2A
102
}
330
2A
100
AcDbProxyObject
 90
      499
 91
      501
 93
      420
310
4194DA1859195911B40902404333333333333E33F0000000000000F9010740A41107004050150800405405064090840C02480A0B40
1001
ACAD
1000
AcDbSavedByObjectVersion
1070
     0
  0
ACAD_PROXY_OBJECT
  5
41
102
{ACAD_REACTORS
330
2A
102
}
330
2A
100
AcDbProxyObject
 90
      499
 91
      501
 93
      516
310
4454DA18591959081DDA5D1A08195919D95CD1A40902404333333333333E33F0000000000000F901074090142907004050250800405405064090740C02480A0B40
1001
ACAD
1000
AcDbSavedByObjectVersion
1070
     0
  0
ACAD_PROXY_OBJECT
  5
3E
102
{ACAD_REACTORS
330
2A
102
}
330
2A
100
AcDbProxyObject
 90
      499
 91
      501
 93
      532
310
4394DA1859195CC81BD98811DC985E5174090240C333333333333E33F0000000000000F901079024090741D01000000000000111010841D405064090740C02480A0340
1001
ACAD
1000
AcDbSavedByObjectVersion
1070
     0
  0
ACAD_PROXY_OBJECT
  5
3F
102
{ACAD_REACTORS
330
2A
102
}
330
2A
100
AcDbProxyObject
 90
      499
 91
      501
 93
      476
310
41D4DAD95D18DA1E51840502408333333333333E33F0000000000000F901079024090741D01000000000000111010B41D405064090741802480A0340
1001
ACAD
1000
AcDbSavedByObjectVersion
1070
     0
  0
ACAD_PROXY_OBJECT
  5
37
102
{ACAD_REACTORS
330
2A
102
}
330
2A
100
AcDbProxyObject
 90
      499
 91
      501
 93
      412
310
41D51A1A58DAD95B90D409028333333333333E33F0000000000000F9010790141107004050150C41D405064090741402480A0350
1001
ACAD
1000
AcDbSavedByObjectVersion
1070
     0
  0
ACAD_PROXY_OBJECT
  5
30
102
{ACAD_REACTORS
330
2A
102
}
330
2A
100
AcDbProxyObject
 90
      499
 91
      501
 93
      420
310
4255DA5C99599C985B595059028333333333333E33F0000000000000F90107901411070040501600405405064090740C02480A0340
1001
ACAD
1000
AcDbSavedByObjectVersion
1070
     0
  0
ACAD_PROXY_OBJECT
  5
40
102
{ACAD_REACTORS
330
2A
102
}
330
2A
100
AcDbProxyObject
 90
      499
 91
      501
 93
      404
310
41560B54985E51940902404000000000000E03F0000000000000F9010740501907004050150841D405064090740C02480A1B40
1001
ACAD
1000
AcDbSavedByObjectVersion
1070
     0
  0
XRECORD
  5
207
102
{ACAD_REACTORS
330
1FD
102
}
330
1FD
100
AcDbXrecord
340
0
  0
XRECORD
  5
206
102
{ACAD_REACTORS
330
1FD
102
}
330
1FD
100
AcDbXrecord
 90
        0
  0
XRECORD
  5
21D
102
{ACAD_REACTORS
330
1FD
102
}
330
1FD
100
AcDbXrecord
1000
DSTYLE
1002
{
1070
   171
 70
     2
1070
   143
 40
25.4
1070
   274
 70
     2
1070
    41
 40
0.18
1070
   141
 40
0.09
1070
   271
 70
     4
1070
    43
 40
0.38
1070
   278
 70
    46
1070
    44
 40
0.18
1070
    42
 40
0.0625
1070
   147
 40
0.09
1070
    77
 70
     0
1070
   272
 70
     4
1070
    73
 70
     1
1070
   172
 70
     0
1070
    74
 70
     1
1070
   283
 70
     1
1070
   340
340
11
1070
   140
 40
0.18
1070
   284
 70
     0
1070
    78
 70
     0
1002
}
  0
XRECORD
  5
208
102
{ACAD_REACTORS
330
1FD
102
}
330
1FD
100
AcDbXrecord
  1
{DFB2AC02-883F-46E2-AFC9-D15DCF4F4282}
  0
XRECORD
  5
200
102
{ACAD_REACTORS
330
1FD
102
}
330
1FD
100
AcDbXrecord
  1

  0
XRECORD
  5
205
102
{ACAD_REACTORS
330
1FD
102
}
330
1FD
100
AcDbXrecord
 90
        4
  0
XRECORD
  5
202
102
{ACAD_REACTORS
330
1FD
102
}
330
1FD
100
AcDbXrecord
340
1A
  0
XRECORD
  5
204
102
{ACAD_REACTORS
330
1FD
102
}
330
1FD
100
AcDbXrecord
 90
    10781
  0
XRECORD
  5
203
102
{ACAD_REACTORS
330
1FD
102
}
330
1FD
100
AcDbXrecord
340
19
  0
XRECORD
  5
20A
102
{ACAD_REACTORS
330
1FD
102
}
330
1FD
100
AcDbXrecord
 40
0.0
  0
XRECORD
  5
20D
102
{ACAD_REACTORS
330
1FD
102
}
330
1FD
100
AcDbXrecord
340
0
  0
XRECORD
  5
213
102
{ACAD_REACTORS
330
1FD
102
}
330
1FD
100
AcDbXrecord
 10
0.0
 20
0.0
 30
0.0
  0
XRECORD
  5
20F
102
{ACAD_REACTORS
330
1FD
102
}
330
1FD
100
AcDbXrecord
 10
0.0
 20
0.0
 30
0.0
  0
XRECORD
  5
212
102
{ACAD_REACTORS
330
1FD
102
}
330
1FD
100
AcDbXrecord
 10
0.0
 20
0.0
 30
0.0
  0
XRECORD
  5
210
102
{ACAD_REACTORS
330
1FD
102
}
330
1FD
100
AcDbXrecord
 10
0.0
 20
0.0
 30
0.0
  0
XRECORD
  5
211
102
{ACAD_REACTORS
330
1FD
102
}
330
1FD
100
AcDbXrecord
 10
0.0
 20
0.0
 30
0.0
  0
XRECORD
  5
20E
102
{ACAD_REACTORS
330
1FD
102
}
330
1FD
100
AcDbXrecord
 10
0.0
 20
0.0
 30
0.0
  0
XRECORD
  5
20B
102
{ACAD_REACTORS
330
1FD
102
}
330
1FD
100
AcDbXrecord
340
0
  0
XRECORD
  5
20C
102
{ACAD_REACTORS
330
1FD
102
}
330
1FD
100
AcDbXrecord
 70
     0
  0
XRECORD
  5
201
102
{ACAD_REACTORS
330
1FD
102
}
330
1FD
100
AcDbXrecord
  1

  0
XRECORD
  5
1FE
102
{ACAD_REACTORS
330
1FD
102
}
330
1FD
100
AcDbXrecord
 90
        1
  0
XRECORD
  5
1FF
102
{ACAD_REACTORS
330
1FD
102
}
330
1FD
100
AcDbXrecord
 90
       70
  0
XRECORD
  5
216
102
{ACAD_REACTORS
330
1FD
102
}
330
1FD
100
AcDbXrecord
340
0
  0
XRECORD
  5
21C
102
{ACAD_REACTORS
330
1FD
102
}
330
1FD
100
AcDbXrecord
 10
0.0
 20
0.0
 30
0.0
  0
XRECORD
  5
218
102
{ACAD_REACTORS
330
1FD
102
}
330
1FD
100
AcDbXrecord
 10
0.0
 20
0.0
 30
0.0
  0
XRECORD
  5
21B
102
{ACAD_REACTORS
330
1FD
102
}
330
1FD
100
AcDbXrecord
 10
0.0
 20
0.0
 30
0.0
  0
XRECORD
  5
219
102
{ACAD_REACTORS
330
1FD
102
}
330
1FD
100
AcDbXrecord
 10
0.0
 20
0.0
 30
0.0
  0
XRECORD
  5
21A
102
{ACAD_REACTORS
330
1FD
102
}
330
1FD
100
AcDbXrecord
 10
0.0
 20
0.0
 30
0.0
  0
XRECORD
  5
217
102
{ACAD_REACTORS
330
1FD
102
}
330
1FD
100
AcDbXrecord
 10
0.0
 20
0.0
 30
0.0
  0
XRECORD
  5
214
102
{ACAD_REACTORS
330
1FD
102
}
330
1FD
100
AcDbXrecord
340
0
  0
XRECORD
  5
215
102
{ACAD_REACTORS
330
1FD
102
}
330
1FD
100
AcDbXrecord
 70
     0
  0
XRECORD
  5
209
102
{ACAD_REACTORS
330
1FD
102
}
330
1FD
100
AcDbXrecord
  1
{FAEB1C32-E019-11D5-929B-00C0DF256EC4}
  0
DICTIONARYVAR
  5
227
102
{ACAD_REACTORS
330
21E
102
}
330
21E
100
DictionaryVariables
280
     0
  1
1:1
  0
DICTIONARYVAR
  5
220
102
{ACAD_REACTORS
330
21E
102
}
330
21E
100
DictionaryVariables
280
     0
  1
Standard
  0
DICTIONARYVAR
  5
21F
102
{ACAD_REACTORS
330
21E
102
}
330
21E
100
DictionaryVariables
280
     0
  1
Standard
  0
DICTIONARYVAR
  5
223
102
{ACAD_REACTORS
330
21E
102
}
330
21E
100
DictionaryVariables
280
     0
  1
2
  0
DICTIONARYVAR
  5
224
102
{ACAD_REACTORS
330
21E
102
}
330
21E
100
DictionaryVariables
280
     0
  1
1
  0
DICTIONARYVAR
  5
228
102
{ACAD_REACTORS
330
21E
102
}
330
21E
100
DictionaryVariables
280
     0
  1
1
  0
DICTIONARY
  5
22B
330
45
100
AcDbDictionary
280
     1
  3
ACAD_XREC_ROUNDTRIP
360
22C
  0
DICTIONARY
  5
229
330
44
100
AcDbDictionary
280
     1
  3
ACAD_XREC_ROUNDTRIP
360
22A
  0
DICTIONARY
  5
22D
330
46
100
AcDbDictionary
280
     1
  3
ACAD_XREC_ROUNDTRIP
360
22E
  0
XRECORD
  5
22C
102
{ACAD_REACTORS
330
22B
102
}
330
22B
100
AcDbXrecord
102
MATERIAL
148
0.0
149
0.0
149
0.0
 93
        0
 94
      127
282
     0
 72
     1
 77
     1
171
     1
175
     1
179
     1
273
     0
  0
XRECORD
  5
22A
102
{ACAD_REACTORS
330
229
102
}
330
229
100
AcDbXrecord
102
MATERIAL
148
0.0
149
0.0
149
0.0
 93
        0
 94
      127
282
     0
 72
     1
 77
     1
171
     1
175
     1
179
     1
273
     0
  0
XRECORD
  5
22E
102
{ACAD_REACTORS
330
22D
102
}
330
22D
100
AcDbXrecord
102
MATERIAL
148
0.0
149
0.0
149
0.0
 93
        0
 94
      127
282
     0
 72
     1
 77
     1
171
     1
175
     1
179
     1
273
     0
  0
ENDSEC
  0
EOF
