0
SECTION
2
HEADER
9
$INSUNITS
70
4
9
$ACADVER
1
AC1014
9
$HANDSEED
5
FFFF
0
ENDSEC
0
SECTION
2
TABLES
0
TABLE
2
VPORT
5
8
100
AcDbSymbolTable
0
ENDTAB
0
TABLE
2
LTYPE
5
5
100
AcDbSymbolTable
0
LTYPE
5
14
100
AcDbSymbolTableRecord
100
AcDbLinetypeTableRecord
2
BYBLOCK
70
0
0
LTYPE
5
15
100
AcDbSymbolTableRecord
100
AcDbLinetypeTableRecord
2
BYLAYER
70
0
0
ENDTAB
0
TABLE
2
LAYER
5
2
100
AcDbSymbolTable
70
2
0
LAYER
5
50
100
AcDbSymbolTableRecord
100
AcDbLayerTableRecord
2
0
70
0
6
CONTINUOUS
0
ENDTAB
0
TABLE
2
STYLE
5
3
100
AcDbSymbolTable
70
1
0
STYLE
5
11
100
AcDbSymbolTableRecord
100
AcDbTextStyleTableRecord
2
STANDARD
70
0
0
ENDTAB
0
TABLE
2
VIEW
5
6
100
AcDbSymbolTable
70
0
0
ENDTAB
0
TABLE
2
UCS
5
7
100
AcDbSymbolTable
70
0
0
ENDTAB
0
TABLE
2
APPID
5
9
100
AcDbSymbolTable
70
2
0
APPID
5
12
100
AcDbSymbolTableRecord
100
AcDbRegAppTableRecord
2
ACAD
70
0
0
ENDTAB
0
TABLE
2
DIMSTYLE
5
A
100
AcDbSymbolTable
70
1
0
ENDTAB
0
TABLE
2
BLOCK_RECORD
5
1
100
AcDbSymbolTable
70
1
0
BLOCK_RECORD
5
1F
100
AcDbSymbolTableRecord
100
AcDbBlockTableRecord
2
*MODEL_SPACE
0
BLOCK_RECORD
5
1B
100
AcDbSymbolTableRecord
100
AcDbBlockTableRecord
2
*PAPER_SPACE
0
ENDTAB
0
ENDSEC
0
SECTION
2
BLOCKS
0
BLOCK
5
20
100
AcDbEntity
100
AcDbBlockBegin
2
*MODEL_SPACE
0
ENDBLK
5
21
100
AcDbEntity
100
AcDbBlockEnd
0
BLOCK
5
1C
100
AcDbEntity
100
AcDbBlockBegin
2
*PAPER_SPACE
0
ENDBLK
5
1D
100
AcDbEntity
100
AcDbBlockEnd
0
ENDSEC
0
SECTION
2
ENTITIES
0
CIRCLE
5
100
100
AcDbEntity
8
0
100
AcDbCircle
10
8
20
8
30
0
40
0.99999999999999967
210
0
220
0
230
1
0
CIRCLE
5
101
100
AcDbEntity
8
0
100
AcDbCircle
10
-8
20
8
30
0
40
1.0000000000000007
210
0
220
0
230
1
0
CIRCLE
5
102
100
AcDbEntity
8
0
100
AcDbCircle
10
-8
20
-8
30
0
40
0.99999999999999989
210
0
220
0
230
1
0
CIRCLE
5
103
100
AcDbEntity
8
0
100
AcDbCircle
10
8
20
-8
30
0
40
0.99999999999999978
210
0
220
0
230
1
0
LINE
5
104
100
AcDbEntity
8
0
100
AcDbLine
10
11.999999999984009
20
3.8365450458925059
30
0
11
12.000000000000027
21
-5.6862915010152362
31
0
0
CIRCLE
5
105
100
AcDbEntity
8
0
100
AcDbCircle
10
0
20
-23.500000000000007
30
0
40
1.5000000000000004
210
0
220
0
230
1
0
LINE
5
106
100
AcDbEntity
8
0
100
AcDbLine
10
5.3271024347683493
20
-18.914243726965786
30
0
11
4.4158922163338206
21
-20.762351879924402
31
0
0
LWPOLYLINE
5
107
100
AcDbEntity
8
0
100
AcDbPolyline
90
6
70
1
43
0.0
10
-4.4158922163338037
20
-20.76235187992441
10
-5.3271024347683387
20
-18.914243726965815
42
0.51367861931228698
10
-13.347169314374675
20
-17.589810001493969
10
-16.935806233907368
20
-21.178446921026662
42
0.75414133542297057
10
-16.002289139143823
20
-22.859585719092518
42
-0.083234953041134527
10
-5.4163960139987024
20
-22.199191250005757
42
0.59017380990526092
0
LWPOLYLINE
5
108
100
AcDbEntity
8
0
100
AcDbPolyline
90
8
70
1
43
0.0
10
9.4999999999868727
20
-2.6334368340211589
42
-0.21342176528314272
10
9.1666666666535406
20
-3.3787928265201508
10
6.2500000000000009
20
-5.9875388002581742
42
-0.64823151951037461
10
4.9999999999999982
20
-5.4285218058832267
10
4.9999999999999991
20
5.428521825875241
42
-0.64823151951037306
10
6.25
20
5.9875388202501885
10
9.1666666666584788
20
3.3787928465077637
42
-0.21342176528363327
10
9.4999999999918128
20
2.6334368540068951
0
LWPOLYLINE
5
109
100
AcDbEntity
8
0
100
AcDbPolyline
90
8
70
1
43
0.0
10
-9.1666666666584788
20
3.3787928465077637
10
-6.25
20
5.9875388202501885
42
-0.64823151951037306
10
-5
20
5.428521825875241
10
-4.9999999999999991
20
-5.4285218058832267
42
-0.64823151951037461
10
-6.2500000000000009
20
-5.9875388002581742
10
-9.1666666666535406
20
-3.3787928265201512
42
-0.21342176528314272
10
-9.4999999999868727
20
-2.6334368340211589
10
-9.4999999999918128
20
2.6334368540068951
42
-0.21342176528363327
0
LWPOLYLINE
5
110
100
AcDbEntity
8
0
100
AcDbPolyline
90
8
70
1
43
0.0
10
-3.378792846507761
20
-14.166666666658486
10
-5.9875388202501858
20
-11.250000000000002
42
-0.64823151951037339
10
-5.4285218258752401
20
-10.000000000000004
10
5.4285218058832294
20
-10
42
-0.64823151951037428
10
5.9875388002581778
20
-11.250000000000002
10
3.3787928265201552
20
-14.166666666653541
42
-0.21342176528314294
10
2.6334368340211629
20
-14.499999999986874
10
-2.6334368540068924
20
-14.49999999999182
42
-0.21342176528363327
0
ARC
5
111
100
AcDbEntity
8
0
100
AcDbCircle
10
17.000000000000011
20
-5.6862915010152406
30
0
40
4.999999999999984
210
0
220
0
230
1
100
AcDbArc
50
180
51
225
0
ARC
5
112
100
AcDbEntity
8
0
100
AcDbCircle
10
-16.999999999984034
20
-5.6862915009992365
30
0
40
5.0000000000000266
210
-0
220
0
230
1
100
AcDbArc
50
-44.99999999999995
51
0
0
ARC
5
113
100
AcDbEntity
8
0
100
AcDbCircle
10
11.250000000000002
20
30.250000000000007
30
0
40
2.7500000000000013
210
0
220
0
230
1
100
AcDbArc
50
0
51
180
0
CIRCLE
5
114
100
AcDbEntity
8
0
100
AcDbCircle
10
11.250000000000002
20
30.250000000000007
30
0
40
1.4999999999999993
210
0
220
0
230
1
0
LINE
5
115
100
AcDbEntity
8
0
100
AcDbLine
10
8.5
20
30.250000000000007
30
0
11
6.5000000000000018
21
17.977584752058824
31
0
0
LINE
5
116
100
AcDbEntity
8
0
100
AcDbLine
10
-8.4999999999999822
20
30.250000000000014
30
0
11
-6.4999999999999929
21
17.977584752058831
31
0
0
ARC
5
117
100
AcDbEntity
8
0
100
AcDbCircle
10
-11.249999999999984
20
30.250000000000014
30
0
40
2.7500000000000013
210
0
220
0
230
1
100
AcDbArc
50
0
51
180
0
CIRCLE
5
118
100
AcDbEntity
8
0
100
AcDbCircle
10
-11.249999999999984
20
30.250000000000014
30
0
40
1.4999999999999993
210
0
220
0
230
1
0
ARC
5
119
100
AcDbEntity
8
0
100
AcDbCircle
10
4.9960036108132044e-15
20
19.036870942866365
30
0
40
6.5857487982791678
210
0
220
0
230
1
100
AcDbArc
50
189.25595899749794
51
350.74404100250206
0
CIRCLE
5
120
100
AcDbEntity
8
0
100
AcDbCircle
10
49.497474683058364
20
-53.997474683058272
30
0
40
0.99999999999999967
210
0
220
-0
230
1
0
LINE
5
121
100
AcDbEntity
8
0
100
AcDbLine
10
52.929765629641395
20
-58.04683574776908
30
0
11
48.601272517776934
21
-56.491331471036439
31
0
0
CIRCLE
5
122
100
AcDbEntity
8
0
100
AcDbCircle
10
49.497474683058371
20
-44.997474683058307
30
0
40
1.0000000000000011
210
0
220
-0
230
1
0
ARC
5
123
100
AcDbEntity
8
0
100
AcDbCircle
10
58.809511353846496
20
-40.185438012270126
30
0
40
7.8318759713666228
210
0
220
0
230
1
100
AcDbArc
50
207.32786240925697
51
242.67213759074335
0
ARC
5
124
100
AcDbEntity
8
0
100
AcDbCircle
10
54.282523614971907
20
-54.282523614971808
30
0
40
4.0000000000000204
210
0
220
0
230
1
100
AcDbArc
50
-109.76660673479745
51
19.766606734796582
0
ARC
5
125
100
AcDbEntity
8
0
100
AcDbCircle
10
49.508239587040414
20
-35.302471719306951
30
0
40
7.0450194825393995
210
0
220
0
230
1
100
AcDbArc
50
225.15169409080508
51
269.88014127628298
0
LINE
5
126
100
AcDbEntity
8
0
100
AcDbLine
10
58.046835747769158
20
-52.929765629641366
30
0
11
56.49133147103651
21
-48.601272517776849
31
0
0
CIRCLE
5
127
100
AcDbEntity
8
0
100
AcDbCircle
10
49.497474683058357
20
-49.4974746830583
30
0
40
2.5000000000000022
210
0
220
-0
230
1
0
ARC
5
128
100
AcDbEntity
8
0
100
AcDbCircle
10
49.497474683058364
20
-53.997474683058272
30
0
40
2.6499999999999919
210
0
220
0
230
1
100
AcDbArc
50
207.32786240925728
51
250.23339326520309
0
ARC
5
129
100
AcDbEntity
8
0
100
AcDbCircle
10
53.997474683058329
20
-49.497474683058286
30
0
40
2.6499999999999959
210
-0
220
0
230
1
100
AcDbArc
50
19.766606734796955
51
62.672137590742842
0
CIRCLE
5
130
100
AcDbEntity
8
0
100
AcDbCircle
10
53.997474683058329
20
-49.497474683058286
30
0
40
1.0000000000000029
210
0
220
-0
230
1
0
ARC
5
131
100
AcDbEntity
8
0
100
AcDbCircle
10
49.497474683058357
20
-49.4974746830583
30
0
40
7.149999999999995
210
0
220
0
230
1
100
AcDbArc
50
179.96816463293169
51
180
0
ARC
5
132
100
AcDbEntity
8
0
100
AcDbCircle
10
44.997474683058378
20
-49.497474683058314
30
0
40
2.6500000000000057
210
0
220
0
230
1
100
AcDbArc
50
180
51
242.67213759074269
0
ARC
5
133
100
AcDbEntity
8
0
100
AcDbCircle
10
49.497474683058371
20
-44.997474683058307
30
0
40
2.6500000000000004
210
0
220
-0
230
1
100
AcDbArc
50
27.327862409256745
51
90.000000000000924
0
ARC
5
134
100
AcDbEntity
8
0
100
AcDbCircle
10
49.497474683058357
20
-49.4974746830583
30
0
40
7.1499999999999808
210
0
220
0
230
1
100
AcDbArc
50
90.000000000000242
51
90.031835367068211
0
ARC
5
135
100
AcDbEntity
8
0
100
AcDbCircle
10
35.242738657394042
20
-49.532962391627819
30
0
40
7.1048467123922805
210
-0
220
0
230
1
100
AcDbArc
50
0.31822367236732785
51
44.649940960564578
0
ARC
5
136
100
AcDbEntity
8
0
100
AcDbCircle
10
40.185438012270211
20
-58.809511353846453
30
0
40
7.8318759713666539
210
-0
220
0
230
1
100
AcDbArc
50
27.327862409256717
51
62.672137590743318
0
CIRCLE
5
137
100
AcDbEntity
8
0
100
AcDbCircle
10
44.997474683058378
20
-49.497474683058314
30
0
40
1
210
0
220
-0
230
1
0
LINE
5
138
100
AcDbEntity
8
0
100
AcDbLine
10
-58.046835747769101
20
-52.929765629641423
30
0
11
-56.491331471036474
21
-48.601272517776906
31
0
0
ARC
5
139
100
AcDbEntity
8
0
100
AcDbCircle
10
-49.497474683058307
20
-53.997474683058336
30
0
40
2.6499999999999786
210
-0
220
0
230
1
100
AcDbArc
50
289.76660673479688
51
332.67213759074332
0
LINE
5
140
100
AcDbEntity
8
0
100
AcDbLine
10
-52.929765629641345
20
-58.04683574776913
30
0
11
-48.601272517776877
21
-56.491331471036503
31
0
0
ARC
5
141
100
AcDbEntity
8
0
100
AcDbCircle
10
-35.242738657394
20
-49.532962391627855
30
0
40
7.104846712392284
210
0
220
0
230
1
100
AcDbArc
50
135.35005903943537
51
179.68177632763152
0
ARC
5
142
100
AcDbEntity
8
0
100
AcDbCircle
10
-49.508239587040379
20
-35.302471719306993
30
0
40
7.0450194825404333
210
-0
220
0
230
1
100
AcDbArc
50
270.11985872371702
51
314.84830590919506
0
ARC
5
143
100
AcDbEntity
8
0
100
AcDbCircle
10
-49.497474683058314
20
-49.497474683058364
30
0
40
7.149999999999995
210
0
220
-0
230
1
100
AcDbArc
50
89.96816463293186
51
89.999999999999844
0
ARC
5
144
100
AcDbEntity
8
0
100
AcDbCircle
10
-54.282523614971858
20
-54.282523614971865
30
0
40
3.9999999999999796
210
0
220
0
230
1
100
AcDbArc
50
160.2333932652034
51
289.76660673479745
0
CIRCLE
5
145
100
AcDbEntity
8
0
100
AcDbCircle
10
-53.997474683058293
20
-49.497474683058336
30
0
40
1.0000000000000029
210
0
220
-0
230
1
0
CIRCLE
5
146
100
AcDbEntity
8
0
100
AcDbCircle
10
-49.497474683058314
20
-49.497474683058364
30
0
40
2.5000000000000022
210
0
220
-0
230
1
0
ARC
5
147
100
AcDbEntity
8
0
100
AcDbCircle
10
-44.997474683058343
20
-49.497474683058343
30
0
40
2.6499999999999919
210
-0
220
0
230
1
100
AcDbArc
50
297.32786240925719
51
360
0
CIRCLE
5
148
100
AcDbEntity
8
0
100
AcDbCircle
10
-49.497474683058307
20
-53.997474683058336
30
0
40
0.99999999999999967
210
0
220
-0
230
1
0
ARC
5
149
100
AcDbEntity
8
0
100
AcDbCircle
10
-58.80951135384646
20
-40.185438012270183
30
0
40
7.8318759713666584
210
-0
220
0
230
1
100
AcDbArc
50
297.32786240925674
51
332.67213759074298
0
CIRCLE
5
150
100
AcDbEntity
8
0
100
AcDbCircle
10
-44.997474683058343
20
-49.497474683058343
30
0
40
1
210
0
220
-0
230
1
0
ARC
5
151
100
AcDbEntity
8
0
100
AcDbCircle
10
-40.185438012270154
20
-58.809511353846489
30
0
40
7.8318759713666495
210
0
220
0
230
1
100
AcDbArc
50
117.32786240925685
51
152.67213759074326
0
CIRCLE
5
152
100
AcDbEntity
8
0
100
AcDbCircle
10
-49.497474683058314
20
-44.997474683058371
30
0
40
1.0000000000000011
210
0
220
-0
230
1
0
ARC
5
153
100
AcDbEntity
8
0
100
AcDbCircle
10
-49.497474683058314
20
-44.997474683058371
30
0
40
2.6499999999999879
210
0
220
-0
230
1
100
AcDbArc
50
89.999999999999545
51
152.67213759074335
0
ARC
5
154
100
AcDbEntity
8
0
100
AcDbCircle
10
-49.497474683058314
20
-49.497474683058364
30
0
40
7.1499999999999808
210
0
220
-0
230
1
100
AcDbArc
50
0
51
0.031835367068319874
0
ARC
5
155
100
AcDbEntity
8
0
100
AcDbCircle
10
-53.997474683058293
20
-49.497474683058336
30
0
40
2.6499999999999839
210
0
220
0
230
1
100
AcDbArc
50
117.32786240925688
51
160.2333932652032
0
LINE
5
156
100
AcDbEntity
8
0
100
AcDbLine
10
-44.539865022726104
20
-40.29722433560687
30
0
11
-13.464466094051273
21
-9.2218254069319894
31
0
0
LINE
5
157
100
AcDbEntity
8
0
100
AcDbLine
10
44.53986502272614
20
-40.297224335606849
30
0
11
13.464466094067284
21
-9.2218254069479677
31
0
0
ARC
5
158
100
AcDbEntity
8
0
100
AcDbCircle
10
9.8116354084419513
20
-21.125343907426672
30
0
40
4.9999999999999964
210
0
220
-0
230
1
100
AcDbArc
50
44.999999999999922
51
153.75438581449984
0
CIRCLE
5
159
100
AcDbEntity
8
0
100
AcDbCircle
10
48.209070726544347
20
57.453333233878098
30
0
40
2.5000000000000022
210
0
220
-0
230
1
0
ARC
5
160
100
AcDbEntity
8
0
100
AcDbCircle
10
52.691946867957171
20
57.845534076242544
30
0
40
2.6500000000000097
210
-0
220
0
230
1
100
AcDbArc
50
302.32786240925731
51
345.23339326520295
0
CIRCLE
5
161
100
AcDbEntity
8
0
100
AcDbCircle
10
43.726194585131502
20
57.061132391513638
30
0
40
1
210
0
220
-0
230
1
0
ARC
5
162
100
AcDbEntity
8
0
100
AcDbCircle
10
48.601271568908821
20
52.970457092465253
30
0
40
2.6499999999999959
210
-0
220
0
230
1
100
AcDbArc
50
274.99999999999949
51
337.67213759074303
0
CIRCLE
5
163
100
AcDbEntity
8
0
100
AcDbCircle
10
52.691946867957171
20
57.845534076242544
30
0
40
1.0000000000000029
210
0
220
-0
230
1
0
CIRCLE
5
164
100
AcDbEntity
8
0
100
AcDbCircle
10
48.601271568908821
20
52.970457092465253
30
0
40
1.0000000000000011
210
0
220
-0
230
1
0
ARC
5
165
100
AcDbEntity
8
0
100
AcDbCircle
10
52.558866608881367
20
62.637218103704726
30
0
40
3.9999999999999987
210
-0
220
0
230
1
100
AcDbArc
50
-14.766606734796589
51
114.76660673479739
0
ARC
5
166
100
AcDbEntity
8
0
100
AcDbCircle
10
48.209070726544347
20
57.453333233878098
30
0
40
7.1499999999999941
210
-0
220
0
230
1
100
AcDbArc
50
274.9681646329318
51
274.99999999999989
0
LINE
5
167
100
AcDbEntity
8
0
100
AcDbLine
10
50.883174856225885
20
66.269305265390472
30
0
11
46.70672409804564
21
64.342467119907724
31
0
0
ARC
5
168
100
AcDbEntity
8
0
100
AcDbCircle
10
47.816869884179887
20
61.936209375290929
30
0
40
2.6499999999999928
210
0
220
0
230
1
100
AcDbArc
50
114.76660673479729
51
157.67213759074335
0
ARC
5
169
100
AcDbEntity
8
0
100
AcDbCircle
10
38.120871694133299
20
65.918337321217166
30
0
40
7.8318759713666362
210
-0
220
0
230
1
100
AcDbArc
50
302.32786240925685
51
337.67213759074332
0
ARC
5
170
100
AcDbEntity
8
0
100
AcDbCircle
10
48.209070726544347
20
57.453333233878098
30
0
40
7.1499999999999853
210
0
220
0
230
1
100
AcDbArc
50
185
51
185.03183536706808
0
LINE
5
171
100
AcDbEntity
8
0
100
AcDbLine
10
56.426755024505731
20
61.617689190785228
30
0
11
55.254422943308306
21
57.170096171433357
31
0
0
ARC
5
172
100
AcDbEntity
8
0
100
AcDbCircle
10
34.005485317481366
20
56.246303795013887
30
0
40
7.1048467123922885
210
-0
220
0
230
1
100
AcDbArc
50
-39.649940960564656
51
4.6817763276317077
0
ARC
5
173
100
AcDbEntity
8
0
100
AcDbCircle
10
58.297269758955387
20
48.98832914653898
30
0
40
7.8318759713666459
210
0
220
0
230
1
100
AcDbArc
50
122.32786240925672
51
157.67213759074312
0
ARC
5
174
100
AcDbEntity
8
0
100
AcDbCircle
10
43.726194585131502
20
57.061132391513638
30
0
40
2.6499999999999853
210
0
220
0
230
1
100
AcDbArc
50
122.32786240925705
51
185.00000000000006
0
CIRCLE
5
175
100
AcDbEntity
8
0
100
AcDbCircle
10
47.816869884179887
20
61.936209375290929
30
0
40
0.99999999999999967
210
0
220
-0
230
1
0
ARC
5
176
100
AcDbEntity
8
0
100
AcDbCircle
10
49.456970693427699
20
43.313284765194538
30
0
40
7.0450194825404209
210
0
220
0
230
1
100
AcDbArc
50
95.119858723717002
51
139.84830590919495
0
LINE
5
177
100
AcDbEntity
8
0
100
AcDbLine
10
39.475914261495646
20
51.712734122550216
30
0
11
19.16513840402299
21
27.204749432039129
31
0
0
LINE
5
178
100
AcDbEntity
8
0
100
AcDbLine
10
14.000000000000004
20
30.250000000000007
30
0
11
13.894327425215678
21
29.601571140963831
31
0
0
LINE
5
179
100
AcDbEntity
8
0
100
AcDbLine
10
-13.999999999999986
20
30.250000000000018
30
0
11
-13.894327425216009
21
29.60157114096598
31
0
0
ARC
5
180
100
AcDbEntity
8
0
100
AcDbCircle
10
-52.558866608881345
20
62.63721810370474
30
0
40
4.0000000000000089
210
-0
220
0
230
1
100
AcDbArc
50
65.233393265202707
51
194.76660673479643
0
ARC
5
181
100
AcDbEntity
8
0
100
AcDbCircle
10
-47.816869884179873
20
61.936209375290943
30
0
40
2.6500000000000035
210
0
220
-0
230
1
100
AcDbArc
50
22.327862409256753
51
65.233393265202849
0
ARC
5
182
100
AcDbEntity
8
0
100
AcDbCircle
10
-52.691946867957149
20
57.845534076242558
30
0
40
2.6499999999999995
210
0
220
0
230
1
100
AcDbArc
50
194.76660673479697
51
237.67213759074272
0
CIRCLE
5
183
100
AcDbEntity
8
0
100
AcDbCircle
10
-43.726194585131488
20
57.061132391513652
30
0
40
1
210
0
220
-0
230
1
0
ARC
5
184
100
AcDbEntity
8
0
100
AcDbCircle
10
-43.726194585131488
20
57.061132391513652
30
0
40
2.649999999999999
210
0
220
0
230
1
100
AcDbArc
50
-5.0000000000001981
51
57.672137590742729
0
LINE
5
185
100
AcDbEntity
8
0
100
AcDbLine
10
-50.883174856225864
20
66.2693052653905
30
0
11
-46.706724098045626
21
64.342467119907752
31
0
0
CIRCLE
5
186
100
AcDbEntity
8
0
100
AcDbCircle
10
-48.6012715689088
20
52.970457092465267
30
0
40
1.0000000000000011
210
0
220
-0
230
1
0
LINE
5
187
100
AcDbEntity
8
0
100
AcDbLine
10
-56.426755024505717
20
61.617689190785249
30
0
11
-55.254422943308292
21
57.170096171433372
31
0
0
ARC
5
188
100
AcDbEntity
8
0
100
AcDbCircle
10
-49.456970693427678
20
43.31328476519456
30
0
40
7.0450194825393977
210
0
220
-0
230
1
100
AcDbArc
50
40.151694090805016
51
84.880141276282998
0
ARC
5
189
100
AcDbEntity
8
0
100
AcDbCircle
10
-48.209070726544326
20
57.453333233878112
30
0
40
7.1499999999999844
210
0
220
0
230
1
100
AcDbArc
50
265.00000000000011
51
265.03183536706814
0
CIRCLE
5
190
100
AcDbEntity
8
0
100
AcDbCircle
10
-52.691946867957149
20
57.845534076242558
30
0
40
1.0000000000000029
210
0
220
-0
230
1
0
ARC
5
191
100
AcDbEntity
8
0
100
AcDbCircle
10
-38.120871694133278
20
65.918337321217166
30
0
40
7.8318759713666424
210
0
220
0
230
1
100
AcDbArc
50
202.32786240925651
51
237.67213759074312
0
CIRCLE
5
192
100
AcDbEntity
8
0
100
AcDbCircle
10
-47.816869884179873
20
61.936209375290943
30
0
40
0.99999999999999967
210
0
220
-0
230
1
0
ARC
5
193
100
AcDbEntity
8
0
100
AcDbCircle
10
-34.005485317481352
20
56.246303795013894
30
0
40
7.1048467123922796
210
0
220
0
230
1
100
AcDbArc
50
175.3182236723683
51
219.64994096056463
0
ARC
5
194
100
AcDbEntity
8
0
100
AcDbCircle
10
-58.297269758955366
20
48.988329146539002
30
0
40
7.8318759713666299
210
0
220
-0
230
1
100
AcDbArc
50
22.327862409256902
51
57.672137590743255
0
CIRCLE
5
195
100
AcDbEntity
8
0
100
AcDbCircle
10
-48.209070726544326
20
57.453333233878112
30
0
40
2.5000000000000022
210
0
220
-0
230
1
0
ARC
5
196
100
AcDbEntity
8
0
100
AcDbCircle
10
-48.6012715689088
20
52.970457092465267
30
0
40
2.6500000000000066
210
0
220
0
230
1
100
AcDbArc
50
202.32786240925674
51
265.00000000000051
0
ARC
5
197
100
AcDbEntity
8
0
100
AcDbCircle
10
-48.209070726544326
20
57.453333233878112
30
0
40
7.1500000000000057
210
0
220
0
230
1
100
AcDbArc
50
354.96816463293192
51
355
0
LINE
5
198
100
AcDbEntity
8
0
100
AcDbLine
10
-39.475914261495632
20
51.712734122550224
30
0
11
-19.165138404024592
21
27.204749432041069
31
0
0
ARC
5
199
100
AcDbEntity
8
0
100
AcDbCircle
10
16.855266355211825
20
29.119035491676254
30
0
40
3.0000000000000182
210
0
220
0
230
1
100
AcDbArc
50
170.7440410025024
51
320.35005903943494
0
ARC
5
200
100
AcDbEntity
8
0
100
AcDbCircle
10
-16.855266355213175
20
29.119035491679259
30
0
40
3.0000000000008904
210
0
220
0
230
1
100
AcDbArc
50
-140.35005903942238
51
9.2559589974783609
0
LWPOLYLINE
5
201
100
AcDbEntity
8
0
100
AcDbPolyline
90
8
70
1
43
0.0
10
12.816045894978387
20
15.273568738149081
10
16.779264652252781
20
19.996748930358603
42
0.56810154660759205
10
15.649198413314981
20
23.2415019852189
42
-0.1283084970180588
10
12.931378709953595
20
24.579971078452971
42
0.58661728363030208
10
10.469937333640981
20
23.686472799790941
10
9.533610925477392
20
17.940979555492525
42
0.21542295201174244
10
9.7475491617926995
20
17.145778773912685
10
11.276960044843277
20
15.282000782685699
42
0.46964684306188159
0
LWPOLYLINE
5
202
100
AcDbEntity
8
0
100
AcDbPolyline
90
8
70
1
43
0.0
10
-11.276960044843271
20
15.282000782685703
42
-0.46964684306188159
10
-12.816045894978384
20
15.273568738149086
10
-16.779264652252778
20
19.996748930358606
42
-0.56810154660759171
10
-15.64919841331497
20
23.241501985218903
42
0.12830849701805885
10
-12.931378709953588
20
24.579971078452974
42
-0.58661728363030208
10
-10.469937333640972
20
23.686472799790948
10
-9.5336109254773866
20
17.940979555492529
42
-0.21542295201174202
10
-9.7475491617926942
20
17.145778773912689
0
LINE
5
203
100
AcDbEntity
8
0
100
AcDbLine
10
-40.29722433560682
20
-44.539865022726168
30
0
11
-29.300621916240384
21
-33.543262603359715
31
0
0
ARC
5
204
100
AcDbEntity
8
0
100
AcDbCircle
10
16.228699452720832
20
-21.885553702213194
30
0
40
0.99999999999999889
210
0
220
0
230
1
100
AcDbArc
50
-103.08582353758177
51
44.999999999999709
0
LINE
5
205
100
AcDbEntity
8
0
100
AcDbLine
10
16.935806233907385
20
-21.178446921026648
30
0
11
13.347169314374687
21
-17.589810001493959
31
0
0
ARC
5
206
100
AcDbEntity
8
0
100
AcDbCircle
10
9.8116354084419566
20
-21.125343907426696
30
0
40
4.9999999999999929
210
0
220
-0
230
1
100
AcDbArc
50
45.00000000000005
51
153.75438581449984
0
LINE
5
207
100
AcDbEntity
8
0
100
AcDbLine
10
5.3271024347683538
20
-18.914243726965811
30
0
11
4.4158922163338206
21
-20.762351879924402
31
0
0
ARC
5
208
100
AcDbEntity
8
0
100
AcDbCircle
10
5.3127988110685447
20
-21.204571916016587
30
0
40
1.0000000000000047
210
0
220
0
230
1
100
AcDbArc
50
153.75438581449956
51
275.9463514382191
0
ARC
5
209
100
AcDbEntity
8
0
100
AcDbCircle
10
8.7395594676379176
20
-54.104325051962164
30
0
40
32.077733371613796
210
0
220
-0
230
1
100
AcDbArc
50
76.914176462418098
51
95.946351438219224
0
LINE
5
210
100
AcDbEntity
8
0
100
AcDbLine
10
40.29722433560687
20
-44.539865022726133
30
0
11
29.300621916240409
21
-33.543262603359693
31
0
0
LINE
5
211
100
AcDbEntity
8
0
100
AcDbLine
10
16.935806233907385
20
-21.178446921026648
30
0
11
13.347169314374693
21
-17.589810001493941
31
0
0
ARC
5
212
100
AcDbEntity
8
0
100
AcDbCircle
10
-9.7372850631400869
20
-53.106599456460096
30
0
40
27.666736302924051
210
0
220
-0
230
1
100
AcDbArc
50
71.794533003858248
51
134.99999999999986
0
ARC
5
213
100
AcDbEntity
8
0
100
AcDbCircle
10
9.7372850631401313
20
-53.106599456460089
30
0
40
27.66673630292788
210
0
220
-0
230
1
100
AcDbArc
50
45.000000000000171
51
108.20546699614181
0
ARC
5
214
100
AcDbEntity
8
0
100
AcDbCircle
10
0
20
-23.500000000000007
30
0
40
3.5000000000017679
210
0
220
0
230
1
100
AcDbArc
50
251.79453300389486
51
288.20546699610554
0
LINE
5
215
100
AcDbEntity
8
0
100
AcDbLine
10
-11.999999999984007
20
-5.6862915009945558
30
0
11
-11.999999999984009
21
3.8365450458925023
31
0
0
LINE
5
216
100
AcDbEntity
8
0
100
AcDbLine
10
-14.157301075207755
20
10.040743106505452
30
0
11
-44.072180920209483
21
47.856008464431
31
0
0
ARC
5
217
100
AcDbEntity
8
0
100
AcDbCircle
10
-21.999999999984027
20
3.8365450458925023
30
0
40
10.000000000000018
210
0
220
-0
230
1
100
AcDbArc
50
0
51
38.346797420695225
0
ARC
5
218
100
AcDbEntity
8
0
100
AcDbCircle
10
21.999999999984027
20
3.8365450458925086
30
0
40
10.00000000000002
210
0
220
0
230
1
100
AcDbArc
50
141.6532025793048
51
180
0
LINE
5
219
100
AcDbEntity
8
0
100
AcDbLine
10
14.157301075207751
20
10.040743106505456
30
0
11
44.072180920209469
21
47.856008464431021
31
0
0
ENDSEC
0
SECTION
2
OBJECTS
0
DICTIONARY
5
C
100
AcDbDictionary
3
ACAD_GROUP
350
D
3
ACAD_MLINESTYLE
350
17
0
DICTIONARY
5
D
100
AcDbDictionary
0
DICTIONARY
5
1A
330
C
100
AcDbDictionary
0
DICTIONARY
5
17
100
AcDbDictionary
0
ENDSEC
0
EOF
