999
dxflib 3.7.5.0
  0
SECTION
  2
HEADER
  9
$ACADVER
  1
AC1015
  9
$HANDSEED
  5
FFFF
  9
$DIMADEC
 70
0
  9
$DIMASZ
 40
2.5
  9
$DIMAUNIT
 70
0
  9
$DIMAZIN
 70
2
  9
$DIMDEC
 70
4
  9
$DIMEXE
 40
1.25
  9
$DIMEXO
 40
0.625
  9
$DIMGAP
 40
0.625
  9
$DIMLUNIT
 70
2
  9
$DIMSCALE
 40
1.0
  9
$DIMTSZ
 40
0.0
  9
$DIMTXT
 40
2.5
  9
$DIMZIN
 70
8
  9
$DWGCODEPAGE
  3
ANSI_1252
  9
$INSUNITS
 70
4
  9
$LTSCALE
 40
1.0
  9
$MEASUREMENT
 70
1
  9
$PDMODE
 70
0
  9
$PDSIZE
 40
0
  0
ENDSEC
  0
SECTION
  2
TABLES
  0
TABLE
  2
VPORT
  5
8
100
AcDbSymbolTable
 70
1
  0
VPORT
  5
30
100
AcDbSymbolTableRecord
100
AcDbViewportTableRecord
  2
*Active
 70
0
 10
0.0
 20
0.0
 11
1.0
 21
1.0
 12
286.30555555555549
 22
148.5
 13
0.0
 23
0.0
 14
10.0
 24
10.0
 15
10.0
 25
10.0
 16
0.0
 26
0.0
 36
1.0
 17
0.0
 27
0.0
 37
0.0
 40
297.0
 41
1.92798353909465
 42
50.0
 43
0.0
 44
0.0
 50
0.0
 51
0.0
 71
0
 72
100
 73
1
 74
3
 75
1
 76
1
 77
0
 78
0
281
0
 65
1
110
0.0
120
0.0
130
0.0
111
1.0
121
0.0
131
0.0
112
0.0
122
1.0
132
0.0
 79
0
146
0.0
  0
ENDTAB
  0
TABLE
  2
LTYPE
  5
5
100
AcDbSymbolTable
 70
41
  0
LTYPE
  5
16
100
AcDbSymbolTableRecord
100
AcDbLinetypeTableRecord
  2
Continuous
 70
0
  3
Solid line
 72
65
 73
0
 40
0.0
  0
LTYPE
  5
31
100
AcDbSymbolTableRecord
100
AcDbLinetypeTableRecord
  2
ACAD_ISO15W100
 70
0
  3
ISO double-dash triple-dot __ __ . . . __ __ . .
 72
65
 73
10
 40
39.000000000000007
 49
12.0
 74
0
 49
-3.0
 74
0
 49
12.0
 74
0
 49
-2.9500000000000002
 74
0
 49
0.1
 74
0
 49
-2.9000000000000004
 74
0
 49
0.1
 74
0
 49
-2.9000000000000004
 74
0
 49
0.1
 74
0
 49
-2.9500000000000002
 74
0
  0
LTYPE
  5
32
100
AcDbSymbolTableRecord
100
AcDbLinetypeTableRecord
  2
DIVIDE
 70
0
  3
Divide ____ . . ____ . . ____ . . ____ . . ____
 72
65
 73
6
 40
31.750000000000004
 49
12.699999999999999
 74
0
 49
-6.2999999999999998
 74
0
 49
0.1
 74
0
 49
-6.25
 74
0
 49
0.1
 74
0
 49
-6.2999999999999998
 74
0
  0
LTYPE
  5
33
100
AcDbSymbolTableRecord
100
AcDbLinetypeTableRecord
  2
ACAD_ISO10W100
 70
0
  3
ISO dash dot __ . __ . __ . __ . __ . __ . __ . 
 72
65
 73
4
 40
18.0
 49
12.0
 74
0
 49
-2.9500000000000002
 74
0
 49
0.1
 74
0
 49
-2.9500000000000002
 74
0
  0
LTYPE
  5
34
100
AcDbSymbolTableRecord
100
AcDbLinetypeTableRecord
  2
ACAD_ISO04W100
 70
0
  3
ISO long-dash dot ____ . ____ . ____ . ____ . _
 72
65
 73
4
 40
30.0
 49
24.0
 74
0
 49
-2.9500000000000002
 74
0
 49
0.1
 74
0
 49
-2.9500000000000002
 74
0
  0
LTYPE
  5
35
100
AcDbSymbolTableRecord
100
AcDbLinetypeTableRecord
  2
CENTER2
 70
0
  3
Center (.5x) ___ _ ___ _ ___ _ ___ _ ___ _ ___
 72
65
 73
4
 40
28.575000000000003
 49
19.050000000000001
 74
0
 49
-3.1749999999999998
 74
0
 49
3.1749999999999998
 74
0
 49
-3.1749999999999998
 74
0
  0
LTYPE
  5
36
100
AcDbSymbolTableRecord
100
AcDbLinetypeTableRecord
  2
ACAD_ISO11W100
 70
0
  3
ISO double-dash dot __ __ . __ __ . __ __ . __ _
 72
65
 73
6
 40
33.0
 49
12.0
 74
0
 49
-3.0
 74
0
 49
12.0
 74
0
 49
-2.9500000000000002
 74
0
 49
0.1
 74
0
 49
-2.9500000000000002
 74
0
  0
LTYPE
  5
37
100
AcDbSymbolTableRecord
100
AcDbLinetypeTableRecord
  2
HIDDEN2
 70
0
  3
Hidden (.5x) _ _ _ _ _ _ _ _ _ _ _ _ _ _ _ _ _ 
 72
65
 73
2
 40
4.7624999999999993
 49
3.1749999999999998
 74
0
 49
-1.5874999999999999
 74
0
  0
LTYPE
  5
38
100
AcDbSymbolTableRecord
100
AcDbLinetypeTableRecord
  2
BORDERX2
 70
0
  3
Border (2x) ____  ____  .  ____  ____  .  ___
 72
65
 73
6
 40
88.899999999999977
 49
25.399999999999999
 74
0
 49
-12.699999999999999
 74
0
 49
25.399999999999999
 74
0
 49
-12.649999999999999
 74
0
 49
0.1
 74
0
 49
-12.649999999999999
 74
0
  0
LTYPE
  5
39
100
AcDbSymbolTableRecord
100
AcDbLinetypeTableRecord
  2
ACAD_ISO05W100
 70
0
  3
ISO long-dash double-dot ____ .. ____ .. ____ . 
 72
65
 73
6
 40
33.000000000000007
 49
24.0
 74
0
 49
-2.9500000000000002
 74
0
 49
0.1
 74
0
 49
-2.9000000000000004
 74
0
 49
0.1
 74
0
 49
-2.9500000000000002
 74
0
  0
LTYPE
  5
3A
100
AcDbSymbolTableRecord
100
AcDbLinetypeTableRecord
  2
DASHDOTX2
 70
0
  3
Dash dot (2x) ____  .  ____  .  ____  .  ___
 72
65
 73
4
 40
50.799999999999997
 49
25.399999999999999
 74
0
 49
-12.649999999999999
 74
0
 49
0.1
 74
0
 49
-12.649999999999999
 74
0
  0
LTYPE
  5
3B
100
AcDbSymbolTableRecord
100
AcDbLinetypeTableRecord
  2
HIDDENX2
 70
0
  3
Hidden (2x) ____ ____ ____ ____ ____ ____ ____ 
 72
65
 73
2
 40
19.049999999999997
 49
12.699999999999999
 74
0
 49
-6.3499999999999996
 74
0
  0
LTYPE
  5
3C
100
AcDbSymbolTableRecord
100
AcDbLinetypeTableRecord
  2
CENTERX2
 70
0
  3
Center (2x) ________  __  ________  __  _____
 72
65
 73
4
 40
101.60000000000001
 49
63.5
 74
0
 49
-12.699999999999999
 74
0
 49
12.699999999999999
 74
0
 49
-12.699999999999999
 74
0
  0
LTYPE
  5
3D
100
AcDbSymbolTableRecord
100
AcDbLinetypeTableRecord
  2
BORDER2
 70
0
  3
Border (.5x) __.__.__.__.__.__.__.__.__.__.__.
 72
65
 73
6
 40
22.225000000000001
 49
6.3499999999999996
 74
0
 49
-3.1749999999999998
 74
0
 49
6.3499999999999996
 74
0
 49
-3.125
 74
0
 49
0.1
 74
0
 49
-3.125
 74
0
  0
LTYPE
  5
3E
100
AcDbSymbolTableRecord
100
AcDbLinetypeTableRecord
  2
DASHDOT2
 70
0
  3
Dash dot (.5x) _._._._._._._._._._._._._._._.
 72
65
 73
4
 40
12.699999999999999
 49
6.3499999999999996
 74
0
 49
-3.125
 74
0
 49
0.1
 74
0
 49
-3.125
 74
0
  0
LTYPE
  5
3F
100
AcDbSymbolTableRecord
100
AcDbLinetypeTableRecord
  2
ACAD_ISO12W100
 70
0
  3
ISO dash double-dot __ . . __ . . __ . . __ . . 
 72
65
 73
6
 40
21.0
 49
12.0
 74
0
 49
-2.9500000000000002
 74
0
 49
0.1
 74
0
 49
-2.9000000000000004
 74
0
 49
0.1
 74
0
 49
-2.9500000000000002
 74
0
  0
LTYPE
  5
40
100
AcDbSymbolTableRecord
100
AcDbLinetypeTableRecord
  2
ACAD_ISO07W100
 70
0
  3
ISO dot . . . . . . . . . . . . . . . . . . . . 
 72
65
 73
2
 40
3.0
 49
0.1
 74
0
 49
-2.8999999999999999
 74
0
  0
LTYPE
  5
41
100
AcDbSymbolTableRecord
100
AcDbLinetypeTableRecord
  2
HIDDEN
 70
0
  3
Hidden __ __ __ __ __ __ __ __ __ __ __ __ __ __
 72
65
 73
2
 40
9.5249999999999986
 49
6.3499999999999996
 74
0
 49
-3.1749999999999998
 74
0
  0
LTYPE
  5
42
100
AcDbSymbolTableRecord
100
AcDbLinetypeTableRecord
  2
ACAD_ISO06W100
 70
0
  3
ISO long-dash triple-dot ____ ... ____ ... ____
 72
65
 73
8
 40
36.000000000000007
 49
24.0
 74
0
 49
-2.9500000000000002
 74
0
 49
0.1
 74
0
 49
-2.9000000000000004
 74
0
 49
0.1
 74
0
 49
-2.9000000000000004
 74
0
 49
0.1
 74
0
 49
-2.9500000000000002
 74
0
  0
LTYPE
  5
43
100
AcDbSymbolTableRecord
100
AcDbLinetypeTableRecord
  2
CENTER
 70
0
  3
Center ____ _ ____ _ ____ _ ____ _ ____ _ ____
 72
65
 73
4
 40
50.800000000000004
 49
31.75
 74
0
 49
-6.3499999999999996
 74
0
 49
6.3499999999999996
 74
0
 49
-6.3499999999999996
 74
0
  0
LTYPE
  5
44
100
AcDbSymbolTableRecord
100
AcDbLinetypeTableRecord
  2
DOTX2
 70
0
  3
Dot (2x) .  .  .  .  .  .  .  .  .  .  .  .  .  .
 72
65
 73
2
 40
12.699999999999999
 49
0.1
 74
0
 49
-12.6
 74
0
  0
LTYPE
  5
45
100
AcDbSymbolTableRecord
100
AcDbLinetypeTableRecord
  2
PHANTOM
 70
0
  3
Phantom ______  __  __  ______  __  __  ______ 
 72
65
 73
6
 40
63.500000000000007
 49
31.75
 74
0
 49
-6.3499999999999996
 74
0
 49
6.3499999999999996
 74
0
 49
-6.3499999999999996
 74
0
 49
6.3499999999999996
 74
0
 49
-6.3499999999999996
 74
0
  0
LTYPE
  5
46
100
AcDbSymbolTableRecord
100
AcDbLinetypeTableRecord
  2
ACAD_ISO08W100
 70
0
  3
ISO long-dash short-dash ____ __ ____ __ ____ _
 72
65
 73
4
 40
36.0
 49
24.0
 74
0
 49
-3.0
 74
0
 49
6.0
 74
0
 49
-3.0
 74
0
  0
LTYPE
  5
47
100
AcDbSymbolTableRecord
100
AcDbLinetypeTableRecord
  2
DASHEDX2
 70
0
  3
Dashed (2x) ____  ____  ____  ____  ____  ___
 72
65
 73
2
 40
38.099999999999994
 49
25.399999999999999
 74
0
 49
-12.699999999999999
 74
0
  0
LTYPE
  5
48
100
AcDbSymbolTableRecord
100
AcDbLinetypeTableRecord
  2
ACAD_ISO02W100
 70
0
  3
ISO dash __ __ __ __ __ __ __ __ __ __ __ __ __
 72
65
 73
2
 40
15.0
 49
12.0
 74
0
 49
-3.0
 74
0
  0
LTYPE
  5
49
100
AcDbSymbolTableRecord
100
AcDbLinetypeTableRecord
  2
PHANTOM2
 70
0
  3
Phantom (.5x) ___ _ _ ___ _ _ ___ _ _ ___ _ _
 72
65
 73
6
 40
31.750000000000004
 49
15.875
 74
0
 49
-3.1749999999999998
 74
0
 49
3.1749999999999998
 74
0
 49
-3.1749999999999998
 74
0
 49
3.1749999999999998
 74
0
 49
-3.1749999999999998
 74
0
  0
LTYPE
  5
4A
100
AcDbSymbolTableRecord
100
AcDbLinetypeTableRecord
  2
DASHED2
 70
0
  3
Dashed (.5x) _ _ _ _ _ _ _ _ _ _ _ _ _ _ _ _ _ 
 72
65
 73
2
 40
9.5249999999999986
 49
6.3499999999999996
 74
0
 49
-3.1749999999999998
 74
0
  0
LTYPE
  5
4B
100
AcDbSymbolTableRecord
100
AcDbLinetypeTableRecord
  2
ACAD_ISO09W100
 70
0
  3
ISO long-dash double-short-dash ____ __ __ ____
 72
65
 73
6
 40
45.0
 49
24.0
 74
0
 49
-3.0
 74
0
 49
6.0
 74
0
 49
-3.0
 74
0
 49
6.0
 74
0
 49
-3.0
 74
0
  0
LTYPE
  5
4C
100
AcDbSymbolTableRecord
100
AcDbLinetypeTableRecord
  2
ACAD_ISO13W100
 70
0
  3
ISO double-dash double-dot __ __ . . __ __ . . _
 72
65
 73
8
 40
36.000000000000007
 49
12.0
 74
0
 49
-3.0
 74
0
 49
12.0
 74
0
 49
-2.9500000000000002
 74
0
 49
0.1
 74
0
 49
-2.9000000000000004
 74
0
 49
0.1
 74
0
 49
-2.9500000000000002
 74
0
  0
LTYPE
  5
4D
100
AcDbSymbolTableRecord
100
AcDbLinetypeTableRecord
  2
DOT2
 70
0
  3
Dot (.5x) ........................................
 72
65
 73
2
 40
3.1749999999999998
 49
0.1
 74
0
 49
-3.0749999999999997
 74
0
  0
LTYPE
  5
4E
100
AcDbSymbolTableRecord
100
AcDbLinetypeTableRecord
  2
DASHED
 70
0
  3
Dashed __ __ __ __ __ __ __ __ __ __ __ __ __ _
 72
65
 73
2
 40
19.049999999999997
 49
12.699999999999999
 74
0
 49
-6.3499999999999996
 74
0
  0
LTYPE
  5
4F
100
AcDbSymbolTableRecord
100
AcDbLinetypeTableRecord
  2
ACAD_ISO14W100
 70
0
  3
ISO dash triple-dot __ . . . __ . . . __ . . . _
 72
65
 73
8
 40
24.000000000000004
 49
12.0
 74
0
 49
-2.9500000000000002
 74
0
 49
0.1
 74
0
 49
-2.9000000000000004
 74
0
 49
0.1
 74
0
 49
-2.9000000000000004
 74
0
 49
0.1
 74
0
 49
-2.9500000000000002
 74
0
  0
LTYPE
  5
15
100
AcDbSymbolTableRecord
100
AcDbLinetypeTableRecord
  2
BYLAYER
 70
0
  3

 72
65
 73
0
 40
0.0
  0
LTYPE
  5
50
100
AcDbSymbolTableRecord
100
AcDbLinetypeTableRecord
  2
PHANTOMX2
 70
0
  3
Phantom (2x) ____________    ____    ____   _
 72
65
 73
6
 40
127.00000000000001
 49
63.5
 74
0
 49
-12.699999999999999
 74
0
 49
12.699999999999999
 74
0
 49
-12.699999999999999
 74
0
 49
12.699999999999999
 74
0
 49
-12.699999999999999
 74
0
  0
LTYPE
  5
14
100
AcDbSymbolTableRecord
100
AcDbLinetypeTableRecord
  2
BYBLOCK
 70
0
  3

 72
65
 73
0
 40
0.0
  0
LTYPE
  5
51
100
AcDbSymbolTableRecord
100
AcDbLinetypeTableRecord
  2
DIVIDEX2
 70
0
  3
Divide (2x) ________  .  .  ________  .  .  _
 72
65
 73
6
 40
63.5
 49
25.399999999999999
 74
0
 49
-12.649999999999999
 74
0
 49
0.1
 74
0
 49
-12.599999999999998
 74
0
 49
0.1
 74
0
 49
-12.649999999999999
 74
0
  0
LTYPE
  5
52
100
AcDbSymbolTableRecord
100
AcDbLinetypeTableRecord
  2
BORDER
 70
0
  3
Border __ __ . __ __ . __ __ . __ __ . __ __ .
 72
65
 73
6
 40
44.449999999999996
 49
12.699999999999999
 74
0
 49
-6.3499999999999996
 74
0
 49
12.699999999999999
 74
0
 49
-6.2999999999999998
 74
0
 49
0.1
 74
0
 49
-6.2999999999999998
 74
0
  0
LTYPE
  5
53
100
AcDbSymbolTableRecord
100
AcDbLinetypeTableRecord
  2
DIVIDE2
 70
0
  3
Divide (.5x) __..__..__..__..__..__..__..__.._
 72
65
 73
6
 40
15.874999999999998
 49
6.3499999999999996
 74
0
 49
-3.125
 74
0
 49
0.1
 74
0
 49
-3.0750000000000002
 74
0
 49
0.1
 74
0
 49
-3.125
 74
0
  0
LTYPE
  5
54
100
AcDbSymbolTableRecord
100
AcDbLinetypeTableRecord
  2
DOT
 70
0
  3
Dot . . . . . . . . . . . . . . . . . . . . . . . .
 72
65
 73
2
 40
6.3499999999999996
 49
0.1
 74
0
 49
-6.25
 74
0
  0
LTYPE
  5
55
100
AcDbSymbolTableRecord
100
AcDbLinetypeTableRecord
  2
DASHDOT
 70
0
  3
Dash dot __ . __ . __ . __ . __ . __ . __ . __
 72
65
 73
4
 40
25.400000000000002
 49
12.699999999999999
 74
0
 49
-6.2999999999999998
 74
0
 49
0.1
 74
0
 49
-6.2999999999999998
 74
0
  0
LTYPE
  5
56
100
AcDbSymbolTableRecord
100
AcDbLinetypeTableRecord
  2
ACAD_ISO03W100
 70
0
  3
ISO dash space __    __    __    __    __    __
 72
65
 73
2
 40
30.0
 49
12.0
 74
0
 49
-18.0
 74
0
  0
ENDTAB
  0
TABLE
  2
LAYER
  5
2
100
AcDbSymbolTable
 70
2
  0
LAYER
  5
57
100
AcDbSymbolTableRecord
100
AcDbLayerTableRecord
  2
arm
 70
0
 62
3
420
65280
  6
Continuous
370
25
390
F
  0
LAYER
  5
10
100
AcDbSymbolTableRecord
100
AcDbLayerTableRecord
  2
0
 70
0
 62
7
420
16777215
  6
Continuous
370
25
390
F
  0
ENDTAB
  0
TABLE
  2
STYLE
  5
3
100
AcDbSymbolTable
 70
1
  0
STYLE
  5
58
100
AcDbSymbolTableRecord
100
AcDbTextStyleTableRecord
  2
Standard
 70
0
 40
0.0
 41
1.0
 50
0.0
 71
0
 42
2.5
  3

  4

1001
ACAD
1000
txt
1071
0
  0
ENDTAB
  0
TABLE
  2
VIEW
  5
6
100
AcDbSymbolTable
 70
0
  0
ENDTAB
  0
TABLE
  2
UCS
  5
7
100
AcDbSymbolTable
 70
0
  0
ENDTAB
  0
TABLE
  2
APPID
  5
9
100
AcDbSymbolTable
 70
1
  0
APPID
  5
12
100
AcDbSymbolTableRecord
100
AcDbRegAppTableRecord
  2
ACAD
 70
0
  0
APPID
  5
59
100
AcDbSymbolTableRecord
100
AcDbRegAppTableRecord
  2
QCAD
 70
0
  0
ENDTAB
  0
TABLE
  2
DIMSTYLE
  5
A
100
AcDbSymbolTable
 70
1
100
AcDbDimStyleTable
 71
0
  0
DIMSTYLE
105
27
100
AcDbSymbolTableRecord
100
AcDbDimStyleTableRecord
  2
Standard
 41
2.5
 42
0.625
 43
3.75
 44
1.25
 70
0
 73
0
 74
0
 77
1
 78
8
140
2.5
141
2.5
143
0.03937007874016
147
0.625
171
3
172
1
271
2
272
2
274
3
278
44
283
0
284
8
340
58
  0
ENDTAB
  0
TABLE
  2
BLOCK_RECORD
  5
1
100
AcDbSymbolTable
 70
1
  0
BLOCK_RECORD
  5
1F
100
AcDbSymbolTableRecord
100
AcDbBlockTableRecord
  2
*Model_Space
340
22
  0
BLOCK_RECORD
  5
1B
100
AcDbSymbolTableRecord
100
AcDbBlockTableRecord
  2
*Paper_Space
340
1E
  0
BLOCK_RECORD
  5
23
100
AcDbSymbolTableRecord
100
AcDbBlockTableRecord
  2
*Paper_Space0
340
26
  0
ENDTAB
  0
ENDSEC
  0
SECTION
  2
BLOCKS
  0
BLOCK
  5
20
100
AcDbEntity
  8
0
100
AcDbBlockBegin
  2
*Model_Space
 70
0
 10
0.0
 20
0.0
 30
0.0
  3
*Model_Space
  1

  0
ENDBLK
  5
21
100
AcDbEntity
  8
0
100
AcDbBlockEnd
  0
BLOCK
  5
1C
100
AcDbEntity
 67
1
  8
0
100
AcDbBlockBegin
  2
*Paper_Space
 70
0
 10
0.0
 20
0.0
 30
0.0
  3
*Paper_Space
  1

  0
ENDBLK
  5
1D
100
AcDbEntity
 67
1
  8
0
100
AcDbBlockEnd
  0
BLOCK
  5
24
100
AcDbEntity
  8
0
100
AcDbBlockBegin
  2
*Paper_Space0
 70
0
 10
0.0
 20
0.0
 30
0.0
  3
*Paper_Space0
  1

  0
ENDBLK
  5
25
100
AcDbEntity
  8
0
100
AcDbBlockEnd
  0
ENDSEC
  0
SECTION
  2
ENTITIES
  0
LINE
  5
5A
100
AcDbEntity
100
AcDbLine
  8
arm
 62
256
370
-1
 48
1.0
  6
BYLAYER
 10
5.9999999999985221
 20
29.000000000021554
 30
0.0
 11
6.0000000000002558
 21
-11.999999999976836
 31
0.0
  0
SPLINE
  5
5B
  8
arm
 62
256
370
-1
 48
1.0
  6
BYLAYER
100
AcDbEntity
100
AcDbSpline
 70
8
 71
3
 72
11
 73
7
 74
0
 40
0.0
 40
0.0
 40
0.0
 40
0.0
 40
1.0
 40
2.0
 40
3.0
 40
4.0
 40
4.0
 40
4.0
 40
4.0
 10
6.0000000000002558
 20
-11.999999999973774
 30
0.0
 10
6.1553745220895255
 20
-14.343797099630223
 30
0.0
 10
6.6061509758567567
 20
-16.623800516645638
 30
0.0
 10
7.1479466465525849
 20
-18.407139234150868
 30
0.0
 10
8.1095008921261726
 20
-20.640426514192747
 30
0.0
 10
8.9655710400171955
 20
-21.758674706644754
 30
0.0
 10
9.6093145119107639
 20
-22.557259693393156
 30
0.0
  0
LINE
  5
5C
100
AcDbEntity
100
AcDbLine
  8
arm
 62
256
370
-1
 48
1.0
  6
BYLAYER
 10
9.6093145119107639
 20
-22.557259693393156
 30
0.0
 11
1.8238662239935208
 21
-28.833149666628962
 31
0.0
  0
LINE
  5
5D
100
AcDbEntity
100
AcDbLine
  8
arm
 62
256
370
-1
 48
1.0
  6
BYLAYER
 10
1.8238662239935208
 20
-28.833149666628962
 30
0.0
 11
-3.8211971302414636
 21
-21.830262583866315
 31
0.0
  0
SPLINE
  5
5E
  8
arm
 62
256
370
-1
 48
1.0
  6
BYLAYER
100
AcDbEntity
100
AcDbSpline
 70
8
 71
3
 72
11
 73
7
 74
0
 40
0.0
 40
0.0
 40
0.0
 40
0.0
 40
1.0
 40
2.0
 40
3.0
 40
4.0
 40
4.0
 40
4.0
 40
4.0
 10
-3.8211971302414636
 20
-21.830262583866315
 30
0.0
 10
-4.5474929767231682
 20
-20.799277464683435
 30
0.0
 10
-5.212313769107225
 20
-19.552738478963327
 30
0.0
 10
-5.6278267643472608
 20
-18.430853391815234
 30
0.0
 10
-5.8667467366102812
 20
-17.444010028120154
 30
0.0
 10
-6.0329519347062961
 20
-16.280573641448051
 30
0.0
 10
-6.0352279338675876
 20
-15.452337519024674
 30
0.0
  0
LINE
  5
5F
100
AcDbEntity
100
AcDbLine
  8
arm
 62
256
370
-1
 48
1.0
  6
BYLAYER
 10
-6.0352279338675876
 20
-15.452337519024674
 30
0.0
 11
-6.0000000000014788
 21
29.00000000002219
 31
0.0
  0
SPLINE
  5
60
  8
arm
 62
256
370
-1
 48
1.0
  6
BYLAYER
100
AcDbEntity
100
AcDbSpline
 70
8
 71
3
 72
15
 73
11
 74
0
 40
0.0
 40
0.0
 40
0.0
 40
0.0
 40
1.0
 40
2.0
 40
3.0
 40
4.0
 40
5.0
 40
6.0
 40
7.0
 40
8.0
 40
8.0
 40
8.0
 40
8.0
 10
-6.0000000000014788
 20
29.00000000002219
 30
0.0
 10
-6.0999999999999996
 20
30.499999999999996
 30
0.0
 10
-6.1999999999999993
 20
31.999999999999996
 30
0.0
 10
-6.3999999999999995
 20
33.399999999999999
 30
0.0
 10
-6.7999999999999998
 20
35.5
 30
0.0
 10
-7.1999999999999993
 20
37.099999999999994
 30
0.0
 10
-7.9999999999999991
 20
39.699999999999996
 30
0.0
 10
-9.0999999999999996
 20
42.5
 30
0.0
 10
-10.5
 20
45.099999999999994
 30
0.0
 10
-12.199999999999999
 20
47.799999999999997
 30
0.0
 10
-12.600000000002654
 20
48.356619001119022
 30
0.0
  0
SPLINE
  5
61
  8
arm
 62
256
370
-1
 48
1.0
  6
BYLAYER
100
AcDbEntity
100
AcDbSpline
 70
8
 71
3
 72
38
 73
34
 74
0
 40
0.0
 40
0.0
 40
0.0
 40
0.0
 40
1.0
 40
2.0
 40
3.0
 40
4.0
 40
5.0
 40
6.0
 40
7.0
 40
8.0
 40
9.0
 40
10.0
 40
11.0
 40
12.0
 40
13.0
 40
14.0
 40
15.0
 40
16.0
 40
17.0
 40
18.0
 40
19.0
 40
20.0
 40
21.0
 40
22.0
 40
23.0
 40
24.0
 40
25.0
 40
26.0
 40
27.0
 40
28.0
 40
29.0
 40
30.0
 40
31.0
 40
31.0
 40
31.0
 40
31.0
 10
-12.600000000002654
 20
48.356619001119022
 30
0.0
 10
-13.299999999999999
 20
49.399999999999999
 30
0.0
 10
-13.999999999999998
 20
50.599999999999994
 30
0.0
 10
-14.299999999999999
 20
51.599999999999994
 30
0.0
 10
-14.299999999999999
 20
52.299999999999997
 30
0.0
 10
-13.999999999999998
 20
53.699999999999996
 30
0.0
 10
-13.399999999999999
 20
54.599999999999994
 30
0.0
 10
-12.350068608330957
 20
55.714924530861254
 30
0.0
 10
-11.799999999999999
 20
56.399999999999999
 30
0.0
 10
-11.199999999999999
 20
57.499999999999993
 30
0.0
 10
-10.899999999999999
 20
58.499999999999993
 30
0.0
 10
-10.789709048706612
 20
59.750961294839115
 30
0.0
 10
-10.999999999999998
 20
61.299999999999997
 30
0.0
 10
-11.299999999999999
 20
62.199999999999996
 30
0.0
 10
-11.999999999999998
 20
63.399999999999991
 30
0.0
 10
-13.299999999999999
 20
64.799999999999997
 30
0.0
 10
-14.474264908973169
 20
65.920798529343827
 30
0.0
 10
-15.099999999999998
 20
66.699999999999989
 30
0.0
 10
-15.399999999999999
 20
67.399999999999991
 30
0.0
 10
-15.640480979951377
 20
68.542281848056689
 30
0.0
 10
-15.599999999999998
 20
69.5
 30
0.0
 10
-15.299999999999999
 20
70.399999999999991
 30
0.0
 10
-14.6
 20
71.399999999999991
 30
0.0
 10
-13.699999999999999
 20
72.5
 30
0.0
 10
-12.299999999999999
 20
73.799999999999997
 30
0.0
 10
-11.699999999999999
 20
74.299999999999997
 30
0.0
 10
-10.5
 20
74.799999999999997
 30
0.0
 10
-9.5999999999999996
 20
75.0
 30
0.0
 10
-8.6999999999999993
 20
74.899999999999991
 30
0.0
 10
-7.5999999999999996
 20
74.5
 30
0.0
 10
-6.9999999999999991
 20
74.099999999999994
 30
0.0
 10
-6.6217514777897701
 20
73.773311960527408
 30
0.0
 10
-6.6217514777897701
 20
73.773311960527408
 30
0.0
 10
-2.117692183551843
 20
69.269252666288338
 30
0.0
  0
SPLINE
  5
62
  8
arm
 62
256
370
-1
 48
1.0
  6
BYLAYER
100
AcDbEntity
100
AcDbSpline
 70
8
 71
3
 72
12
 73
8
 74
0
 40
0.0
 40
0.0
 40
0.0
 40
0.0
 40
1.0
 40
2.0
 40
3.0
 40
4.0
 40
5.0
 40
5.0
 40
5.0
 40
5.0
 10
-2.117692183551843
 20
69.269252666288338
 30
0.0
 10
-1.4999999999999998
 20
68.799999999999997
 30
0.0
 10
-0.7999999999999999
 20
68.5
 30
0.0
 10
-0.0000000000018588
 20
68.392075842931007
 30
0.0
 10
0.8999999999999999
 20
68.5
 30
0.0
 10
1.7000000000000002
 20
68.899999999999991
 30
0.0
 10
3.2999999999999998
 20
70.399999999999991
 30
0.0
 10
6.6217514777861064
 20
73.773311960527423
 30
0.0
  0
SPLINE
  5
63
  8
arm
 62
256
370
-1
 48
1.0
  6
BYLAYER
100
AcDbEntity
100
AcDbSpline
 70
8
 71
3
 72
32
 73
28
 74
0
 40
0.0
 40
0.0
 40
0.0
 40
0.0
 40
1.0
 40
2.0
 40
3.0
 40
4.0
 40
5.0
 40
6.0
 40
7.0
 40
8.0
 40
9.0
 40
10.0
 40
11.0
 40
12.0
 40
13.0
 40
14.0
 40
15.0
 40
16.0
 40
17.0
 40
18.0
 40
19.0
 40
20.0
 40
21.0
 40
22.0
 40
23.0
 40
24.0
 40
25.0
 40
25.0
 40
25.0
 40
25.0
 10
6.6217514777861064
 20
73.773311960527423
 30
0.0
 10
7.3999999999999995
 20
74.399999999999991
 30
0.0
 10
8.2999999999999989
 20
74.799999999999997
 30
0.0
 10
9.2465974997007461
 20
74.941023993157415
 30
0.0
 10
10.299999999999999
 20
74.899999999999991
 30
0.0
 10
11.299999999999999
 20
74.5
 30
0.0
 10
11.976317888477617
 20
74.048656278849606
 30
0.0
 10
13.199999999999999
 20
73.0
 30
0.0
 10
14.299999999999999
 20
71.799999999999997
 30
0.0
 10
14.753237387303823
 20
71.271736780023474
 30
0.0
 10
15.199999999999999
 20
70.599999999999994
 30
0.0
 10
15.399999999999999
 20
70.099999999999994
 30
0.0
 10
15.625619410466255
 20
69.150894930263647
 30
0.0
 10
15.6
 20
68.199999999999989
 30
0.0
 10
15.499999999999998
 20
67.5
 30
0.0
 10
14.799999999999999
 20
66.199999999999989
 30
0.0
 10
13.699999999999999
 20
64.299999999999997
 30
0.0
 10
13.1
 20
62.999999999999993
 30
0.0
 10
12.1
 20
60.499999999999993
 30
0.0
 10
11.1
 20
57.899999999999999
 30
0.0
 10
9.7999999999999989
 20
53.699999999999996
 30
0.0
 10
8.7999999999999989
 20
50.099999999999994
 30
0.0
 10
8.2816089242979096
 20
47.991346091862347
 30
0.0
 10
7.637563781675853
 20
44.95810122661009
 30
0.0
 10
7.1804994869118133
 20
42.371532831240948
 30
0.0
 10
6.5676178189327601
 20
38.070973330506597
 30
0.0
 10
6.204043948097727
 20
33.884679903463258
 30
0.0
 10
5.9999999999985221
 20
29.000000000021554
 30
0.0
  0
CIRCLE
  5
64
100
AcDbEntity
100
AcDbCircle
  8
arm
 62
256
370
-1
 48
1.0
  6
BYLAYER
 10
0.0000000000002558
 20
59.29541889154568
 30
0.0
 40
3.5
  0
ARC
  5
65
100
AcDbEntity
  8
arm
 62
256
370
-1
 48
1.0
  6
BYLAYER
100
AcDbCircle
 10
6.8589357775094708
 20
66.154354669056559
 30
0.0
 40
1.5500000000000003
100
AcDbArc
 50
315.00000000000557
 51
135.00000000005502
  0
ARC
  5
66
100
AcDbEntity
  8
arm
 62
256
370
-1
 48
1.0
  6
BYLAYER
100
AcDbCircle
 10
-6.858935777508961
 20
52.4364831140348
 30
0.0
 40
1.5500000000000003
100
AcDbArc
 50
135.00000000000551
 51
315.00000000005502
  0
ARC
  5
67
100
AcDbEntity
  8
arm
 62
256
370
-1
 48
1.0
  6
BYLAYER
100
AcDbCircle
 10
-6.8589357775106237
 20
66.154354669054896
 30
0.0
 40
1.5500000000000003
100
AcDbArc
 50
45.000000000005528
 51
225.00000000005502
  0
LINE
  5
68
100
AcDbEntity
100
AcDbLine
  8
arm
 62
256
370
-1
 48
1.0
  6
BYLAYER
 10
5.7629202666691572
 20
67.250370179894773
 30
0.0
 11
4.2779960261785357
 21
65.765445939401289
 31
0.0
  0
LINE
  5
69
100
AcDbEntity
100
AcDbLine
  8
arm
 62
256
370
-1
 48
1.0
  6
BYLAYER
 10
-5.7629202666686448
 20
51.340467603196586
 30
0.0
 11
-4.2779960261780241
 21
52.82539184369007
 31
0.0
  0
LINE
  5
6A
100
AcDbEntity
100
AcDbLine
  8
arm
 62
256
370
-1
 48
1.0
  6
BYLAYER
 10
-7.9549512883488349
 20
65.058339158214579
 30
0.0
 11
-6.4700270478553579
 21
63.573414917723959
 31
0.0
  0
LINE
  5
6B
100
AcDbEntity
100
AcDbLine
  8
arm
 62
256
370
-1
 48
1.0
  6
BYLAYER
 10
6.470026907367429
 20
63.573414777235733
 30
0.0
 11
7.9549512883488234
 21
65.058339158217422
 31
0.0
  0
LINE
  5
6C
100
AcDbEntity
100
AcDbLine
  8
arm
 62
256
370
-1
 48
1.0
  6
BYLAYER
 10
-6.4700269073669148
 20
55.017423005855626
 30
0.0
 11
-7.9549512883483118
 21
53.532498624873938
 31
0.0
  0
LINE
  5
6D
100
AcDbEntity
100
AcDbLine
  8
arm
 62
256
370
-1
 48
1.0
  6
BYLAYER
 10
-4.2779958856897986
 20
65.76544579891285
 30
0.0
 11
-5.7629202666714843
 21
67.250370179894247
 31
0.0
  0
ARC
  5
6E
100
AcDbEntity
  8
arm
 62
256
370
-1
 48
1.0
  6
BYLAYER
100
AcDbCircle
 10
5.3740114667729859
 20
64.669430358318508
 30
0.0
 40
1.5499999999992478
100
AcDbArc
 50
134.9999963278857
 51
314.99999632788553
  0
ARC
  5
6F
100
AcDbEntity
  8
arm
 62
256
370
-1
 48
1.0
  6
BYLAYER
100
AcDbCircle
 10
-5.3740114667724734
 20
53.921407424772845
 30
0.0
 40
1.5499999999992478
100
AcDbArc
 50
314.9999963278857
 51
134.99999632788558
  0
ARC
  5
70
100
AcDbEntity
  8
arm
 62
256
370
-1
 48
1.0
  6
BYLAYER
100
AcDbCircle
 10
-5.3740114667725774
 20
64.669430358318408
 30
0.0
 40
1.5499999999992478
100
AcDbArc
 50
224.99999632788575
 51
44.999996327885583
  0
CIRCLE
  5
71
100
AcDbEntity
100
AcDbCircle
  8
arm
 62
256
370
-1
 48
1.0
  6
BYLAYER
 10
0.0
 20
0.0
 30
0.0
 40
1.4750000000000001
  0
CIRCLE
  5
72
100
AcDbEntity
100
AcDbCircle
  8
arm
 62
256
370
-1
 48
1.0
  6
BYLAYER
 10
-0.0000000000014779
 20
-11.999999999976311
 30
0.0
 40
1.4750000000000001
  0
SPLINE
  5
73
  8
arm
 62
256
370
-1
 48
1.0
  6
BYLAYER
100
AcDbEntity
100
AcDbSpline
 70
8
 71
3
 72
9
 73
5
 74
0
 40
0.0
 40
0.0
 40
0.0
 40
0.0
 40
1.0
 40
2.0
 40
2.0
 40
2.0
 40
2.0
 10
1.8711114419369022
 20
-17.39974582202607
 30
0.0
 10
2.23729473438204
 20
-18.390594730995268
 30
0.0
 10
2.9017680992262314
 20
-19.830081180314593
 30
0.0
 10
3.5512465484498907
 20
-21.061578746477458
 30
0.0
 10
4.092612139615726
 20
-21.935014346881225
 30
0.0
  0
SPLINE
  5
74
  8
arm
 62
256
370
-1
 48
1.0
  6
BYLAYER
100
AcDbEntity
100
AcDbSpline
 70
8
 71
3
 72
10
 73
6
 74
0
 40
0.0
 40
0.0
 40
0.0
 40
0.0
 40
1.0
 40
2.0
 40
3.0
 40
3.0
 40
3.0
 40
3.0
 10
-0.8372579135797187
 20
-18.230468271396639
 30
0.0
 10
-0.5629304431396101
 20
-19.187581896905279
 30
0.0
 10
0.0
 20
-20.0
 30
0.0
 10
0.7510213709282407
 20
-21.147739521170429
 30
0.0
 10
1.6987898925509537
 20
-22.353990366872068
 30
0.0
 10
2.3947928756767283
 20
-23.169007814443468
 30
0.0
  0
ARC
  5
75
100
AcDbEntity
  8
arm
 62
256
370
-1
 48
1.0
  6
BYLAYER
100
AcDbCircle
 10
3.2437025076462271
 20
-22.552011080662346
 30
0.0
 40
1.0494439159608111
100
AcDbArc
 50
216.01006105979232
 51
36.010061059792172
  0
ARC
  5
76
100
AcDbEntity
  8
arm
 62
256
370
-1
 48
1.0
  6
BYLAYER
100
AcDbCircle
 10
0.5169267641786013
 20
-17.815107046711354
 30
0.0
 40
1.4164537014838898
100
AcDbArc
 50
17.0520444724946
 51
197.0520444724946
  0
ENDSEC
  0
SECTION
  2
OBJECTS
  0
DICTIONARY
  5
C
100
AcDbDictionary
280
0
281
1
  3
ACAD_GROUP
350
D
  3
ACAD_LAYOUT
350
1A
  3
ACAD_MLINESTYLE
350
17
  3
ACAD_PLOTSETTINGS
350
19
  3
ACAD_PLOTSTYLENAME
350
E
  3
AcDbVariableDictionary
350
77
  3
QCAD_OBJECTS
350
78
  0
DICTIONARY
  5
D
100
AcDbDictionary
280
0
281
1
  0
ACDBDICTIONARYWDFLT
  5
E
100
AcDbDictionary
281
1
  3
Normal
350
F
100
AcDbDictionaryWithDefault
340
F
  0
ACDBPLACEHOLDER
  5
F
  0
DICTIONARY
  5
17
100
AcDbDictionary
280
0
281
1
  3
Standard
350
18
  0
MLINESTYLE
  5
18
100
AcDbMlineStyle
  2
STANDARD
 70
0
  3

 62
256
 51
90.0
 52
90.0
 71
2
 49
0.5
 62
256
  6
BYLAYER
 49
-0.5
 62
256
  6
BYLAYER
  0
DICTIONARY
  5
19
100
AcDbDictionary
280
0
281
1
  0
DICTIONARY
  5
1A
100
AcDbDictionary
281
1
  3
Layout1
350
1E
  3
Layout2
350
26
  3
Model
350
22
  0
LAYOUT
  5
1E
100
AcDbPlotSettings
  1

  2
none_device
  4

  6

 40
0.0
 41
0.0
 42
0.0
 43
0.0
 44
0.0
 45
0.0
 46
0.0
 47
0.0
 48
0.0
 49
0.0
140
0.0
141
0.0
142
1.0
143
1.0
 70
688
 72
0
 73
0
 74
5
  7

 75
16
147
1.0
148
0.0
149
0.0
100
AcDbLayout
  1
Layout1
 70
1
 71
1
 10
0.0
 20
0.0
 11
420.0
 21
297.0
 12
0.0
 22
0.0
 32
0.0
 14
100000000000000000000.0
 24
100000000000000000000.0
 34
100000000000000000000.0
 15
-100000000000000000000.0
 25
-100000000000000000000.0
 35
-100000000000000000000.0
146
0.0
 13
0.0
 23
0.0
 33
0.0
 16
1.0
 26
0.0
 36
0.0
 17
0.0
 27
1.0
 37
0.0
 76
0
330
1B
  0
LAYOUT
  5
22
100
AcDbPlotSettings
  1

  2
none_device
  4

  6

 40
0.0
 41
0.0
 42
0.0
 43
0.0
 44
0.0
 45
0.0
 46
0.0
 47
0.0
 48
0.0
 49
0.0
140
0.0
141
0.0
142
1.0
143
1.0
 70
1712
 72
0
 73
0
 74
0
  7

 75
0
147
1.0
148
0.0
149
0.0
100
AcDbLayout
  1
Model
 70
1
 71
0
 10
0.0
 20
0.0
 11
12.0
 21
9.0
 12
0.0
 22
0.0
 32
0.0
 14
0.0
 24
0.0
 34
0.0
 15
0.0
 25
0.0
 35
0.0
146
0.0
 13
0.0
 23
0.0
 33
0.0
 16
1.0
 26
0.0
 36
0.0
 17
0.0
 27
1.0
 37
0.0
 76
0
330
1F
  0
LAYOUT
  5
26
100
AcDbPlotSettings
  1

  2
none_device
  4

  6

 40
0.0
 41
0.0
 42
0.0
 43
0.0
 44
0.0
 45
0.0
 46
0.0
 47
0.0
 48
0.0
 49
0.0
140
0.0
141
0.0
142
1.0
143
1.0
 70
688
 72
0
 73
0
 74
5
  7

 75
16
147
1.0
148
0.0
149
0.0
100
AcDbLayout
  1
Layout2
 70
1
 71
2
 10
0.0
 20
0.0
 11
12.0
 21
9.0
 12
0.0
 22
0.0
 32
0.0
 14
0.0
 24
0.0
 34
0.0
 15
0.0
 25
0.0
 35
0.0
146
0.0
 13
0.0
 23
0.0
 33
0.0
 16
1.0
 26
0.0
 36
0.0
 17
0.0
 27
1.0
 37
0.0
 76
0
330
23
  0
DICTIONARY
  5
77
100
AcDbDictionary
281
1
  3
DIMASSOC
350
7A
  3
HIDETEXT
350
79
  0
DICTIONARYVAR
  5
79
100
DictionaryVariables
280
0
  1
2
  0
DICTIONARYVAR
  5
7A
100
DictionaryVariables
280
0
  1
1
  0
DICTIONARY
  5
78
100
AcDbDictionary
281
1
  3
ColorSettings/BackgroundColor
350
7B
  3
ColorSettings/ColorMode
350
7C
  3
Grid/DisplayGrid00
350
7D
  3
Grid/DisplayGrid01
350
7E
  3
Grid/DisplayGrid02
350
7F
  3
Grid/DisplayGrid03
350
80
  3
Grid/GridSpacingX00
350
81
  3
Grid/GridSpacingX01
350
82
  3
Grid/GridSpacingX02
350
83
  3
Grid/GridSpacingX03
350
84
  3
Grid/GridSpacingY00
350
85
  3
Grid/GridSpacingY01
350
86
  3
Grid/GridSpacingY02
350
87
  3
Grid/GridSpacingY03
350
88
  3
Grid/IsometricGrid00
350
89
  3
Grid/IsometricGrid01
350
8A
  3
Grid/IsometricGrid02
350
8B
  3
Grid/IsometricGrid03
350
8C
  3
Grid/IsometricProjection00
350
8D
  3
Grid/IsometricProjection01
350
8E
  3
Grid/IsometricProjection02
350
8F
  3
Grid/IsometricProjection03
350
90
  3
Grid/MetaGridSpacingX00
350
91
  3
Grid/MetaGridSpacingX01
350
92
  3
Grid/MetaGridSpacingX02
350
93
  3
Grid/MetaGridSpacingX03
350
94
  3
Grid/MetaGridSpacingY00
350
95
  3
Grid/MetaGridSpacingY01
350
96
  3
Grid/MetaGridSpacingY02
350
97
  3
Grid/MetaGridSpacingY03
350
98
  3
MultiPageSettings/Columns
350
99
  3
MultiPageSettings/GlueMarginsBottom
350
9A
  3
MultiPageSettings/GlueMarginsLeft
350
9B
  3
MultiPageSettings/GlueMarginsRight
350
9C
  3
MultiPageSettings/GlueMarginsTop
350
9D
  3
MultiPageSettings/PrintCropMarks
350
9E
  3
MultiPageSettings/Rows
350
9F
  3
PageSettings/OffsetX
350
A0
  3
PageSettings/OffsetY
350
A1
  3
PageSettings/PageOrientation
350
A2
  3
PageSettings/PaperHeight
350
A3
  3
PageSettings/PaperWidth
350
A4
  3
PageSettings/Scale
350
A5
  3
PageSettings/ShowPaperBorders
350
A6
  3
QCADVersion
350
A7
  3
UnitSettings/PaperUnit
350
A8
  0
XRECORD
  5
7B
330
78
100
AcDbXrecord
280
1
1000
White
  0
XRECORD
  5
7C
330
78
100
AcDbXrecord
280
1
1000
FullColor
  0
XRECORD
  5
7D
330
78
100
AcDbXrecord
280
1
290
1
  0
XRECORD
  5
7E
330
78
100
AcDbXrecord
280
1
290
1
  0
XRECORD
  5
7F
330
78
100
AcDbXrecord
280
1
290
1
  0
XRECORD
  5
80
330
78
100
AcDbXrecord
280
1
290
1
  0
XRECORD
  5
81
330
78
100
AcDbXrecord
280
1
1000
auto
  0
XRECORD
  5
82
330
78
100
AcDbXrecord
280
1
1000
auto
  0
XRECORD
  5
83
330
78
100
AcDbXrecord
280
1
1000
auto
  0
XRECORD
  5
84
330
78
100
AcDbXrecord
280
1
1000
auto
  0
XRECORD
  5
85
330
78
100
AcDbXrecord
280
1
1000
auto
  0
XRECORD
  5
86
330
78
100
AcDbXrecord
280
1
1000
auto
  0
XRECORD
  5
87
330
78
100
AcDbXrecord
280
1
1000
auto
  0
XRECORD
  5
88
330
78
100
AcDbXrecord
280
1
1000
auto
  0
XRECORD
  5
89
330
78
100
AcDbXrecord
280
1
290
0
  0
XRECORD
  5
8A
330
78
100
AcDbXrecord
280
1
290
0
  0
XRECORD
  5
8B
330
78
100
AcDbXrecord
280
1
290
0
  0
XRECORD
  5
8C
330
78
100
AcDbXrecord
280
1
290
0
  0
XRECORD
  5
8D
330
78
100
AcDbXrecord
280
1
 90
0
  0
XRECORD
  5
8E
330
78
100
AcDbXrecord
280
1
 90
0
  0
XRECORD
  5
8F
330
78
100
AcDbXrecord
280
1
 90
0
  0
XRECORD
  5
90
330
78
100
AcDbXrecord
280
1
 90
0
  0
XRECORD
  5
91
330
78
100
AcDbXrecord
280
1
1000
auto
  0
XRECORD
  5
92
330
78
100
AcDbXrecord
280
1
1000
auto
  0
XRECORD
  5
93
330
78
100
AcDbXrecord
280
1
1000
auto
  0
XRECORD
  5
94
330
78
100
AcDbXrecord
280
1
1000
auto
  0
XRECORD
  5
95
330
78
100
AcDbXrecord
280
1
1000
auto
  0
XRECORD
  5
96
330
78
100
AcDbXrecord
280
1
1000
auto
  0
XRECORD
  5
97
330
78
100
AcDbXrecord
280
1
1000
auto
  0
XRECORD
  5
98
330
78
100
AcDbXrecord
280
1
1000
auto
  0
XRECORD
  5
99
330
78
100
AcDbXrecord
280
1
 90
1
  0
XRECORD
  5
9A
330
78
100
AcDbXrecord
280
1
 40
10.0
  0
XRECORD
  5
9B
330
78
100
AcDbXrecord
280
1
 40
10.0
  0
XRECORD
  5
9C
330
78
100
AcDbXrecord
280
1
 40
10.0
  0
XRECORD
  5
9D
330
78
100
AcDbXrecord
280
1
 40
10.0
  0
XRECORD
  5
9E
330
78
100
AcDbXrecord
280
1
290
0
  0
XRECORD
  5
9F
330
78
100
AcDbXrecord
280
1
 90
1
  0
XRECORD
  5
A0
330
78
100
AcDbXrecord
280
1
 40
0.0
  0
XRECORD
  5
A1
330
78
100
AcDbXrecord
280
1
 40
0.0
  0
XRECORD
  5
A2
330
78
100
AcDbXrecord
280
1
1000
Portrait
  0
XRECORD
  5
A3
330
78
100
AcDbXrecord
280
1
 40
420.0
  0
XRECORD
  5
A4
330
78
100
AcDbXrecord
280
1
 40
297.0
  0
XRECORD
  5
A5
330
78
100
AcDbXrecord
280
1
1000
1:1
  0
XRECORD
  5
A6
330
78
100
AcDbXrecord
280
1
290
1
  0
XRECORD
  5
A7
330
78
100
AcDbXrecord
280
1
1000
3.12.1
  0
XRECORD
  5
A8
330
78
100
AcDbXrecord
280
1
 90
4
  0
ENDSEC
  0
EOF
