0
SECTION
2
HEADER
9
$INSUNITS
70
4
9
$ACADVER
1
AC1014
9
$HANDSEED
5
FFFF
0
ENDSEC
0
SECTION
2
TABLES
0
TABLE
2
VPORT
5
8
100
AcDbSymbolTable
0
ENDTAB
0
TABLE
2
LTYPE
5
5
100
AcDbSymbolTable
0
LTYPE
5
14
100
AcDbSymbolTableRecord
100
AcDbLinetypeTableRecord
2
BYBLOCK
70
0
0
LTYPE
5
15
100
AcDbSymbolTableRecord
100
AcDbLinetypeTableRecord
2
BYLAYER
70
0
0
ENDTAB
0
TABLE
2
LAYER
5
2
100
AcDbSymbolTable
70
2
0
LAYER
5
50
100
AcDbSymbolTableRecord
100
AcDbLayerTableRecord
2
0
70
0
6
CONTINUOUS
0
ENDTAB
0
TABLE
2
STYLE
5
3
100
AcDbSymbolTable
70
1
0
STYLE
5
11
100
AcDbSymbolTableRecord
100
AcDbTextStyleTableRecord
2
STANDARD
70
0
0
ENDTAB
0
TABLE
2
VIEW
5
6
100
AcDbSymbolTable
70
0
0
ENDTAB
0
TABLE
2
UCS
5
7
100
AcDbSymbolTable
70
0
0
ENDTAB
0
TABLE
2
APPID
5
9
100
AcDbSymbolTable
70
2
0
APPID
5
12
100
AcDbSymbolTableRecord
100
AcDbRegAppTableRecord
2
ACAD
70
0
0
ENDTAB
0
TABLE
2
DIMSTYLE
5
A
100
AcDbSymbolTable
70
1
0
ENDTAB
0
TABLE
2
BLOCK_RECORD
5
1
100
AcDbSymbolTable
70
1
0
BLOCK_RECORD
5
1F
100
AcDbSymbolTableRecord
100
AcDbBlockTableRecord
2
*MODEL_SPACE
0
BLOCK_RECORD
5
1B
100
AcDbSymbolTableRecord
100
AcDbBlockTableRecord
2
*PAPER_SPACE
0
ENDTAB
0
ENDSEC
0
SECTION
2
BLOCKS
0
BLOCK
5
20
100
AcDbEntity
100
AcDbBlockBegin
2
*MODEL_SPACE
0
ENDBLK
5
21
100
AcDbEntity
100
AcDbBlockEnd
0
BLOCK
5
1C
100
AcDbEntity
100
AcDbBlockBegin
2
*PAPER_SPACE
0
ENDBLK
5
1D
100
AcDbEntity
100
AcDbBlockEnd
0
ENDSEC
0
SECTION
2
ENTITIES
0
ARC
5
100
100
AcDbEntity
8
0
100
AcDbCircle
10
2.8593008645268436
20
13.807041629766644
30
0
40
1.4500000000000015
100
AcDbArc
50
-11.700000000000188
51
168.29999999999984
0
LINE
5
101
100
AcDbEntity
8
0
100
AcDbLine
10
4.2791739399284046
20
13.513000051499695
30
0
11
2.8191054089801266
21
6.4625957938662424
31
0
0
ARC
5
102
100
AcDbEntity
8
0
100
AcDbCircle
10
1.3992607304837961
20
6.7567744955967592
30
0
40
1.4500000067607588
100
AcDbArc
50
168.30553245473467
51
348.29446669152418
0
LINE
5
103
100
AcDbEntity
8
0
100
AcDbLine
10
-0.020640737441597889
20
7.0506789715570806
30
0
11
1.4394277891252827
21
14.101083208033591
31
0
0
CIRCLE
5
104
100
AcDbEntity
8
0
100
AcDbCircle
10
6.3120260012310281
20
138.20820267211403
30
0
40
3.5000000000000044
0
CIRCLE
5
105
100
AcDbEntity
8
0
100
AcDbCircle
10
0
20
0
30
0
40
1.4500000000000002
0
LWPOLYLINE
5
106
100
AcDbEntity
8
0
100
AcDbPolyline
90
4
70
1
43
0.0
10
1.2742218440169253
20
145.286069582793
42
-0.18949546288669786
10
1.0155242411438656
20
145.54476718566619
42
1.4675987714093643
10
-1.0245385123211876
20
143.50470443220124
42
-0.1894954628867456
10
-0.76584090944777317
20
143.24600682932819
42
1.4675987714116312
0
LWPOLYLINE
5
107
100
AcDbEntity
8
0
100
AcDbPolyline
90
4
70
1
43
0.0
10
-0.76584090944787109
20
133.17039851489992
42
-1.4675987714116407
10
1.27422184401683
20
131.13033576143513
42
0.18949546288670699
10
1.0155242411437744
20
130.87163815856186
42
-1.4675987714093506
10
-1.0245385123212718
20
132.9117009120269
42
0.18949546288682503
0
LWPOLYLINE
5
108
100
AcDbEntity
8
0
100
AcDbPolyline
90
4
70
1
43
0.0
10
11.608527761318241
20
145.5447671856661
42
-0.18949546288667887
10
11.349830158445219
20
145.28606958279286
42
1.4675987714116439
10
13.389892911909872
20
143.24600682932814
42
-0.18949546288685507
10
13.648590514783246
20
143.50470443220112
42
1.4675987714093797
0
CIRCLE
5
109
100
AcDbEntity
8
0
100
AcDbCircle
10
4.258533202486829
20
20.563679023056814
30
0
40
1.4500000000000002
0
LWPOLYLINE
5
110
100
AcDbEntity
8
0
100
AcDbPolyline
90
4
70
1
43
0.0
10
11.349830158445108
20
131.13033576143499
42
-1.4675987714116658
10
13.389892911909882
20
133.17039851489977
42
0.18949546288667674
10
13.648590514783178
20
132.91170091202676
42
-1.4675987714093712
10
11.608527761318177
20
130.87163815856178
42
0.18949546288676744
0
LWPOLYLINE
5
111
100
AcDbEntity
8
0
100
AcDbPolyline
90
34
70
1
43
0.0
10
18.094194585476515
20
137.32760973540087
42
-0.28190029638585851
10
18.957961254819008
20
140.93091455700321
10
20.851306625841588
20
142.82620848580467
42
0.32202663924069663
10
21.697371487408216
20
148.00946666682029
42
0.16365597488405945
10
16.060413713452078
20
153.64287590727682
42
0.32208896090471545
10
10.876970817350561
20
152.79282841563654
10
7.0720346273211661
20
148.98529443529367
42
-0.41441347880155732
10
5.552017375140923
20
148.98529443529372
10
1.7470811851116892
20
152.79282841563659
42
0.32208896090471378
10
-3.4363617109898028
20
153.64287590727699
42
0.16365597488405845
10
-9.073319484946051
20
148.00946666682057
42
0.32202663924069413
10
-8.2272546233795012
20
142.82620848580484
10
-6.3339092523570164
20
140.93091455700338
42
-0.28190029638586639
10
-5.4701425830144643
20
137.32760973540098
42
-0.11737104688026313
10
-6.1938743559158427
20
136.14169062562587
10
-7.6819733372707688
20
134.64227534389767
42
0.35163889639393042
10
-8.2742666022497815
20
129.04051857535794
42
0.023924779286595661
10
-7.3589012762430439
20
127.75498082740647
42
-0.144983022801773
10
-1.2440740722237453
20
113.04388165973755
42
-0.02614441898921355
10
-1.187973998769114
20
111.98612258941435
10
-1.1879739987695133
20
34.321797285623767
42
-0.051095276375532094
10
-1.8112896801165679
20
28.238178424928439
10
-7.0969011355803957
20
2.7149261118364443
42
0.17786859946680486
10
-6.6905182212224323
20
-0.013599213734628024
42
0.46267319747600283
10
6.1348531467008414
20
-2.6696059401227403
42
0.17786859946680392
10
7.5914410237459524
20
-0.3268833185113218
10
13.188710319883317
20
26.701307783571675
42
0.051095276375530185
10
13.812026001230373
20
32.78492664426706
10
13.812026001230841
20
111.98612258941429
42
-0.026499653861031862
10
13.868126074685517
20
113.04388165973745
42
-0.14498302280177153
10
19.982953278704922
20
127.75498082740624
42
0.023924779286561355
10
20.89831860471164
20
129.04051857535768
42
0.35163889639393708
10
20.306025339732763
20
134.64227534389752
10
18.817926358377825
20
136.14169062562576
42
-0.11737104688027179
0
ENDSEC
0
SECTION
2
OBJECTS
0
DICTIONARY
5
C
100
AcDbDictionary
3
ACAD_GROUP
350
D
3
ACAD_MLINESTYLE
350
17
0
DICTIONARY
5
D
100
AcDbDictionary
0
DICTIONARY
5
1A
330
C
100
AcDbDictionary
0
DICTIONARY
5
17
100
AcDbDictionary
0
ENDSEC
0
EOF
