0
SECTION
2
HEADER
9
$INSUNITS
70
4
9
$ACADVER
1
AC1014
9
$HANDSEED
5
FFFF
0
ENDSEC
0
SECTION
2
TABLES
0
TABLE
2
VPORT
5
8
100
AcDbSymbolTable
0
ENDTAB
0
TABLE
2
LTYPE
5
5
100
AcDbSymbolTable
0
LTYPE
5
14
100
AcDbSymbolTableRecord
100
AcDbLinetypeTableRecord
2
BYBLOCK
70
0
0
LTYPE
5
15
100
AcDbSymbolTableRecord
100
AcDbLinetypeTableRecord
2
BYLAYER
70
0
0
ENDTAB
0
TABLE
2
LAYER
5
2
100
AcDbSymbolTable
70
2
0
LAYER
5
50
100
AcDbSymbolTableRecord
100
AcDbLayerTableRecord
2
0
70
0
6
CONTINUOUS
0
ENDTAB
0
TABLE
2
STYLE
5
3
100
AcDbSymbolTable
70
1
0
STYLE
5
11
100
AcDbSymbolTableRecord
100
AcDbTextStyleTableRecord
2
STANDARD
70
0
0
ENDTAB
0
TABLE
2
VIEW
5
6
100
AcDbSymbolTable
70
0
0
ENDTAB
0
TABLE
2
UCS
5
7
100
AcDbSymbolTable
70
0
0
ENDTAB
0
TABLE
2
APPID
5
9
100
AcDbSymbolTable
70
2
0
APPID
5
12
100
AcDbSymbolTableRecord
100
AcDbRegAppTableRecord
2
ACAD
70
0
0
ENDTAB
0
TABLE
2
DIMSTYLE
5
A
100
AcDbSymbolTable
70
1
0
ENDTAB
0
TABLE
2
BLOCK_RECORD
5
1
100
AcDbSymbolTable
70
1
0
BLOCK_RECORD
5
1F
100
AcDbSymbolTableRecord
100
AcDbBlockTableRecord
2
*MODEL_SPACE
0
BLOCK_RECORD
5
1B
100
AcDbSymbolTableRecord
100
AcDbBlockTableRecord
2
*PAPER_SPACE
0
ENDTAB
0
ENDSEC
0
SECTION
2
BLOCKS
0
BLOCK
5
20
100
AcDbEntity
100
AcDbBlockBegin
2
*MODEL_SPACE
0
ENDBLK
5
21
100
AcDbEntity
100
AcDbBlockEnd
0
BLOCK
5
1C
100
AcDbEntity
100
AcDbBlockBegin
2
*PAPER_SPACE
0
ENDBLK
5
1D
100
AcDbEntity
100
AcDbBlockEnd
0
ENDSEC
0
SECTION
2
ENTITIES
0
LWPOLYLINE
5
100
100
AcDbEntity
8
0
100
AcDbPolyline
90
36
70
1
43
0.0
10
-3.5221651196479797
20
-50.567451789975181
10
-3.2527706027030945
20
-50.495268180966391
10
-2.9999986290931702
20
-50.377394035458579
10
-2.7715417742729187
20
-50.217424705624595
10
-2.574332058429718
20
-50.020214393734946
10
-2.4143604934215546
20
-49.791761711239829
10
-2.2964926064014435
20
-49.538990333676352
10
-2.2243113815784454
20
-49.269586876034751
10
-2.200000137090683
20
-48.991762474179282
10
-2.2243113815784454
20
-48.713909462094321
10
-2.2964926064014435
20
-48.444525077939048
10
-2.4143604934215546
20
-48.191753700375571
10
-2.574332058429718
20
-47.96329148113729
10
-2.7715417742729187
20
-47.766081169247641
10
-2.9999986290931702
20
-47.606111839413657
10
-3.2527706027030945
20
-47.488247230649009
10
-3.5221651196479797
20
-47.41606362164022
10
-3.8000008463859558
20
-47.391754463315024
10
-4.0778407454490662
20
-47.41606362164022
10
-4.3472346663475037
20
-47.488247230649009
10
-4.6000033617019653
20
-47.606111839413657
10
-4.8284608125686646
20
-47.766081169247641
10
-5.0256741046905518
20
-47.96329148113729
10
-5.1856416463851929
20
-48.191753700375571
10
-5.3035098314285278
20
-48.444525077939048
10
-5.3756946325302124
20
-48.713909462094321
10
-5.4000020027160645
20
-48.991762474179282
10
-5.3756946325302124
20
-49.269586876034751
10
-5.3035098314285278
20
-49.538990333676352
10
-5.1856416463851929
20
-49.791761711239829
10
-5.0256741046905518
20
-50.020214393734946
10
-4.8284608125686646
20
-50.217424705624595
10
-4.6000033617019653
20
-50.377394035458579
10
-4.3472346663475037
20
-50.495268180966391
10
-4.0778407454490662
20
-50.567451789975181
10
-3.8000008463859558
20
-50.591760948300376
0
LWPOLYLINE
5
101
100
AcDbEntity
8
0
100
AcDbPolyline
90
36
70
1
43
0.0
10
-31.397488117218018
20
-37.807470634579673
10
-31.582698822021484
20
-37.757831886410727
10
-31.773712635040283
20
-37.741133049130454
10
-31.964724063873291
20
-37.757831886410727
10
-32.149932384490967
20
-37.807470634579673
10
-32.323710918426514
20
-37.888504341244712
10
-32.480778694152832
20
-37.998472526669516
10
-32.616360187530518
20
-38.134065940976157
10
-32.726342678070068
20
-38.291126564145102
10
-32.807374000549316
20
-38.464914634823813
10
-32.857003211975098
20
-38.650118187069907
10
-32.873711585998535
20
-38.841120079159751
10
-32.857003211975098
20
-39.032131507992759
10
-32.807374000549316
20
-39.217354133725181
10
-32.726342678070068
20
-39.391123130917563
10
-32.616360187530518
20
-39.548193290829673
10
-32.480778694152832
20
-39.683786705136313
10
-32.323710918426514
20
-39.793754890561118
10
-32.149932384490967
20
-39.874788597226157
10
-31.964724063873291
20
-39.924417808651938
10
-31.773712635040283
20
-39.941126182675376
10
-31.582698822021484
20
-39.924417808651938
10
-31.397488117218018
20
-39.874788597226157
10
-31.223711967468262
20
-39.793754890561118
10
-31.066644191741943
20
-39.683786705136313
10
-30.931062698364258
20
-39.548193290829673
10
-30.821082592010498
20
-39.391123130917563
10
-30.740048885345459
20
-39.217354133725181
10
-30.690419673919678
20
-39.032131507992759
10
-30.673708915710449
20
-38.841120079159751
10
-30.690419673919678
20
-38.650118187069907
10
-30.740048885345459
20
-38.464914634823813
10
-30.821082592010498
20
-38.291126564145102
10
-30.931062698364258
20
-38.134065940976157
10
-31.066644191741943
20
-37.998472526669516
10
-31.223711967468262
20
-37.888504341244712
0
LWPOLYLINE
5
102
100
AcDbEntity
8
0
100
AcDbPolyline
90
36
70
1
43
0.0
10
-127.62967109680176
20
-50.591760948300376
10
-127.35183715820312
20
-50.567451789975181
10
-127.08243370056152
20
-50.495268180966391
10
-126.82967185974121
20
-50.377394035458579
10
-126.60121917724609
20
-50.217424705624595
10
-126.40399932861328
20
-50.020214393734946
10
-126.24403953552246
20
-49.791761711239829
10
-126.12616539001465
20
-49.538990333676352
10
-126.0539722442627
20
-49.269586876034751
10
-126.02967262268066
20
-48.991762474179282
10
-126.0539722442627
20
-48.713909462094321
10
-126.12616539001465
20
-48.444525077939048
10
-126.24403953552246
20
-48.191753700375571
10
-126.40399932861328
20
-47.96329148113729
10
-126.60121917724609
20
-47.766081169247641
10
-126.82967185974121
20
-47.606111839413657
10
-127.08243370056152
20
-47.488247230649009
10
-127.35183715820312
20
-47.41606362164022
10
-127.62967109680176
20
-47.391754463315024
10
-127.90751457214355
20
-47.41606362164022
10
-128.17689895629883
20
-47.488247230649009
10
-128.42968940734863
20
-47.606111839413657
10
-128.65813255310059
20
-47.766081169247641
10
-128.8553524017334
20
-47.96329148113729
10
-129.01530265808105
20
-48.191753700375571
10
-129.13317680358887
20
-48.444525077939048
10
-129.20536994934082
20
-48.713909462094321
10
-129.22966003417969
20
-48.991762474179282
10
-129.20536994934082
20
-49.269586876034751
10
-129.13317680358887
20
-49.538990333676352
10
-129.01530265808105
20
-49.791761711239829
10
-128.8553524017334
20
-50.020214393734946
10
-128.65813255310059
20
-50.217424705624595
10
-128.42968940734863
20
-50.377394035458579
10
-128.17689895629883
20
-50.495268180966391
10
-127.90751457214355
20
-50.567451789975181
0
LWPOLYLINE
5
103
100
AcDbEntity
8
0
100
AcDbPolyline
90
36
70
1
43
0.0
10
-24.821083545684814
20
-33.391128852963462
10
-24.740047454833984
20
-33.217340782284751
10
-24.690425395965576
20
-33.032137230038657
10
-24.673712253570557
20
-32.841125801205649
10
-24.690425395965576
20
-32.650123909115806
10
-24.740047454833984
20
-32.464901283383384
10
-24.821083545684814
20
-32.291132286191001
10
-24.931063652038574
20
-32.134062126278891
10
-25.06664514541626
20
-31.998468711972251
10
-25.223710536956787
20
-31.888490989804282
10
-25.397489070892334
20
-31.807466819882407
10
-25.58269739151001
20
-31.757837608456626
10
-25.7737135887146
20
-31.741129234433188
10
-25.964722633361816
20
-31.757837608456626
10
-26.149933338165283
20
-31.807466819882407
10
-26.323709487915039
20
-31.888490989804282
10
-26.480777263641357
20
-31.998468711972251
10
-26.616361141204834
20
-32.134062126278891
10
-26.726338863372803
20
-32.291132286191001
10
-26.807372570037842
20
-32.464901283383384
10
-26.857001781463623
20
-32.650123909115806
10
-26.873710155487061
20
-32.841125801205649
10
-26.857001781463623
20
-33.032137230038657
10
-26.807372570037842
20
-33.217340782284751
10
-26.726338863372803
20
-33.391128852963462
10
-26.616361141204834
20
-33.548189476132407
10
-26.480777263641357
20
-33.683773353695884
10
-26.323709487915039
20
-33.793751075863852
10
-26.149933338165283
20
-33.874784782528891
10
-25.964722633361816
20
-33.924423530697837
10
-25.7737135887146
20
-33.94112236797811
10
-25.58269739151001
20
-33.924423530697837
10
-25.397489070892334
20
-33.874784782528891
10
-25.223710536956787
20
-33.793751075863852
10
-25.06664514541626
20
-33.683773353695884
10
-24.931063652038574
20
-33.548189476132407
0
LWPOLYLINE
5
104
100
AcDbEntity
8
0
100
AcDbPolyline
90
77
70
1
43
0.0
10
-40.772690773010254
20
-32.705828025937095
10
-40.645084381103516
20
-31.324983909726157
10
-40.306859016418457
20
-29.980121925473227
10
-39.845645427703857
20
-28.891130760312095
10
-39.766049385070801
20
-28.703190162777915
10
-39.035484790802002
20
-27.524486854672446
10
-38.132519721984863
20
-26.472021415829673
10
-37.078590393066406
20
-25.570751503109946
10
-35.898711681365967
20
-24.842096641659751
10
-35.723710060119629
20
-24.733768776059165
10
-35.500218868255615
20
-24.595409706234946
10
-35.145008563995361
20
-24.289671257138266
10
-34.84175443649292
20
-23.932339027524009
10
-34.597847461700439
20
-23.53213913738729
10
-34.41925048828125
20
-23.098827674984946
10
-34.310319423675537
20
-22.642999961972251
10
-34.273707866668701
20
-22.175766304135337
10
-34.273707866668701
20
-20.14163620769979
10
-34.273707866668701
20
-2.901264503598227
10
-34.302983283996582
20
-2.5603307038545746
10
-34.389951229095459
20
-2.2293675690889501
10
-34.532063007354736
20
-1.918078735470786
10
-34.725158214569092
20
-1.6355717927217626
10
-34.963586330413818
20
-1.390119865536704
10
-35.240368843078613
20
-1.188899353146567
10
-35.547397136688232
20
-1.0378087311983248
10
-35.723710060119629
20
-0.98595745861531703
10
-35.875694751739502
20
-0.94127304852010218
10
-36.215641498565674
20
-0.9021056443452975
10
-36.360821723937988
20
-0.89999802410603968
10
-41.752896308898926
20
-0.89999802410603968
10
-42.406344413757324
20
-0.95142967998982875
10
-44.881587028503418
20
-1.1462319642305514
10
-47.933235168457031
20
-1.8788731843233251
10
-50.832705497741699
20
-3.0798781663179535
10
-53.508601188659668
20
-4.7196639329195165
10
-55.393772125244141
20
-6.3297475129366063
10
-55.89503288269043
20
-6.7578709870577001
10
-56.28298282623291
20
-7.1458161622285985
10
-58.321185111999512
20
-9.5322478562593602
10
-59.960975646972656
20
-12.208134010434165
10
-60.300230979919434
20
-13.027182891964927
10
-61.161975860595703
20
-15.107618644833579
10
-61.894617080688477
20
-18.15926201641561
10
-62.050628662109375
20
-20.14163620769979
10
-62.140851020812988
20
-21.287952736020102
10
-62.140851020812988
20
-25.954080894589438
10
-62.011032104492188
20
-28.891130760312095
10
-61.916899681091309
20
-31.020971611142173
10
-61.384329795837402
20
-34.891125038266196
10
-61.327829360961914
20
-35.301729515194907
10
-60.300230979919434
20
-39.511638954281821
10
-60.280632972717285
20
-39.591928794980063
10
-59.271883964538574
20
-42.370830848813071
10
-59.053549766540527
20
-42.972284629941001
10
-58.816609382629395
20
-43.420902565121665
10
-58.507466316223145
20
-43.823152855038657
10
-58.134961128234863
20
-44.167581871151938
10
-57.709746360778809
20
-44.444300010800376
10
-57.243986129760742
20
-44.645429924130454
10
-56.750993728637695
20
-44.765182808041587
10
-56.244864463806152
20
-44.800163581967368
10
-55.740089416503906
20
-44.749361351132407
10
-55.393772125244141
20
-44.653650596737876
10
-55.251083374023438
20
-44.614216163754477
10
-54.79184627532959
20
-44.398599937558188
10
-51.279635429382324
20
-42.370830848813071
10
-42.406344413757324
20
-37.247825935482993
10
-42.157635688781738
20
-37.104240730404868
10
-41.740894317626953
20
-36.813989952206626
10
-41.379084587097168
20
-36.457620933651938
10
-41.082568168640137
20
-36.045328453183188
10
-40.859847068786621
20
-35.588928535580649
10
-40.717296600341797
20
-35.101496055722251
10
-40.692992210388184
20
-34.891125038266196
10
-40.659012794494629
20
-34.597002342343345
10
-40.686655044555664
20
-34.089895561337485
0
LWPOLYLINE
5
105
100
AcDbEntity
8
0
100
AcDbPolyline
90
36
70
1
43
0.0
10
-31.066644191741943
20
41.883772537112222
10
-31.223711967468262
20
41.993752643465982
10
-31.397488117218018
20
42.074788734316812
10
-31.582698822021484
20
42.12441079318522
10
-31.773712635040283
20
42.141123935580239
10
-31.964724063873291
20
42.12441079318522
10
-32.149932384490967
20
42.074788734316812
10
-32.323710918426514
20
41.993752643465982
10
-32.480778694152832
20
41.883772537112222
10
-32.616360187530518
20
41.748191043734536
10
-32.726342678070068
20
41.591125652194009
10
-32.807374000549316
20
41.417347118258462
10
-32.857003211975098
20
41.232138797640786
10
-32.873711585998535
20
41.041122600436196
10
-32.857003211975098
20
40.85011355578898
10
-32.807374000549316
20
40.664902850985513
10
-32.726342678070068
20
40.491126701235757
10
-32.616360187530518
20
40.334058925509439
10
-32.480778694152832
20
40.198475047945962
10
-32.323710918426514
20
40.088497325777993
10
-32.149932384490967
20
40.007463619112954
10
-31.964724063873291
20
39.957834407687173
10
-31.773712635040283
20
39.941126033663735
10
-31.582698822021484
20
39.957834407687173
10
-31.397488117218018
20
40.007463619112954
10
-31.223711967468262
20
40.088497325777993
10
-31.066644191741943
20
40.198475047945962
10
-30.931062698364258
20
40.334058925509439
10
-30.821082592010498
20
40.491126701235757
10
-30.740048885345459
20
40.664902850985513
10
-30.690419673919678
20
40.85011355578898
10
-30.673708915710449
20
41.041122600436196
10
-30.690419673919678
20
41.232138797640786
10
-30.740048885345459
20
41.417347118258462
10
-30.821082592010498
20
41.591125652194009
10
-30.931062698364258
20
41.748191043734536
0
LWPOLYLINE
5
106
100
AcDbEntity
8
0
100
AcDbPolyline
90
42
70
1
43
0.0
10
-29.175636768341064
20
36.541124507784829
10
-29.47371244430542
20
36.96682326495646
10
-29.475576877593994
20
36.969486400485025
10
-29.845349788665771
20
37.339259311556802
10
-30.273711681365967
20
37.639199420809732
10
-30.423712730407715
20
37.709146663546548
10
-30.747652053833008
20
37.860203906893716
10
-31.252768039703369
20
37.9955469816923
10
-31.773712635040283
20
38.041125461459146
10
-32.294654846191406
20
37.9955469816923
10
-32.799770832061768
20
37.860203906893716
10
-33.123710155487061
20
37.709146663546548
10
-33.2737135887146
20
37.639199420809732
10
-33.702073097229004
20
37.339259311556802
10
-34.07184362411499
20
36.969486400485025
10
-34.37178373336792
20
36.541124507784829
10
-34.592788219451904
20
36.067184135317788
10
-34.728131294250488
20
35.562068149447427
10
-34.773712158203125
20
35.041123554110513
10
-34.728131294250488
20
34.520183727145181
10
-34.592788219451904
20
34.015067741274819
10
-34.37178373336792
20
33.541122600436196
10
-34.07184362411499
20
33.112765476107583
10
-33.702073097229004
20
32.742992565035806
10
-33.2737135887146
20
32.443050071597085
10
-33.123710155487061
20
32.373102828860269
10
-32.799770832061768
20
32.222047969698892
10
-32.294654846191406
20
32.086702510714517
10
-31.773712635040283
20
32.041126415133462
10
-31.252768039703369
20
32.086702510714517
10
-30.747652053833008
20
32.222047969698892
10
-30.423712730407715
20
32.373102828860269
10
-30.273711681365967
20
32.443050071597085
10
-29.845349788665771
20
32.742992565035806
10
-29.475576877593994
20
33.112765476107583
10
-29.47371244430542
20
33.115428611636148
10
-29.175636768341064
20
33.541122600436196
10
-28.95463228225708
20
34.015067741274819
10
-28.819289207458496
20
34.520183727145181
10
-28.77371072769165
20
35.041123554110513
10
-28.819289207458496
20
35.562068149447427
10
-28.95463228225708
20
36.067184135317788
0
LWPOLYLINE
5
107
100
AcDbEntity
8
0
100
AcDbPolyline
90
36
70
1
43
0.0
10
-46.035470962524414
20
-60.694595649838462
10
-45.963282585144043
20
-60.425201728940024
10
-45.93897819519043
20
-60.147367790341391
10
-45.963282585144043
20
-59.869533851742759
10
-46.035470962524414
20
-59.600130394101157
10
-46.153335571289062
20
-59.347368553280845
10
-46.313304901123047
20
-59.118906334042563
10
-46.510519981384277
20
-58.921696022152915
10
-46.738977432250977
20
-58.761736229062095
10
-46.991744041442871
20
-58.643862083554282
10
-47.261142730712891
20
-58.571668937802329
10
-47.538981437683105
20
-58.547369316220298
10
-47.816815376281738
20
-58.571668937802329
10
-48.086214065551758
20
-58.643862083554282
10
-48.33897590637207
20
-58.761736229062095
10
-48.567438125610352
20
-58.921696022152915
10
-48.764643669128418
20
-59.118906334042563
10
-48.924617767333984
20
-59.347368553280845
10
-49.042487144470215
20
-59.600130394101157
10
-49.114665985107422
20
-59.869533851742759
10
-49.138979911804199
20
-60.147367790341391
10
-49.114665985107422
20
-60.425201728940024
10
-49.042487144470215
20
-60.694595649838462
10
-48.924617767333984
20
-60.947367027401938
10
-48.764643669128418
20
-61.17582924664022
10
-48.567438125610352
20
-61.373030021786704
10
-48.33897590637207
20
-61.533008888363852
10
-48.086214065551758
20
-61.650873497128501
10
-47.816815376281738
20
-61.72305710613729
10
-47.538981437683105
20
-61.747375801205649
10
-47.261142730712891
20
-61.72305710613729
10
-46.991744041442871
20
-61.650873497128501
10
-46.738977432250977
20
-61.533008888363852
10
-46.510519981384277
20
-61.373030021786704
10
-46.313304901123047
20
-61.17582924664022
10
-46.153335571289062
20
-60.947367027401938
0
LWPOLYLINE
5
108
100
AcDbEntity
8
0
100
AcDbPolyline
90
36
70
1
43
0.0
10
-32.480778694152832
20
-27.683779075741782
10
-32.323710918426514
20
-27.793756797909751
10
-32.149932384490967
20
-27.874780967831626
10
-31.964724063873291
20
-27.924410179257407
10
-31.773712635040283
20
-27.941128090024009
10
-31.582698822021484
20
-27.924410179257407
10
-31.397488117218018
20
-27.874780967831626
10
-31.223711967468262
20
-27.793756797909751
10
-31.066644191741943
20
-27.683779075741782
10
-30.931062698364258
20
-27.548195198178306
10
-30.821082592010498
20
-27.391125038266196
10
-30.740048885345459
20
-27.217356041073813
10
-30.690419673919678
20
-27.032142952084556
10
-30.673708915710449
20
-26.841121986508384
10
-30.690419673919678
20
-26.650110557675376
10
-30.740048885345459
20
-26.464907005429282
10
-30.821082592010498
20
-26.291128471493735
10
-30.931062698364258
20
-26.134058311581626
10
-31.066644191741943
20
-25.998483970761313
10
-31.223711967468262
20
-25.888506248593345
10
-31.397488117218018
20
-25.807472541928306
10
-31.582698822021484
20
-25.757843330502524
10
-31.773712635040283
20
-25.741125419735923
10
-31.964724063873291
20
-25.757843330502524
10
-32.149932384490967
20
-25.807472541928306
10
-32.323710918426514
20
-25.888506248593345
10
-32.480778694152832
20
-25.998483970761313
10
-32.616360187530518
20
-26.134058311581626
10
-32.726342678070068
20
-26.291128471493735
10
-32.807374000549316
20
-26.464907005429282
10
-32.857003211975098
20
-26.650110557675376
10
-32.873711585998535
20
-26.841121986508384
10
-32.857003211975098
20
-27.032142952084556
10
-32.807374000549316
20
-27.217356041073813
10
-32.726342678070068
20
-27.391125038266196
10
-32.616360187530518
20
-27.548195198178306
0
LWPOLYLINE
5
109
100
AcDbEntity
8
0
100
AcDbPolyline
90
36
70
1
43
0.0
10
-46.313304901123047
20
63.375826999545083
10
-46.510519981384277
20
63.573036268353448
10
-46.738977432250977
20
63.733007833361611
10
-46.991744041442871
20
63.850876018404946
10
-47.261142730712891
20
63.923057243227944
10
-47.538981437683105
20
63.947368487715707
10
-47.816815376281738
20
63.923057243227944
10
-48.086214065551758
20
63.850876018404946
10
-48.33897590637207
20
63.733007833361611
10
-48.567438125610352
20
63.573036268353448
10
-48.764643669128418
20
63.375826999545083
10
-48.924617767333984
20
63.147366121411309
10
-49.042487144470215
20
62.894597724080072
10
-49.114665985107422
20
62.625203356146798
10
-49.138979911804199
20
62.347367331385598
10
-49.114665985107422
20
62.069531604647622
10
-49.042487144470215
20
61.800133213400827
10
-48.924617767333984
20
61.547365114092813
10
-48.764643669128418
20
61.318907961249337
10
-48.567438125610352
20
61.12169466912745
10
-48.33897590637207
20
60.961727127432809
10
-48.086214065551758
20
60.843858942389474
10
-47.816815376281738
20
60.771673843264566
10
-47.538981437683105
20
60.747366473078714
10
-47.261142730712891
20
60.771673843264566
10
-46.991744041442871
20
60.843858942389474
10
-46.738977432250977
20
60.961727127432809
10
-46.510519981384277
20
61.12169466912745
10
-46.313304901123047
20
61.318907961249337
10
-46.153335571289062
20
61.547365114092813
10
-46.035470962524414
20
61.800133213400827
10
-45.963282585144043
20
62.069531604647622
10
-45.93897819519043
20
62.347367331385598
10
-45.963282585144043
20
62.625203356146798
10
-46.035470962524414
20
62.894597724080072
10
-46.153335571289062
20
63.147366121411309
0
LWPOLYLINE
5
110
100
AcDbEntity
8
0
100
AcDbPolyline
90
40
70
1
43
0.0
10
-30.198018550872803
20
0.82216136157511266
10
-30.173711776733398
20
1.1000000685453275
10
-30.198018550872803
20
1.3778387755155421
10
-30.270204544067383
20
1.6472326964139796
10
-30.388069152832031
20
1.8999945372342921
10
-30.423712730407715
20
1.9509016722440577
10
-30.548040866851807
20
2.1284615248441554
10
-30.745248794555664
20
2.3256718367338038
10
-30.973711013793945
20
2.4856459349393702
10
-31.226480007171631
20
2.6035010069608551
10
-31.495873928070068
20
2.6756941527128082
10
-31.773712635040283
20
2.6999937742948394
10
-32.051548957824707
20
2.6756941527128082
10
-32.320942878723145
20
2.6035010069608551
10
-32.57371187210083
20
2.4856459349393702
10
-32.802174091339111
20
2.3256718367338038
10
-32.999382019042969
20
2.1284615248441554
10
-33.123710155487061
20
1.9509016722440577
10
-33.159351348876953
20
1.8999945372342921
10
-33.277218341827393
20
1.6472326964139796
10
-33.349404335021973
20
1.3778387755155421
10
-33.373711109161377
20
1.1000000685453275
10
-33.349404335021973
20
0.82216136157511266
10
-33.277218341827393
20
0.55276744067667516
10
-33.159351348876953
20
0.2999960631131986
10
-33.123710155487061
20
0.24909369647501498
10
-32.999382019042969
20
0.071533843874917319
10
-32.802174091339111
20
-0.12567646801473112
10
-32.57371187210083
20
-0.28564102947713343
10
-32.320942878723145
20
-0.4035104066133639
10
-32.051548957824707
20
-0.475698783993735
10
-31.773712635040283
20
-0.49999840557576625
10
-31.495873928070068
20
-0.475698783993735
10
-31.226480007171631
20
-0.4035104066133639
10
-30.973711013793945
20
-0.28564102947713343
10
-30.745248794555664
20
-0.12567646801473112
10
-30.548040866851807
20
0.071533843874917319
10
-30.423712730407715
20
0.24909369647501498
10
-30.388069152832031
20
0.2999960631131986
10
-30.270204544067383
20
0.55276744067667516
0
LWPOLYLINE
5
111
100
AcDbEntity
8
0
100
AcDbPolyline
90
36
70
1
43
0.0
10
-92.813320159912109
20
-33.548189476132407
10
-92.703342437744141
20
-33.391128852963462
10
-92.622299194335938
20
-33.217340782284751
10
-92.57267951965332
20
-33.032137230038657
10
-92.555961608886719
20
-32.841125801205649
10
-92.57267951965332
20
-32.650123909115806
10
-92.622299194335938
20
-32.464901283383384
10
-92.703342437744141
20
-32.291132286191001
10
-92.813320159912109
20
-32.134062126278891
10
-92.948904037475586
20
-31.998468711972251
10
-93.105964660644531
20
-31.888490989804282
10
-93.279743194580078
20
-31.807466819882407
10
-93.464956283569336
20
-31.757837608456626
10
-93.65595817565918
20
-31.741129234433188
10
-93.846979141235352
20
-31.757837608456626
10
-94.032182693481445
20
-31.807466819882407
10
-94.205961227416992
20
-31.888490989804282
10
-94.363031387329102
20
-31.998468711972251
10
-94.498615264892578
20
-32.134062126278891
10
-94.608592987060547
20
-32.291132286191001
10
-94.689626693725586
20
-32.464901283383384
10
-94.739255905151367
20
-32.650123909115806
10
-94.755964279174805
20
-32.841125801205649
10
-94.739255905151367
20
-33.032137230038657
10
-94.689626693725586
20
-33.217340782284751
10
-94.608592987060547
20
-33.391128852963462
10
-94.498615264892578
20
-33.548189476132407
10
-94.363031387329102
20
-33.683773353695884
10
-94.205961227416992
20
-33.793751075863852
10
-94.032182693481445
20
-33.874784782528891
10
-93.846979141235352
20
-33.924423530697837
10
-93.65595817565918
20
-33.94112236797811
10
-93.464956283569336
20
-33.924423530697837
10
-93.279743194580078
20
-33.874784782528891
10
-93.105964660644531
20
-33.793751075863852
10
-92.948904037475586
20
-33.683773353695884
0
LWPOLYLINE
5
112
100
AcDbEntity
8
0
100
AcDbPolyline
90
36
70
1
43
0.0
10
-106.03219032287598
20
-33.874784782528891
10
-105.84696769714355
20
-33.924423530697837
10
-105.65596580505371
20
-33.94112236797811
10
-105.4649543762207
20
-33.924423530697837
10
-105.27975082397461
20
-33.874784782528891
10
-105.1059627532959
20
-33.793751075863852
10
-104.94889259338379
20
-33.683773353695884
10
-104.81330871582031
20
-33.548189476132407
10
-104.70334053039551
20
-33.391128852963462
10
-104.62230682373047
20
-33.217340782284751
10
-104.57266807556152
20
-33.032137230038657
10
-104.55595970153809
20
-32.841125801205649
10
-104.57266807556152
20
-32.650123909115806
10
-104.62230682373047
20
-32.464901283383384
10
-104.70334053039551
20
-32.291132286191001
10
-104.81330871582031
20
-32.134062126278891
10
-104.94889259338379
20
-31.998468711972251
10
-105.1059627532959
20
-31.888490989804282
10
-105.27975082397461
20
-31.807466819882407
10
-105.4649543762207
20
-31.757837608456626
10
-105.65596580505371
20
-31.741129234433188
10
-105.84696769714355
20
-31.757837608456626
10
-106.03219032287598
20
-31.807466819882407
10
-106.20596885681152
20
-31.888490989804282
10
-106.36302947998047
20
-31.998468711972251
10
-106.49861335754395
20
-32.134062126278891
10
-106.60858154296875
20
-32.291132286191001
10
-106.68962478637695
20
-32.464901283383384
10
-106.73925399780273
20
-32.650123909115806
10
-106.75596237182617
20
-32.841125801205649
10
-106.73925399780273
20
-33.032137230038657
10
-106.68962478637695
20
-33.217340782284751
10
-106.60858154296875
20
-33.391128852963462
10
-106.49861335754395
20
-33.548189476132407
10
-106.36302947998047
20
-33.683773353695884
10
-106.20596885681152
20
-33.793751075863852
0
LWPOLYLINE
5
113
100
AcDbEntity
8
0
100
AcDbPolyline
90
57
70
1
43
0.0
10
-60.885858535766602
20
52.204720899462686
10
-60.920877456665039
20
52.54820697009562
10
-61.014442443847656
20
52.880551740527139
10
-61.163778305053711
20
53.191852495074258
10
-61.364426612854004
20
53.472828790545449
10
-61.374826431274414
20
53.483072444796548
10
-61.610407829284668
20
53.715109750628457
10
-61.894397735595703
20
53.911477252840982
10
-62.207927703857422
20
54.056070968508706
10
-62.541651725769043
20
54.144591018557534
10
-62.885627746582031
20
54.17439334094523
10
-63.177838325500488
20
54.17439334094523
10
-68.251833915710449
20
54.17439334094523
10
-68.544044494628906
20
54.17439334094523
10
-68.888025283813477
20
54.144591018557534
10
-69.221739768981934
20
54.056070968508706
10
-69.535279273986816
20
53.911477252840982
10
-69.819269180297852
20
53.715109750628457
10
-70.054850578308105
20
53.483072444796548
10
-70.065245628356934
20
53.472828790545449
10
-70.265898704528809
20
53.191852495074258
10
-70.415229797363281
20
52.880551740527139
10
-70.50879955291748
20
52.54820697009562
10
-70.543808937072754
20
52.204720899462686
10
-70.519232749938965
20
51.860332414507852
10
-70.435786247253418
20
51.525301858782754
10
-70.295958518981934
20
51.209616586565957
10
-68.908705711364746
20
48.296137973666177
10
-68.596835136413574
20
47.641135379672036
10
-68.251833915710449
20
46.621951982378945
10
-67.557511329650879
20
44.570823833346353
10
-67.329568862915039
20
43.897448703646646
10
-67.211213111877441
20
43.500641509890542
10
-66.895012855529785
20
42.71609894931315
10
-66.651506423950195
20
42.312296554446206
10
-66.453132629394531
20
42.079206630587564
10
-66.301531791687012
20
41.948832198977456
10
-66.15720272064209
20
41.858006641268716
10
-66.013331413269043
20
41.79623000323771
10
-65.862464904785156
20
41.759148761630044
10
-65.714836120605469
20
41.747661754488931
10
-65.567207336425781
20
41.759148761630044
10
-65.416345596313477
20
41.79623000323771
10
-65.272469520568848
20
41.858006641268716
10
-65.128145217895508
20
41.948832198977456
10
-64.976539611816406
20
42.079206630587564
10
-64.778170585632324
20
42.312296554446206
10
-64.534659385681152
20
42.71609894931315
10
-64.218459129333496
20
43.500641509890542
10
-64.10010814666748
20
43.897448703646646
10
-63.872160911560059
20
44.570823833346353
10
-63.177838325500488
20
46.621951982378945
10
-62.832841873168945
20
47.641135379672036
10
-62.520966529846191
20
48.296137973666177
10
-61.133713722229004
20
51.209616586565957
10
-60.993890762329102
20
51.525301858782754
10
-60.910444259643555
20
51.860332414507852
0
LWPOLYLINE
5
114
100
AcDbEntity
8
0
100
AcDbPolyline
90
36
70
1
43
0.0
10
-64.750657081604004
20
14.093063995242105
10
-64.565773010253906
20
14.277952834963784
10
-64.415793418884277
20
14.492133781313882
10
-64.305300712585449
20
14.729107543826089
10
-64.237627983093262
20
14.981664344668374
10
-64.214835166931152
20
15.242131873965249
10
-64.237627983093262
20
15.502604171633706
10
-64.305300712585449
20
15.755165740847573
10
-64.415793418884277
20
15.992134734988198
10
-64.565773010253906
20
16.206315681338296
10
-64.750657081604004
20
16.391204521059976
10
-64.964838027954102
20
16.541169807314859
10
-65.201807022094727
20
16.651676818728433
10
-65.454363822937012
20
16.719344779849038
10
-65.714836120605469
20
16.742137596011148
10
-65.975313186645508
20
16.719344779849038
10
-66.227869987487793
20
16.651676818728433
10
-66.464838981628418
20
16.541169807314859
10
-66.679015159606934
20
16.391204521059976
10
-66.863899230957031
20
16.206315681338296
10
-67.01387882232666
20
15.992134734988198
10
-67.12437629699707
20
15.755165740847573
10
-67.192049026489258
20
15.502604171633706
10
-67.214837074279785
20
15.242131873965249
10
-67.192049026489258
20
14.981664344668374
10
-67.12437629699707
20
14.729107543826089
10
-67.01387882232666
20
14.492133781313882
10
-66.863899230957031
20
14.277952834963784
10
-66.679015159606934
20
14.093063995242105
10
-66.464838981628418
20
13.943098708987222
10
-66.227869987487793
20
13.83259646594523
10
-65.975313186645508
20
13.764923736453042
10
-65.714836120605469
20
13.742135688662515
10
-65.454363822937012
20
13.764923736453042
10
-65.201807022094727
20
13.83259646594523
10
-64.964838027954102
20
13.943098708987222
0
LWPOLYLINE
5
115
100
AcDbEntity
8
0
100
AcDbPolyline
90
79
70
1
43
0.0
10
-70.267691612243652
20
17.307614013552651
10
-69.535064697265625
20
20.359262153506265
10
-69.379043579101562
20
22.341631576418862
10
-69.288825988769531
20
23.487952873110757
10
-69.288825988769531
20
28.154085800051675
10
-69.41864013671875
20
31.091128513216958
10
-69.512782096862793
20
33.220974132418618
10
-70.101847648620605
20
37.501736804842935
10
-70.46539306640625
20
38.991125747561441
10
-71.14903450012207
20
41.7919337004423
10
-72.157793045043945
20
44.570823833346353
10
-72.37612247467041
20
45.172287151217446
10
-72.613062858581543
20
45.620894357562051
10
-72.922210693359375
20
46.023156568407998
10
-73.294711112976074
20
46.367578431963906
10
-73.719925880432129
20
46.644303724169717
10
-74.185686111450195
20
46.845424100756631
10
-74.678683280944824
20
46.96518056094645
10
-75.184807777404785
20
47.000157758593545
10
-75.689582824707031
20
46.949349567294107
10
-76.035904884338379
20
46.853642389178262
10
-76.1785888671875
20
46.814210340380654
10
-76.637816429138184
20
46.598601266741738
10
-80.150041580200195
20
44.570823833346353
10
-81.823835372924805
20
43.604458495974526
10
-89.023332595825195
20
39.447828456759439
10
-89.272031784057617
20
39.304236099123941
10
-89.688787460327148
20
39.013997241854653
10
-89.711990356445312
20
38.991125747561441
10
-90.050582885742188
20
38.657623454928384
10
-90.347108840942383
20
38.245328590273843
10
-90.569829940795898
20
37.788923904299722
10
-90.712385177612305
20
37.301489040255532
10
-90.770664215087891
20
36.796997711062417
10
-90.743017196655273
20
36.289900466799722
10
-90.656986236572266
20
34.905835315585122
10
-90.784587860107422
20
33.524976894259439
10
-91.122808456420898
20
32.1801172941923
10
-91.584033966064453
20
31.091128513216958
10
-91.663627624511719
20
30.903185531496987
10
-92.394189834594727
20
29.724489375948892
10
-93.297157287597656
20
28.672014400362954
10
-94.351081848144531
20
27.770754024386392
10
-95.53095817565918
20
27.042101547121987
10
-95.705966949462891
20
26.933768913149819
10
-95.929460525512695
20
26.795412227511392
10
-96.284666061401367
20
26.489673778414712
10
-96.587924957275391
20
26.132341548800454
10
-96.831827163696289
20
25.732139274477944
10
-97.010421752929688
20
25.298832580447183
10
-97.119359970092773
20
24.842995330691323
10
-97.155961990356445
20
24.375761672854409
10
-97.155961990356445
20
22.341631576418862
10
-97.155961990356445
20
10.868810340762124
10
-97.155961990356445
20
5.101264640688882
10
-97.126693725585938
20
4.7603260725736476
10
-97.039718627929688
20
4.4293677061796046
10
-96.897611618041992
20
4.1180741041898585
10
-96.704511642456055
20
3.8355719298124176
10
-96.466093063354492
20
3.5901152342557769
10
-96.189308166503906
20
3.3888947218656402
10
-95.882272720336914
20
3.2378088682889801
10
-95.705966949462891
20
3.1859623640775543
10
-95.553979873657227
20
3.1412684172391754
10
-95.214033126831055
20
3.1021057814359527
10
-95.068855285644531
20
3.1000029295682769
10
-89.67677116394043
20
3.1000029295682769
10
-89.023332595825195
20
3.1514250487089019
10
-86.548089981079102
20
3.3462321013212066
10
-83.496437072753906
20
4.0788685530423976
10
-81.823835372924805
20
4.771679565310464
10
-80.59697151184082
20
5.2798687666654445
10
-77.921075820922852
20
6.919659301638589
10
-76.035904884338379
20
8.5297476500272609
10
-75.53464412689209
20
8.9578663557767726
10
-75.146689414978027
20
9.345811530947671
10
-73.845934867858887
20
10.868810340762124
10
-73.108491897583008
20
11.732243224978433
10
-71.468696594238281
20
14.408138915896401
0
LWPOLYLINE
5
116
100
AcDbEntity
8
0
100
AcDbPolyline
90
36
70
1
43
0.0
10
-92.622299194335938
20
34.664903804659829
10
-92.57267951965332
20
34.850112125277505
10
-92.555961608886719
20
35.041123554110513
10
-92.57267951965332
20
35.232137367129312
10
-92.622299194335938
20
35.417348071932778
10
-92.703342437744141
20
35.591124221682534
10
-92.813320159912109
20
35.748191997408853
10
-92.948904037475586
20
35.883773490786538
10
-93.105964660644531
20
35.993753597140298
10
-93.279743194580078
20
36.074787303805337
10
-93.464956283569336
20
36.124416515231118
10
-93.65595817565918
20
36.141127273440347
10
-93.846979141235352
20
36.124416515231118
10
-94.032182693481445
20
36.074787303805337
10
-94.205961227416992
20
35.993753597140298
10
-94.363031387329102
20
35.883773490786538
10
-94.498615264892578
20
35.748191997408853
10
-94.608592987060547
20
35.591124221682534
10
-94.689626693725586
20
35.417348071932778
10
-94.739255905151367
20
35.232137367129312
10
-94.755964279174805
20
35.041123554110513
10
-94.739255905151367
20
34.850112125277505
10
-94.689626693725586
20
34.664903804659829
10
-94.608592987060547
20
34.491125270724282
10
-94.498615264892578
20
34.334059879183755
10
-94.363031387329102
20
34.198478385806069
10
-94.205961227416992
20
34.088495895266519
10
-94.032182693481445
20
34.00746218860148
10
-93.846979141235352
20
33.957835361361489
10
-93.65595817565918
20
33.94112221896647
10
-93.464956283569336
20
33.957835361361489
10
-93.279743194580078
20
34.00746218860148
10
-93.105964660644531
20
34.088495895266519
10
-92.948904037475586
20
34.198478385806069
10
-92.813320159912109
20
34.334059879183755
10
-92.703342437744141
20
34.491125270724282
0
LWPOLYLINE
5
117
100
AcDbEntity
8
0
100
AcDbPolyline
90
36
70
1
43
0.0
10
-98.622303009033203
20
29.417346641421304
10
-98.703336715698242
20
29.591125175356851
10
-98.813314437866211
20
29.748190566897378
10
-98.948898315429688
20
29.883776828646646
10
-99.105968475341797
20
29.993754550814614
10
-99.27973747253418
20
30.074785873293862
10
-99.464950561523438
20
30.124415084719644
10
-99.655952453613281
20
30.141128227114663
10
-99.846982955932617
20
30.124415084719644
10
-100.03218650817871
20
30.074785873293862
10
-100.20595550537109
20
29.993754550814614
10
-100.36303520202637
20
29.883776828646646
10
-100.49860954284668
20
29.748190566897378
10
-100.60858726501465
20
29.591125175356851
10
-100.68962097167969
20
29.417346641421304
10
-100.73925971984863
20
29.232138320803628
10
-100.75595855712891
20
29.041124507784829
10
-100.73925971984863
20
28.850113078951821
10
-100.68962097167969
20
28.664904758334146
10
-100.60858726501465
20
28.491126224398599
10
-100.49860954284668
20
28.334060832858071
10
-100.36303520202637
20
28.198476955294595
10
-100.20595550537109
20
28.088499233126626
10
-100.03218650817871
20
28.007465526461587
10
-99.846982955932617
20
27.957838699221597
10
-99.655952453613281
20
27.941127941012368
10
-99.464950561523438
20
27.957838699221597
10
-99.27973747253418
20
28.007465526461587
10
-99.105968475341797
20
28.088499233126626
10
-98.948898315429688
20
28.198476955294595
10
-98.813314437866211
20
28.334060832858071
10
-98.703336715698242
20
28.491126224398599
10
-98.622303009033203
20
28.664904758334146
10
-98.572673797607422
20
28.850113078951821
10
-98.555965423583984
20
29.041124507784829
10
-98.572673797607422
20
29.232138320803628
0
LWPOLYLINE
5
118
100
AcDbEntity
8
0
100
AcDbPolyline
90
42
70
1
43
0.0
10
-99.135017395019531
20
32.086702510714517
10
-98.629903793334961
20
32.222047969698892
10
-98.155965805053711
20
32.443050071597085
10
-97.727603912353516
20
32.742992565035806
10
-97.605962753295898
20
32.864631339907632
10
-97.357826232910156
20
33.112765476107583
10
-97.057886123657227
20
33.541122600436196
10
-96.836881637573242
20
34.015067741274819
10
-96.701536178588867
20
34.520183727145181
10
-96.655969619750977
20
35.041123554110513
10
-96.701536178588867
20
35.562068149447427
10
-96.836881637573242
20
36.067184135317788
10
-97.057886123657227
20
36.541124507784829
10
-97.357826232910156
20
36.969486400485025
10
-97.605962753295898
20
37.217620536684976
10
-97.727603912353516
20
37.339259311556802
10
-98.155965805053711
20
37.639199420809732
10
-98.629903793334961
20
37.860203906893716
10
-99.135017395019531
20
37.9955469816923
10
-99.655952453613281
20
38.041125461459146
10
-100.17690658569336
20
37.9955469816923
10
-100.68202018737793
20
37.860203906893716
10
-101.0059642791748
20
37.709146663546548
10
-101.15596771240234
20
37.639199420809732
10
-101.58432006835938
20
37.339259311556802
10
-101.95409774780273
20
36.969486400485025
10
-101.95596694946289
20
36.96682326495646
10
-102.25403785705566
20
36.541124507784829
10
-102.47504234313965
20
36.067184135317788
10
-102.61038780212402
20
35.562068149447427
10
-102.65596389770508
20
35.041123554110513
10
-102.61038780212402
20
34.520183727145181
10
-102.47504234313965
20
34.015067741274819
10
-102.25403785705566
20
33.541122600436196
10
-101.95596694946289
20
33.115428611636148
10
-101.95409774780273
20
33.112765476107583
10
-101.58432006835938
20
32.742992565035806
10
-101.15596771240234
20
32.443050071597085
10
-101.0059642791748
20
32.373102828860269
10
-100.68202018737793
20
32.222047969698892
10
-100.17690658569336
20
32.086702510714517
10
-99.655952453613281
20
32.041126415133462
0
LWPOLYLINE
5
119
100
AcDbEntity
8
0
100
AcDbPolyline
90
36
70
1
43
0.0
10
-98.813314437866211
20
41.748191043734536
10
-98.948898315429688
20
41.883772537112222
10
-99.105968475341797
20
41.993752643465982
10
-99.27973747253418
20
42.074788734316812
10
-99.464950561523438
20
42.12441079318522
10
-99.655952453613281
20
42.141123935580239
10
-99.846982955932617
20
42.12441079318522
10
-100.03218650817871
20
42.074788734316812
10
-100.20595550537109
20
41.993752643465982
10
-100.36303520202637
20
41.883772537112222
10
-100.49860954284668
20
41.748191043734536
10
-100.60858726501465
20
41.591125652194009
10
-100.68962097167969
20
41.417347118258462
10
-100.73925971984863
20
41.232138797640786
10
-100.75595855712891
20
41.041122600436196
10
-100.73925971984863
20
40.85011355578898
10
-100.68962097167969
20
40.664902850985513
10
-100.60858726501465
20
40.491126701235757
10
-100.49860954284668
20
40.334058925509439
10
-100.36303520202637
20
40.198475047945962
10
-100.20595550537109
20
40.088497325777993
10
-100.03218650817871
20
40.007463619112954
10
-99.846982955932617
20
39.957834407687173
10
-99.655952453613281
20
39.941126033663735
10
-99.464950561523438
20
39.957834407687173
10
-99.27973747253418
20
40.007463619112954
10
-99.105968475341797
20
40.088497325777993
10
-98.948898315429688
20
40.198475047945962
10
-98.813314437866211
20
40.334058925509439
10
-98.703336715698242
20
40.491126701235757
10
-98.622303009033203
20
40.664902850985513
10
-98.572673797607422
20
40.85011355578898
10
-98.555965423583984
20
41.041122600436196
10
-98.572673797607422
20
41.232138797640786
10
-98.622303009033203
20
41.417347118258462
10
-98.703336715698242
20
41.591125652194009
0
LWPOLYLINE
5
120
100
AcDbEntity
8
0
100
AcDbPolyline
90
36
70
1
43
0.0
10
-105.84696769714355
20
33.957835361361489
10
-105.65596580505371
20
33.94112221896647
10
-105.4649543762207
20
33.957835361361489
10
-105.27975082397461
20
34.00746218860148
10
-105.1059627532959
20
34.088495895266519
10
-104.94889259338379
20
34.198478385806069
10
-104.81330871582031
20
34.334059879183755
10
-104.70334053039551
20
34.491125270724282
10
-104.62230682373047
20
34.664903804659829
10
-104.57266807556152
20
34.850112125277505
10
-104.55595970153809
20
35.041123554110513
10
-104.57266807556152
20
35.232137367129312
10
-104.62230682373047
20
35.417348071932778
10
-104.70334053039551
20
35.591124221682534
10
-104.81330871582031
20
35.748191997408853
10
-104.94889259338379
20
35.883773490786538
10
-105.1059627532959
20
35.993753597140298
10
-105.27975082397461
20
36.074787303805337
10
-105.4649543762207
20
36.124416515231118
10
-105.65596580505371
20
36.141127273440347
10
-105.84696769714355
20
36.124416515231118
10
-106.03219032287598
20
36.074787303805337
10
-106.20596885681152
20
35.993753597140298
10
-106.36302947998047
20
35.883773490786538
10
-106.49861335754395
20
35.748191997408853
10
-106.60858154296875
20
35.591124221682534
10
-106.68962478637695
20
35.417348071932778
10
-106.73925399780273
20
35.232137367129312
10
-106.75596237182617
20
35.041123554110513
10
-106.73925399780273
20
34.850112125277505
10
-106.68962478637695
20
34.664903804659829
10
-106.60858154296875
20
34.491125270724282
10
-106.49861335754395
20
34.334059879183755
10
-106.36302947998047
20
34.198478385806069
10
-106.20596885681152
20
34.088495895266519
10
-106.03219032287598
20
34.00746218860148
0
LWPOLYLINE
5
121
100
AcDbEntity
8
0
100
AcDbPolyline
90
36
70
1
43
0.0
10
-127.35183715820312
20
52.767443582415567
10
-127.62967109680176
20
52.791755124926553
10
-127.90751457214355
20
52.767443582415567
10
-128.17689895629883
20
52.695263549685464
10
-128.42968940734863
20
52.577395364642129
10
-128.65813255310059
20
52.417423650622354
10
-128.8553524017334
20
52.220214530825601
10
-129.01530265808105
20
51.991753503680215
10
-129.13317680358887
20
51.738984510302529
10
-129.20536994934082
20
51.469590589404092
10
-129.22966003417969
20
51.191754266619668
10
-129.20536994934082
20
50.913915559649453
10
-129.13317680358887
20
50.64452044665812
10
-129.01530265808105
20
50.391751453280435
10
-128.8553524017334
20
50.163295194506631
10
-128.65813255310059
20
49.966082498431192
10
-128.42968940734863
20
49.806113168597207
10
-128.17689895629883
20
49.688246175646768
10
-127.90751457214355
20
49.616060182452188
10
-127.62967109680176
20
49.591753408312783
10
-127.35183715820312
20
49.616060182452188
10
-127.08243370056152
20
49.688246175646768
10
-126.82967185974121
20
49.806113168597207
10
-126.60121917724609
20
49.966082498431192
10
-126.40399932861328
20
50.163295194506631
10
-126.24403953552246
20
50.391751453280435
10
-126.12616539001465
20
50.64452044665812
10
-126.0539722442627
20
50.913915559649453
10
-126.02967262268066
20
51.191754266619668
10
-126.0539722442627
20
51.469590589404092
10
-126.12616539001465
20
51.738984510302529
10
-126.24403953552246
20
51.991753503680215
10
-126.40399932861328
20
52.220214530825601
10
-126.60121917724609
20
52.417423650622354
10
-126.82967185974121
20
52.577395364642129
10
-127.08243370056152
20
52.695263549685464
0
LWPOLYLINE
5
122
100
AcDbEntity
8
0
100
AcDbPolyline
90
38
70
1
43
0.0
10
-98.855962753295898
20
-0.28564102947713343
10
-98.627500534057617
20
-0.12567646801473112
10
-98.430290222167969
20
0.071533843874917319
10
-98.270320892333984
20
0.2999960631131986
10
-98.152456283569336
20
0.55276744067667516
10
-98.080272674560547
20
0.82216136157511266
10
-98.055963516235352
20
1.1000000685453275
10
-98.080272674560547
20
1.3778387755155421
10
-98.152456283569336
20
1.6472326964139796
10
-98.270320892333984
20
1.8999945372342921
10
-98.430290222167969
20
2.1284615248441554
10
-98.627500534057617
20
2.3256718367338038
10
-98.855962753295898
20
2.4856459349393702
10
-99.108724594116211
20
2.6035010069608551
10
-99.378118515014648
20
2.6756941527128082
10
-99.655952453613281
20
2.6999937742948394
10
-99.933805465698242
20
2.6756941527128082
10
-100.20319938659668
20
2.6035010069608551
10
-100.45596122741699
20
2.4856459349393702
10
-100.68442344665527
20
2.3256718367338038
10
-100.88164329528809
20
2.1284615248441554
10
-101.0059642791748
20
1.9509016722440577
10
-101.04160308837891
20
1.8999945372342921
10
-101.15946769714355
20
1.6472326964139796
10
-101.23165130615234
20
1.3778387755155421
10
-101.25596046447754
20
1.1000000685453275
10
-101.23165130615234
20
0.82216136157511266
10
-101.15946769714355
20
0.55276744067667516
10
-101.04160308837891
20
0.2999960631131986
10
-101.0059642791748
20
0.24909369647501498
10
-100.88164329528809
20
0.071533843874917319
10
-100.68442344665527
20
-0.12567646801473112
10
-100.45596122741699
20
-0.28564102947713343
10
-100.20319938659668
20
-0.4035104066133639
10
-99.933805465698242
20
-0.475698783993735
10
-99.655952453613281
20
-0.49999840557576625
10
-99.378118515014648
20
-0.475698783993735
10
-99.108724594116211
20
-0.4035104066133639
0
LWPOLYLINE
5
123
100
AcDbEntity
8
0
100
AcDbPolyline
90
36
70
1
43
0.0
10
-99.105968475341797
20
-27.793756797909751
10
-98.948898315429688
20
-27.683779075741782
10
-98.813314437866211
20
-27.548195198178306
10
-98.703336715698242
20
-27.391125038266196
10
-98.622303009033203
20
-27.217356041073813
10
-98.572673797607422
20
-27.032142952084556
10
-98.555965423583984
20
-26.841121986508384
10
-98.572673797607422
20
-26.650110557675376
10
-98.622303009033203
20
-26.464907005429282
10
-98.703336715698242
20
-26.291128471493735
10
-98.813314437866211
20
-26.134058311581626
10
-98.948898315429688
20
-25.998483970761313
10
-99.105968475341797
20
-25.888506248593345
10
-99.27973747253418
20
-25.807472541928306
10
-99.464950561523438
20
-25.757843330502524
10
-99.655952453613281
20
-25.741125419735923
10
-99.846982955932617
20
-25.757843330502524
10
-100.03218650817871
20
-25.807472541928306
10
-100.20595550537109
20
-25.888506248593345
10
-100.36303520202637
20
-25.998483970761313
10
-100.49860954284668
20
-26.134058311581626
10
-100.60858726501465
20
-26.291128471493735
10
-100.68962097167969
20
-26.464907005429282
10
-100.73925971984863
20
-26.650110557675376
10
-100.75595855712891
20
-26.841121986508384
10
-100.73925971984863
20
-27.032142952084556
10
-100.68962097167969
20
-27.217356041073813
10
-100.60858726501465
20
-27.391125038266196
10
-100.49860954284668
20
-27.548195198178306
10
-100.36303520202637
20
-27.683779075741782
10
-100.20595550537109
20
-27.793756797909751
10
-100.03218650817871
20
-27.874780967831626
10
-99.846982955932617
20
-27.924410179257407
10
-99.655952453613281
20
-27.941128090024009
10
-99.464950561523438
20
-27.924410179257407
10
-99.27973747253418
20
-27.874780967831626
0
LWPOLYLINE
5
124
100
AcDbEntity
8
0
100
AcDbPolyline
90
36
70
1
43
0.0
10
-78.356971740722656
20
1.1000000685453275
10
-78.379759788513184
20
1.3604723662137843
10
-78.447432518005371
20
1.6130339354276515
10
-78.557929992675781
20
1.8499981611966945
10
-78.707900047302246
20
2.0641791075467921
10
-78.892793655395508
20
2.2490631788968898
10
-79.106974601745605
20
2.3990380018949367
10
-79.343948364257812
20
2.5095354765653473
10
-79.596495628356934
20
2.5772129744291168
10
-79.856972694396973
20
2.6000010222196441
10
-80.11744499206543
20
2.5772129744291168
10
-80.370006561279297
20
2.5095354765653473
10
-80.606975555419922
20
2.3990380018949367
10
-80.821161270141602
20
2.2490631788968898
10
-81.006040573120117
20
2.0641791075467921
10
-81.156005859375
20
1.8499981611966945
10
-81.266508102416992
20
1.6130339354276515
10
-81.33418083190918
20
1.3604723662137843
10
-81.356973648071289
20
1.1000000685453275
10
-81.33418083190918
20
0.83952777087687047
10
-81.266508102416992
20
0.58697097003458532
10
-81.156005859375
20
0.35000197589396032
10
-81.006040573120117
20
0.13582102954386263
10
-80.821161270141602
20
-0.049067810177817056
10
-80.606975555419922
20
-0.19904263317586393
10
-80.370006561279297
20
-0.30953533947469203
10
-80.11744499206543
20
-0.37720806896687953
10
-79.856972694396973
20
-0.40000565350057093
10
-79.596495628356934
20
-0.37720806896687953
10
-79.343948364257812
20
-0.30953533947469203
10
-79.106974601745605
20
-0.19904263317586393
10
-78.892793655395508
20
-0.049067810177817056
10
-78.707900047302246
20
0.13582102954386263
10
-78.557929992675781
20
0.35000197589396032
10
-78.447432518005371
20
0.58697097003458532
10
-78.379759788513184
20
0.83952777087687047
0
LWPOLYLINE
5
125
100
AcDbEntity
8
0
100
AcDbPolyline
90
38
70
1
43
0.0
10
-71.848807334899902
20
61.635550186038003
10
-71.948790550231934
20
61.778336986899362
10
-72.072052955627441
20
61.901595517992959
10
-72.214837074279785
20
62.00157485902308
10
-72.372817993164062
20
62.075242325663552
10
-72.541184425354004
20
62.120359465479837
10
-72.714838981628418
20
62.135551199316964
10
-72.88848876953125
20
62.120359465479837
10
-73.056855201721191
20
62.075242325663552
10
-73.214836120605469
20
62.00157485902308
10
-73.357629776000977
20
61.901595517992959
10
-73.48088264465332
20
61.778336986899362
10
-73.580865859985352
20
61.635550186038003
10
-73.654532432556152
20
61.477571949362741
10
-73.69964599609375
20
61.309199854731546
10
-73.714838027954102
20
61.135549172759042
10
-73.69964599609375
20
60.961902365088449
10
-73.654532432556152
20
60.79352997243403
10
-73.580865859985352
20
60.635552033781991
10
-73.48088264465332
20
60.492761358618722
10
-73.429579734802246
20
60.441456958651528
10
-73.357629776000977
20
60.369506403803811
10
-73.214836120605469
20
60.26952318847178
10
-73.056855201721191
20
60.195855423808084
10
-72.88848876953125
20
60.150742456316934
10
-72.714838981628418
20
60.135550424456582
10
-72.541184425354004
20
60.150742456316934
10
-72.372817993164062
20
60.195855423808084
10
-72.214837074279785
20
60.26952318847178
10
-72.072052955627441
20
60.369506403803811
10
-72.000093460083008
20
60.441456958651528
10
-71.948790550231934
20
60.492761358618722
10
-71.848807334899902
20
60.635552033781991
10
-71.775145530700684
20
60.79352997243403
10
-71.730027198791504
20
60.961902365088449
10
-71.714835166931152
20
61.135549172759042
10
-71.730027198791504
20
61.309199854731546
10
-71.775145530700684
20
61.477571949362741
0
LWPOLYLINE
5
126
100
AcDbEntity
8
0
100
AcDbPolyline
90
38
70
1
43
0.0
10
-65.714836120605469
20
62.235549017786965
10
-65.905847549438477
20
62.218837365508065
10
-66.091065406799316
20
62.169212922453866
10
-66.264839172363281
20
62.088176533579812
10
-66.421904563903809
20
61.97819851338862
10
-66.557478904724121
20
61.84261672198771
10
-66.667466163635254
20
61.685551032423959
10
-66.748499870300293
20
61.511773690581308
10
-66.798129081726074
20
61.326563581824288
10
-66.814842224121094
20
61.135549172759042
10
-66.798129081726074
20
60.944538637995706
10
-66.748499870300293
20
60.759328529238687
10
-66.667466163635254
20
60.585550889372811
10
-66.566576957702637
20
60.441456958651528
10
-66.557478904724121
20
60.428485497832284
10
-66.421904563903809
20
60.29289953410624
10
-66.264839172363281
20
60.182921215891824
10
-66.091065406799316
20
60.101889297366128
10
-65.905847549438477
20
60.052260681986795
10
-65.714836120605469
20
60.035549327731118
10
-65.523829460144043
20
60.052260681986795
10
-65.338606834411621
20
60.101889297366128
10
-65.164833068847656
20
60.182921215891824
10
-65.007767677307129
20
60.29289953410624
10
-64.872193336486816
20
60.428485497832284
10
-64.863100051879883
20
60.441456958651528
10
-64.762206077575684
20
60.585550889372811
10
-64.681177139282227
20
60.759328529238687
10
-64.631547927856445
20
60.944538637995706
10
-64.614830017089844
20
61.135549172759042
10
-64.631547927856445
20
61.326563581824288
10
-64.681177139282227
20
61.511773690581308
10
-64.762206077575684
20
61.685551032423959
10
-64.872193336486816
20
61.84261672198771
10
-65.007767677307129
20
61.97819851338862
10
-65.164833068847656
20
62.088176533579812
10
-65.338606834411621
20
62.169212922453866
10
-65.523829460144043
20
62.218837365508065
0
LWPOLYLINE
5
127
100
AcDbEntity
8
0
100
AcDbPolyline
90
36
70
1
43
0.0
10
-85.276336669921875
20
63.147366121411309
10
-85.394201278686523
20
62.894597724080072
10
-85.466384887695312
20
62.625203356146798
10
-85.490703582763672
20
62.347367331385598
10
-85.466384887695312
20
62.069531604647622
10
-85.394201278686523
20
61.800133213400827
10
-85.276336669921875
20
61.547365114092813
10
-85.116376876831055
20
61.318907961249337
10
-84.919157028198242
20
61.12169466912745
10
-84.690694808959961
20
60.961727127432809
10
-84.437932968139648
20
60.843858942389474
10
-84.168539047241211
20
60.771673843264566
10
-83.890695571899414
20
60.747366473078714
10
-83.612861633300781
20
60.771673843264566
10
-83.34345817565918
20
60.843858942389474
10
-83.090696334838867
20
60.961727127432809
10
-82.862234115600586
20
61.12169466912745
10
-82.665023803710938
20
61.318907961249337
10
-82.505064010620117
20
61.547365114092813
10
-82.387189865112305
20
61.800133213400827
10
-82.315006256103516
20
62.069531604647622
10
-82.29069709777832
20
62.347367331385598
10
-82.315006256103516
20
62.625203356146798
10
-82.387189865112305
20
62.894597724080072
10
-82.505064010620117
20
63.147366121411309
10
-82.665023803710938
20
63.375826999545083
10
-82.862234115600586
20
63.573036268353448
10
-83.090696334838867
20
63.733007833361611
10
-83.34345817565918
20
63.850876018404946
10
-83.612861633300781
20
63.923057243227944
10
-83.890695571899414
20
63.947368487715707
10
-84.168539047241211
20
63.923057243227944
10
-84.437932968139648
20
63.850876018404946
10
-84.690694808959961
20
63.733007833361611
10
-84.919157028198242
20
63.573036268353448
10
-85.116376876831055
20
63.375826999545083
0
LWPOLYLINE
5
128
100
AcDbEntity
8
0
100
AcDbPolyline
90
36
70
1
43
0.0
10
-64.565773010253906
20
-12.07795269787313
10
-64.750657081604004
20
-11.893073394894614
10
-64.964838027954102
20
-11.743093803524985
10
-65.201807022094727
20
-11.632596328854575
10
-65.454363822937012
20
-11.564923599362388
10
-65.714836120605469
20
-11.542140319943442
10
-65.975313186645508
20
-11.564923599362388
10
-66.227869987487793
20
-11.632596328854575
10
-66.464838981628418
20
-11.743093803524985
10
-66.679015159606934
20
-11.893073394894614
10
-66.863899230957031
20
-12.07795269787313
10
-67.01387882232666
20
-12.292133644223227
10
-67.12437629699707
20
-12.529112175107016
10
-67.192049026489258
20
-12.781659439206138
10
-67.214837074279785
20
-13.042136505246177
10
-67.192049026489258
20
-13.302608802914634
10
-67.12437629699707
20
-13.555165603756919
10
-67.01387882232666
20
-13.792144134640708
10
-66.863899230957031
20
-14.006320312619224
10
-66.679015159606934
20
-14.191199615597739
10
-66.464838981628418
20
-14.341174438595786
10
-66.227869987487793
20
-14.451671913266196
10
-65.975313186645508
20
-14.519344642758384
10
-65.714836120605469
20
-14.542132690548911
10
-65.454363822937012
20
-14.519344642758384
10
-65.201807022094727
20
-14.451671913266196
10
-64.964838027954102
20
-14.341174438595786
10
-64.750657081604004
20
-14.191199615597739
10
-64.565773010253906
20
-14.006320312619224
10
-64.415793418884277
20
-13.792144134640708
10
-64.305300712585449
20
-13.555165603756919
10
-64.237627983093262
20
-13.302608802914634
10
-64.214835166931152
20
-13.042136505246177
10
-64.237627983093262
20
-12.781659439206138
10
-64.305300712585449
20
-12.529112175107016
10
-64.415793418884277
20
-12.292133644223227
0
LWPOLYLINE
5
129
100
AcDbEntity
8
0
100
AcDbPolyline
90
52
70
1
43
0.0
10
-59.201312065124512
20
-0.075565651059164712
10
-59.037337303161621
20
0.19202105700968294
10
-58.917231559753418
20
0.48196665942667516
10
-58.84397029876709
20
0.78712813556192907
10
-58.81934642791748
20
1.1000000685453275
10
-58.84397029876709
20
1.4128720015287257
10
-58.917231559753418
20
1.7180334776639796
10
-59.037337303161621
20
2.0079790800809718
10
-59.201312065124512
20
2.2755657881498195
10
-59.405131340026855
20
2.5142180174589019
10
-59.790921211242676
20
2.8999983519315582
10
-60.300230979919434
20
3.4093176573514801
10
-63.177838325500488
20
6.2869202345609523
10
-64.300622940063477
20
7.4097000807523585
10
-64.567689895629883
20
7.6337897032499171
10
-64.869599342346191
20
7.8081022948026515
10
-65.197196006774902
20
7.9273401945829249
10
-65.540518760681152
20
7.9878794401883937
10
-65.889153480529785
20
7.9878794401883937
10
-66.232476234436035
20
7.9273401945829249
10
-66.560072898864746
20
7.8081022948026515
10
-66.861987113952637
20
7.6337897032499171
10
-67.129054069519043
20
7.4097000807523585
10
-68.251833915710449
20
6.2869202345609523
10
-71.638755798339844
20
2.8999983519315582
10
-72.0245361328125
20
2.5142180174589019
10
-72.228355407714844
20
2.2755657881498195
10
-72.392334938049316
20
2.0079790800809718
10
-72.512445449829102
20
1.7180334776639796
10
-72.585701942443848
20
1.4128720015287257
10
-72.610330581665039
20
1.1000000685453275
10
-72.585701942443848
20
0.78712813556192907
10
-72.512445449829102
20
0.48196665942667516
10
-72.392334938049316
20
0.19202105700968294
10
-72.228355407714844
20
-0.075565651059164712
10
-72.0245361328125
20
-0.31422264873982875
10
-71.638755798339844
20
-0.70000298321248489
10
-68.251833915710449
20
-4.0869248658418798
10
-67.129054069519043
20
-5.209704712033286
10
-66.861987113952637
20
-5.4337991029024266
10
-66.560072898864746
20
-5.608106926083579
10
-66.232476234436035
20
-5.7273400574922704
10
-65.889153480529785
20
-5.7878840714693212
10
-65.540518760681152
20
-5.7878840714693212
10
-65.197196006774902
20
-5.7273400574922704
10
-64.869599342346191
20
-5.608106926083579
10
-64.567689895629883
20
-5.4337991029024266
10
-64.300622940063477
20
-5.209704712033286
10
-63.177838325500488
20
-4.0869248658418798
10
-60.300230979919434
20
-1.2093175202608248
10
-59.790921211242676
20
-0.700002983212485
10
-59.405131340026855
20
-0.31422264873982875
0
LWPOLYLINE
5
130
100
AcDbEntity
8
0
100
AcDbPolyline
90
38
70
1
43
0.0
10
-57.775144577026367
20
61.477571949362741
10
-57.848811149597168
20
61.635550186038003
10
-57.948794364929199
20
61.778336986899362
10
-58.072047233581543
20
61.901595517992959
10
-58.214836120605469
20
62.00157485902308
10
-58.372817039489746
20
62.075242325663552
10
-58.54118824005127
20
62.120359465479837
10
-58.714838027954102
20
62.135551199316964
10
-58.888487815856934
20
62.120359465479837
10
-59.056854248046875
20
62.075242325663552
10
-59.214835166931152
20
62.00157485902308
10
-59.357624053955078
20
61.901595517992959
10
-59.480881690979004
20
61.778336986899362
10
-59.580864906311035
20
61.635550186038003
10
-59.654531478881836
20
61.477571949362741
10
-59.699645042419434
20
61.309199854731546
10
-59.714837074279785
20
61.135549172759042
10
-59.699645042419434
20
60.961902365088449
10
-59.654531478881836
20
60.79352997243403
10
-59.580864906311035
20
60.635552033781991
10
-59.480881690979004
20
60.492761358618722
10
-59.42957878112793
20
60.441456958651528
10
-59.357624053955078
20
60.369506403803811
10
-59.214835166931152
20
60.26952318847178
10
-59.056854248046875
20
60.195855423808084
10
-58.888487815856934
20
60.150742456316934
10
-58.714838027954102
20
60.135550424456582
10
-58.54118824005127
20
60.150742456316934
10
-58.372817039489746
20
60.195855423808084
10
-58.214836120605469
20
60.26952318847178
10
-58.072047233581543
20
60.369506403803811
10
-58.000097274780273
20
60.441456958651528
10
-57.948794364929199
20
60.492761358618722
10
-57.848811149597168
20
60.635552033781991
10
-57.775144577026367
20
60.79352997243403
10
-57.730026245117188
20
60.961902365088449
10
-57.714838981628418
20
61.135549172759042
10
-57.730026245117188
20
61.309199854731546
0
LWPOLYLINE
5
131
100
AcDbEntity
8
0
100
AcDbPolyline
90
36
70
1
43
0.0
10
-50.822701454162598
20
-0.19904263317586393
10
-50.6085205078125
20
-0.049067810177817056
10
-50.423636436462402
20
0.13582102954386263
10
-50.273661613464355
20
0.35000197589396032
10
-50.163164138793945
20
0.58697097003458532
10
-50.095491409301758
20
0.83952777087687047
10
-50.07270336151123
20
1.1000000685453275
10
-50.095491409301758
20
1.3604723662137843
10
-50.163164138793945
20
1.6130339354276515
10
-50.273661613464355
20
1.8499981611966945
10
-50.423636436462402
20
2.0641791075467921
10
-50.6085205078125
20
2.2490631788968898
10
-50.822701454162598
20
2.3990380018949367
10
-51.059670448303223
20
2.5095354765653473
10
-51.31223201751709
20
2.5772129744291168
10
-51.572704315185547
20
2.6000010222196441
10
-51.833171844482422
20
2.5772129744291168
10
-52.085733413696289
20
2.5095354765653473
10
-52.322702407836914
20
2.3990380018949367
10
-52.536883354187012
20
2.2490631788968898
10
-52.721767425537109
20
2.0641791075467921
10
-52.871737480163574
20
1.8499981611966945
10
-52.982244491577148
20
1.6130339354276515
10
-53.049912452697754
20
1.3604723662137843
10
-53.072695732116699
20
1.1000000685453275
10
-53.049912452697754
20
0.83952777087687047
10
-52.982244491577148
20
0.58697097003458532
10
-52.871737480163574
20
0.35000197589396032
10
-52.721767425537109
20
0.13582102954386263
10
-52.536883354187012
20
-0.049067810177817056
10
-52.322702407836914
20
-0.19904263317586393
10
-52.085733413696289
20
-0.30953533947469203
10
-51.833171844482422
20
-0.37720806896687953
10
-51.572704315185547
20
-0.40000565350057093
10
-51.31223201751709
20
-0.37720806896687953
10
-51.059670448303223
20
-0.30953533947469203
0
LWPOLYLINE
5
132
100
AcDbEntity
8
0
100
AcDbPolyline
90
36
70
1
43
0.0
10
-99.655952453613281
20
-37.741133049130454
10
-99.846982955932617
20
-37.757831886410727
10
-100.03218650817871
20
-37.807470634579673
10
-100.20595550537109
20
-37.888504341244712
10
-100.36303520202637
20
-37.998472526669516
10
-100.49860954284668
20
-38.134065940976157
10
-100.60858726501465
20
-38.291126564145102
10
-100.68962097167969
20
-38.464914634823813
10
-100.73925971984863
20
-38.650118187069907
10
-100.75595855712891
20
-38.841120079159751
10
-100.73925971984863
20
-39.032131507992759
10
-100.68962097167969
20
-39.217354133725181
10
-100.60858726501465
20
-39.391123130917563
10
-100.49860954284668
20
-39.548193290829673
10
-100.36303520202637
20
-39.683786705136313
10
-100.20595550537109
20
-39.793754890561118
10
-100.03218650817871
20
-39.874788597226157
10
-99.846982955932617
20
-39.924417808651938
10
-99.655952453613281
20
-39.941126182675376
10
-99.464950561523438
20
-39.924417808651938
10
-99.27973747253418
20
-39.874788597226157
10
-99.105968475341797
20
-39.793754890561118
10
-98.948898315429688
20
-39.683786705136313
10
-98.813314437866211
20
-39.548193290829673
10
-98.703336715698242
20
-39.391123130917563
10
-98.622303009033203
20
-39.217354133725181
10
-98.572673797607422
20
-39.032131507992759
10
-98.555965423583984
20
-38.841120079159751
10
-98.572673797607422
20
-38.650118187069907
10
-98.622303009033203
20
-38.464914634823813
10
-98.703336715698242
20
-38.291126564145102
10
-98.813314437866211
20
-38.134065940976157
10
-98.948898315429688
20
-37.998472526669516
10
-99.105968475341797
20
-37.888504341244712
10
-99.27973747253418
20
-37.807470634579673
10
-99.464950561523438
20
-37.757831886410727
0
LWPOLYLINE
5
133
100
AcDbEntity
8
0
100
AcDbPolyline
90
44
70
1
43
0.0
10
-100.68202018737793
20
-35.660206153988852
10
-100.17690658569336
20
-35.795542076230063
10
-99.655952453613281
20
-35.841127708554282
10
-99.135017395019531
20
-35.795542076230063
10
-98.629903793334961
20
-35.660206153988852
10
-98.155965805053711
20
-35.439201667904868
10
-97.727603912353516
20
-35.139261558651938
10
-97.605962753295898
20
-35.017620399594321
10
-97.479467391967773
20
-34.891125038266196
10
-97.357826232910156
20
-34.769493415951743
10
-97.057886123657227
20
-34.341131523251548
10
-96.836881637573242
20
-33.867183998227134
10
-96.701536178588867
20
-33.362070396542563
10
-96.655969619750977
20
-32.841125801205649
10
-96.701536178588867
20
-32.320181205868735
10
-96.836881637573242
20
-31.815067604184165
10
-97.057886123657227
20
-31.341120079159751
10
-97.357826232910156
20
-30.91276772320272
10
-97.605962753295898
20
-30.664621666073813
10
-97.727603912353516
20
-30.54299004375936
10
-98.155965805053711
20
-30.243059471249595
10
-98.629903793334961
20
-30.022045448422446
10
-99.135017395019531
20
-29.886709526181235
10
-99.655952453613281
20
-29.841133430600181
10
-100.17690658569336
20
-29.886709526181235
10
-100.68202018737793
20
-30.022045448422446
10
-101.0059642791748
20
-30.173107460141196
10
-101.15596771240234
20
-30.243059471249595
10
-101.58432006835938
20
-30.54299004375936
10
-101.95409774780273
20
-30.91276772320272
10
-101.95596694946289
20
-30.915428474545493
10
-102.25403785705566
20
-31.341120079159751
10
-102.47504234313965
20
-31.815067604184165
10
-102.61038780212402
20
-32.320181205868735
10
-102.65596389770508
20
-32.841125801205649
10
-102.61038780212402
20
-33.362070396542563
10
-102.47504234313965
20
-33.867183998227134
10
-102.25403785705566
20
-34.341131523251548
10
-101.95596694946289
20
-34.76683266460897
10
-101.95409774780273
20
-34.769493415951743
10
-101.83245658874512
20
-34.891125038266196
10
-101.58432006835938
20
-35.139261558651938
10
-101.15596771240234
20
-35.439201667904868
10
-101.0059642791748
20
-35.509144142270102
0
LWPOLYLINE
5
134
100
AcDbEntity
8
0
100
AcDbPolyline
90
77
70
1
43
0.0
10
-80.150041580200195
20
-42.370830848813071
10
-76.637816429138184
20
-44.398599937558188
10
-76.1785888671875
20
-44.614216163754477
10
-76.035904884338379
20
-44.653650596737876
10
-75.689582824707031
20
-44.749361351132407
10
-75.184807777404785
20
-44.800163581967368
10
-74.678683280944824
20
-44.765182808041587
10
-74.185686111450195
20
-44.645429924130454
10
-73.719925880432129
20
-44.444300010800376
10
-73.294711112976074
20
-44.167581871151938
10
-72.922210693359375
20
-43.823152855038657
10
-72.613062858581543
20
-43.420902565121665
10
-72.37612247467041
20
-42.972284629941001
10
-72.157793045043945
20
-42.370830848813071
10
-71.14903450012207
20
-39.591928794980063
10
-70.101847648620605
20
-35.301729515194907
10
-70.045342445373535
20
-34.891125038266196
10
-69.512782096862793
20
-31.020971611142173
10
-69.41864013671875
20
-28.891130760312095
10
-69.288825988769531
20
-25.954080894589438
10
-69.288825988769531
20
-21.287952736020102
10
-69.379043579101562
20
-20.14163620769979
10
-69.535064697265625
20
-18.15926201641561
10
-70.267691612243652
20
-15.107618644833579
10
-71.468696594238281
20
-12.208134010434165
10
-73.108491897583008
20
-9.5322478562593602
10
-75.146689414978027
20
-7.1458161622285985
10
-75.53464412689209
20
-6.7578709870577001
10
-76.035904884338379
20
-6.3297475129366063
10
-77.921075820922852
20
-4.7196639329195165
10
-80.59697151184082
20
-3.0798781663179535
10
-81.823835372924805
20
-2.571684196591391
10
-83.496437072753906
20
-1.8788731843233251
10
-86.548089981079102
20
-1.1462319642305514
10
-89.023332595825195
20
-0.95142967998982875
10
-89.67677116394043
20
-0.89999802410603968
10
-95.068855285644531
20
-0.89999802410603968
10
-95.214033126831055
20
-0.9021056443452975
10
-95.553979873657227
20
-0.94127304852010218
10
-95.705966949462891
20
-0.98595745861531703
10
-95.882272720336914
20
-1.0378087311983248
10
-96.189308166503906
20
-1.188899353146567
10
-96.466093063354492
20
-1.390119865536704
10
-96.704511642456055
20
-1.6355717927217626
10
-96.897611618041992
20
-1.918078735470786
10
-97.039718627929688
20
-2.2293675690889501
10
-97.126693725585938
20
-2.5603307038545746
10
-97.155961990356445
20
-2.9012645035982265
10
-97.155961990356445
20
-20.14163620769979
10
-97.155961990356445
20
-22.175766304135337
10
-97.119359970092773
20
-22.642999961972251
10
-97.010421752929688
20
-23.098827674984946
10
-96.831827163696289
20
-23.53213913738729
10
-96.587924957275391
20
-23.932339027524009
10
-96.284666061401367
20
-24.289671257138266
10
-95.929460525512695
20
-24.595409706234946
10
-95.705966949462891
20
-24.733768776059165
10
-95.53095817565918
20
-24.842096641659751
10
-94.351081848144531
20
-25.570751503109946
10
-93.297157287597656
20
-26.472021415829673
10
-92.394189834594727
20
-27.524486854672446
10
-91.663627624511719
20
-28.703190162777915
10
-91.584033966064453
20
-28.891130760312095
10
-91.122808456420898
20
-29.980121925473227
10
-90.784587860107422
20
-31.324983909726157
10
-90.656986236572266
20
-32.705828025937095
10
-90.743017196655273
20
-34.089895561337485
10
-90.770664215087891
20
-34.597002342343345
10
-90.736684799194336
20
-34.891125038266196
10
-90.712385177612305
20
-35.101496055722251
10
-90.569829940795898
20
-35.588928535580649
10
-90.347108840942383
20
-36.045328453183188
10
-90.050582885742188
20
-36.457620933651938
10
-89.688787460327148
20
-36.813989952206626
10
-89.272031784057617
20
-37.104240730404868
10
-89.023332595825195
20
-37.247825935482993
10
-81.823835372924805
20
-41.404463127255454
0
LWPOLYLINE
5
135
100
AcDbEntity
8
0
100
AcDbPolyline
90
55
70
1
43
0.0
10
-69.221739768981934
20
-51.856075599789634
10
-68.888025283813477
20
-51.944586113095298
10
-68.544044494628906
20
-51.974397972226157
10
-68.251833915710449
20
-51.974397972226157
10
-63.177838325500488
20
-51.974397972226157
10
-62.885627746582031
20
-51.974397972226157
10
-62.541651725769043
20
-51.944586113095298
10
-62.207927703857422
20
-51.856075599789634
10
-61.894397735595703
20
-51.711479499936118
10
-61.610407829284668
20
-51.515108421444907
10
-61.364426612854004
20
-51.272836998105063
10
-61.163778305053711
20
-50.991846397519126
10
-61.014442443847656
20
-50.680557563900962
10
-60.920877456665039
20
-50.348211601376548
10
-60.885858535766602
20
-50.004726722836509
10
-60.910444259643555
20
-49.66032631695272
10
-60.993890762329102
20
-49.325310066342368
10
-61.133713722229004
20
-49.009615257382407
10
-62.520966529846191
20
-46.096140220761313
10
-62.832841873168945
20
-45.441137626767173
10
-63.177838325500488
20
-44.421955421566977
10
-63.872160911560059
20
-42.370830848813071
10
-64.10010814666748
20
-41.697450950741782
10
-64.218459129333496
20
-41.30064614117147
10
-64.534659385681152
20
-40.516096428036704
10
-64.778170585632324
20
-40.112301185727134
10
-64.976539611816406
20
-39.879213646054282
10
-65.128145217895508
20
-39.748836830258384
10
-65.272469520568848
20
-39.658008888363852
10
-65.416345596313477
20
-39.59623940289022
10
-65.567207336425781
20
-39.559151008725181
10
-65.714836120605469
20
-39.547668769955649
10
-65.862464904785156
20
-39.559151008725181
10
-66.013331413269043
20
-39.59623940289022
10
-66.15720272064209
20
-39.658008888363852
10
-66.301531791687012
20
-39.748836830258384
10
-66.453132629394531
20
-39.879213646054282
10
-66.651506423950195
20
-40.112301185727134
10
-66.895012855529785
20
-40.516096428036704
10
-67.211213111877441
20
-41.30064614117147
10
-67.329568862915039
20
-41.697450950741782
10
-67.557511329650879
20
-42.370830848813071
10
-68.251833915710449
20
-44.421955421566977
10
-68.596835136413574
20
-45.441137626767173
10
-68.908705711364746
20
-46.096140220761313
10
-70.295958518981934
20
-49.009615257382407
10
-70.435786247253418
20
-49.325310066342368
10
-70.519232749938965
20
-49.66032631695272
10
-70.543808937072754
20
-50.004726722836509
10
-70.50879955291748
20
-50.348211601376548
10
-70.415229797363281
20
-50.680557563900962
10
-70.265898704528809
20
-50.991846397519126
10
-70.065245628356934
20
-51.272836998105063
10
-69.819269180297852
20
-51.515108421444907
10
-69.535279273986816
20
-51.711479499936118
0
LWPOLYLINE
5
136
100
AcDbEntity
8
0
100
AcDbPolyline
90
36
70
1
43
0.0
10
-31.582698822021484
20
30.124415084719644
10
-31.773712635040283
20
30.141128227114663
10
-31.964724063873291
20
30.124415084719644
10
-32.149932384490967
20
30.074785873293862
10
-32.323710918426514
20
29.993754550814614
10
-32.480778694152832
20
29.883776828646646
10
-32.616360187530518
20
29.748190566897378
10
-32.726342678070068
20
29.591125175356851
10
-32.807374000549316
20
29.417346641421304
10
-32.857003211975098
20
29.232138320803628
10
-32.873711585998535
20
29.041124507784829
10
-32.857003211975098
20
28.850113078951821
10
-32.807374000549316
20
28.664904758334146
10
-32.726342678070068
20
28.491126224398599
10
-32.616360187530518
20
28.334060832858071
10
-32.480778694152832
20
28.198476955294595
10
-32.323710918426514
20
28.088499233126626
10
-32.149932384490967
20
28.007465526461587
10
-31.964724063873291
20
27.957838699221597
10
-31.773712635040283
20
27.941127941012368
10
-31.582698822021484
20
27.957838699221597
10
-31.397488117218018
20
28.007465526461587
10
-31.223711967468262
20
28.088499233126626
10
-31.066644191741943
20
28.198476955294595
10
-30.931062698364258
20
28.334060832858071
10
-30.821082592010498
20
28.491126224398599
10
-30.740048885345459
20
28.664904758334146
10
-30.690419673919678
20
28.850113078951821
10
-30.673708915710449
20
29.041124507784829
10
-30.690419673919678
20
29.232138320803628
10
-30.740048885345459
20
29.417346641421304
10
-30.821082592010498
20
29.591125175356851
10
-30.931062698364258
20
29.748190566897378
10
-31.066644191741943
20
29.883776828646646
10
-31.223711967468262
20
29.993754550814614
10
-31.397488117218018
20
30.074785873293862
0
LWPOLYLINE
5
137
100
AcDbEntity
8
0
100
AcDbPolyline
90
36
70
1
43
0.0
10
-38.480777740478516
20
34.198478385806069
10
-38.323707580566406
20
34.088495895266519
10
-38.149929046630859
20
34.00746218860148
10
-37.964725494384766
20
33.957835361361489
10
-37.773709297180176
20
33.94112221896647
10
-37.582695484161377
20
33.957835361361489
10
-37.397487163543701
20
34.00746218860148
10
-37.223713397979736
20
34.088495895266519
10
-37.066648006439209
20
34.198478385806069
10
-36.931061744689941
20
34.334059879183755
10
-36.821084022521973
20
34.491125270724282
10
-36.740052700042725
20
34.664903804659829
10
-36.690423488616943
20
34.850112125277505
10
-36.673710346221924
20
35.041123554110513
10
-36.690423488616943
20
35.232137367129312
10
-36.740052700042725
20
35.417348071932778
10
-36.821084022521973
20
35.591124221682534
10
-36.931061744689941
20
35.748191997408853
10
-37.066648006439209
20
35.883773490786538
10
-37.223713397979736
20
35.993753597140298
10
-37.397487163543701
20
36.074787303805337
10
-37.582695484161377
20
36.124416515231118
10
-37.773709297180176
20
36.141127273440347
10
-37.964725494384766
20
36.124416515231118
10
-38.149929046630859
20
36.074787303805337
10
-38.323707580566406
20
35.993753597140298
10
-38.480777740478516
20
35.883773490786538
10
-38.616359233856201
20
35.748191997408853
10
-38.72633695602417
20
35.591124221682534
10
-38.807370662689209
20
35.417348071932778
10
-38.85699987411499
20
35.232137367129312
10
-38.873710632324219
20
35.041123554110513
10
-38.85699987411499
20
34.850112125277505
10
-38.807370662689209
20
34.664903804659829
10
-38.72633695602417
20
34.491125270724282
10
-38.616359233856201
20
34.334059879183755
0
LWPOLYLINE
5
138
100
AcDbEntity
8
0
100
AcDbPolyline
90
79
70
1
43
0.0
10
-39.766049385070801
20
30.903185531496987
10
-39.845645427703857
20
31.091128513216958
10
-40.306859016418457
20
32.1801172941923
10
-40.645084381103516
20
33.524976894259439
10
-40.772690773010254
20
34.905835315585122
10
-40.686655044555664
20
36.289900466799722
10
-40.659012794494629
20
36.796997711062417
10
-40.717296600341797
20
37.301489040255532
10
-40.859847068786621
20
37.788923904299722
10
-41.082568168640137
20
38.245328590273843
10
-41.379084587097168
20
38.657623454928384
10
-41.717677116394043
20
38.991125747561441
10
-41.740894317626953
20
39.013997241854653
10
-42.157635688781738
20
39.304236099123941
10
-42.406344413757324
20
39.447828456759439
10
-51.279635429382324
20
44.570823833346353
10
-54.79184627532959
20
46.598601266741738
10
-55.251083374023438
20
46.814210340380654
10
-55.393772125244141
20
46.853642389178262
10
-55.740089416503906
20
46.949349567294107
10
-56.244864463806152
20
47.000157758593545
10
-56.750993728637695
20
46.96518056094645
10
-57.243986129760742
20
46.845424100756631
10
-57.709746360778809
20
46.644303724169717
10
-58.134961128234863
20
46.367578431963906
10
-58.507466316223145
20
46.023156568407998
10
-58.816609382629395
20
45.620894357562051
10
-59.053549766540527
20
45.172287151217446
10
-59.271883964538574
20
44.570823833346353
10
-60.280632972717285
20
41.7919337004423
10
-60.300230979919434
20
41.711639091372476
10
-60.96428394317627
20
38.991125747561441
10
-61.327829360961914
20
37.501736804842935
10
-61.916899681091309
20
33.220974132418618
10
-62.011032104492188
20
31.091128513216958
10
-62.140851020812988
20
28.154085800051675
10
-62.140851020812988
20
23.487952873110757
10
-62.050628662109375
20
22.341631576418862
10
-61.894617080688477
20
20.359262153506265
10
-61.161975860595703
20
17.307614013552651
10
-60.300230979919434
20
15.227173492312417
10
-59.960975646972656
20
14.408138915896401
10
-58.321185111999512
20
11.732243224978433
10
-57.583746910095215
20
10.868810340762124
10
-56.28298282623291
20
9.345811530947671
10
-55.89503288269043
20
8.9578663557767726
10
-55.393772125244141
20
8.5297476500272609
10
-53.508601188659668
20
6.919659301638589
10
-50.832705497741699
20
5.2798687666654445
10
-47.933235168457031
20
4.0788685530423976
10
-44.881587028503418
20
3.3462321013212066
10
-42.406344413757324
20
3.1514250487089019
10
-41.752896308898926
20
3.1000029295682769
10
-36.360821723937988
20
3.1000029295682769
10
-36.215641498565674
20
3.1021057814359527
10
-35.875694751739502
20
3.1412684172391754
10
-35.723710060119629
20
3.1859623640775543
10
-35.547397136688232
20
3.2378088682889801
10
-35.240368843078613
20
3.3888947218656402
10
-34.963586330413818
20
3.5901152342557769
10
-34.725158214569092
20
3.8355719298124176
10
-34.532063007354736
20
4.1180741041898585
10
-34.389951229095459
20
4.4293677061796046
10
-34.302983283996582
20
4.7603260725736476
10
-34.273707866668701
20
5.101264640688882
10
-34.273707866668701
20
10.868810340762124
10
-34.273707866668701
20
22.341631576418862
10
-34.273707866668701
20
24.375761672854409
10
-34.310319423675537
20
24.842995330691323
10
-34.41925048828125
20
25.298832580447183
10
-34.597847461700439
20
25.732139274477944
10
-34.84175443649292
20
26.132341548800454
10
-35.145008563995361
20
26.489673778414712
10
-35.500218868255615
20
26.795412227511392
10
-35.723710060119629
20
26.933768913149819
10
-35.898711681365967
20
27.042101547121987
10
-37.078590393066406
20
27.770754024386392
10
-38.132519721984863
20
28.672014400362954
10
-39.035484790802002
20
29.724489375948892
0
LWPOLYLINE
5
139
100
AcDbEntity
8
0
100
AcDbPolyline
90
36
70
1
43
0.0
10
-38.616359233856201
20
-32.134062126278891
10
-38.72633695602417
20
-32.291132286191001
10
-38.807370662689209
20
-32.464901283383384
10
-38.85699987411499
20
-32.650123909115806
10
-38.873710632324219
20
-32.841125801205649
10
-38.85699987411499
20
-33.032137230038657
10
-38.807370662689209
20
-33.217340782284751
10
-38.72633695602417
20
-33.391128852963462
10
-38.616359233856201
20
-33.548189476132407
10
-38.480777740478516
20
-33.683773353695884
10
-38.323707580566406
20
-33.793751075863852
10
-38.149929046630859
20
-33.874784782528891
10
-37.964725494384766
20
-33.924423530697837
10
-37.773709297180176
20
-33.94112236797811
10
-37.582695484161377
20
-33.924423530697837
10
-37.397487163543701
20
-33.874784782528891
10
-37.223713397979736
20
-33.793751075863852
10
-37.066648006439209
20
-33.683773353695884
10
-36.931061744689941
20
-33.548189476132407
10
-36.821084022521973
20
-33.391128852963462
10
-36.740052700042725
20
-33.217340782284751
10
-36.690423488616943
20
-33.032137230038657
10
-36.673710346221924
20
-32.841125801205649
10
-36.690423488616943
20
-32.650123909115806
10
-36.740052700042725
20
-32.464901283383384
10
-36.821084022521973
20
-32.291132286191001
10
-36.931061744689941
20
-32.134062126278891
10
-37.066648006439209
20
-31.998468711972251
10
-37.223713397979736
20
-31.888490989804282
10
-37.397487163543701
20
-31.807466819882407
10
-37.582695484161377
20
-31.757837608456626
10
-37.773709297180176
20
-31.741129234433188
10
-37.964725494384766
20
-31.757837608456626
10
-38.149929046630859
20
-31.807466819882407
10
-38.323707580566406
20
-31.888490989804282
10
-38.480777740478516
20
-31.998468711972251
0
LWPOLYLINE
5
140
100
AcDbEntity
8
0
100
AcDbPolyline
90
36
70
1
43
0.0
10
-85.466384887695312
20
-60.425201728940024
10
-85.394201278686523
20
-60.694595649838462
10
-85.276336669921875
20
-60.947367027401938
10
-85.116376876831055
20
-61.17582924664022
10
-84.919157028198242
20
-61.373030021786704
10
-84.690694808959961
20
-61.533008888363852
10
-84.437932968139648
20
-61.650873497128501
10
-84.168539047241211
20
-61.72305710613729
10
-83.890695571899414
20
-61.747375801205649
10
-83.612861633300781
20
-61.72305710613729
10
-83.34345817565918
20
-61.650873497128501
10
-83.090696334838867
20
-61.533008888363852
10
-82.862234115600586
20
-61.373030021786704
10
-82.665023803710938
20
-61.17582924664022
10
-82.505064010620117
20
-60.947367027401938
10
-82.387189865112305
20
-60.694595649838462
10
-82.315006256103516
20
-60.425201728940024
10
-82.29069709777832
20
-60.147367790341391
10
-82.315006256103516
20
-59.869533851742759
10
-82.387189865112305
20
-59.600130394101157
10
-82.505064010620117
20
-59.347368553280845
10
-82.665023803710938
20
-59.118906334042563
10
-82.862234115600586
20
-58.921696022152915
10
-83.090696334838867
20
-58.761736229062095
10
-83.34345817565918
20
-58.643862083554282
10
-83.612861633300781
20
-58.571668937802329
10
-83.890695571899414
20
-58.547369316220298
10
-84.168539047241211
20
-58.571668937802329
10
-84.437932968139648
20
-58.643862083554282
10
-84.690694808959961
20
-58.761736229062095
10
-84.919157028198242
20
-58.921696022152915
10
-85.116376876831055
20
-59.118906334042563
10
-85.276336669921875
20
-59.347368553280845
10
-85.394201278686523
20
-59.600130394101157
10
-85.466384887695312
20
-59.869533851742759
10
-85.490703582763672
20
-60.147367790341391
0
LWPOLYLINE
5
141
100
AcDbEntity
8
0
100
AcDbPolyline
90
44
70
1
43
0.0
10
-31.252768039703369
20
-35.795542076230063
10
-30.747652053833008
20
-35.660206153988852
10
-30.423712730407715
20
-35.509144142270102
10
-30.273711681365967
20
-35.439201667904868
10
-29.845349788665771
20
-35.139261558651938
10
-29.59721565246582
20
-34.891125038266196
10
-29.475576877593994
20
-34.769493415951743
10
-29.47371244430542
20
-34.76683266460897
10
-29.175636768341064
20
-34.341131523251548
10
-28.95463228225708
20
-33.867183998227134
10
-28.819289207458496
20
-33.362070396542563
10
-28.77371072769165
20
-32.841125801205649
10
-28.819289207458496
20
-32.320181205868735
10
-28.95463228225708
20
-31.815067604184165
10
-29.175636768341064
20
-31.341120079159751
10
-29.47371244430542
20
-30.915428474545493
10
-29.475576877593994
20
-30.91276772320272
10
-29.845349788665771
20
-30.54299004375936
10
-30.273711681365967
20
-30.243059471249595
10
-30.423712730407715
20
-30.173107460141196
10
-30.747652053833008
20
-30.022045448422446
10
-31.252768039703369
20
-29.886709526181235
10
-31.773712635040283
20
-29.841133430600181
10
-32.294654846191406
20
-29.886709526181235
10
-32.799770832061768
20
-30.022045448422446
10
-33.123710155487061
20
-30.173107460141196
10
-33.2737135887146
20
-30.243059471249595
10
-33.702073097229004
20
-30.54299004375936
10
-34.07184362411499
20
-30.91276772320272
10
-34.37178373336792
20
-31.341120079159751
10
-34.592788219451904
20
-31.815067604184165
10
-34.728131294250488
20
-32.320181205868735
10
-34.773712158203125
20
-32.841125801205649
10
-34.728131294250488
20
-33.362070396542563
10
-34.592788219451904
20
-33.867183998227134
10
-34.37178373336792
20
-34.341131523251548
10
-34.07184362411499
20
-34.769493415951743
10
-33.950207233428955
20
-34.891125038266196
10
-33.702073097229004
20
-35.139261558651938
10
-33.2737135887146
20
-35.439201667904868
10
-33.123710155487061
20
-35.509144142270102
10
-32.799770832061768
20
-35.660206153988852
10
-32.294654846191406
20
-35.795542076230063
10
-31.773712635040283
20
-35.841127708554282
0
LWPOLYLINE
5
142
100
AcDbEntity
8
0
100
AcDbPolyline
90
36
70
1
43
0.0
10
-24.740047454833984
20
35.417348071932778
10
-24.821083545684814
20
35.591124221682534
10
-24.931063652038574
20
35.748191997408853
10
-25.06664514541626
20
35.883773490786538
10
-25.223710536956787
20
35.993753597140298
10
-25.397489070892334
20
36.074787303805337
10
-25.58269739151001
20
36.124416515231118
10
-25.7737135887146
20
36.141127273440347
10
-25.964722633361816
20
36.124416515231118
10
-26.149933338165283
20
36.074787303805337
10
-26.323709487915039
20
35.993753597140298
10
-26.480777263641357
20
35.883773490786538
10
-26.616361141204834
20
35.748191997408853
10
-26.726338863372803
20
35.591124221682534
10
-26.807372570037842
20
35.417348071932778
10
-26.857001781463623
20
35.232137367129312
10
-26.873710155487061
20
35.041123554110513
10
-26.857001781463623
20
34.850112125277505
10
-26.807372570037842
20
34.664903804659829
10
-26.726338863372803
20
34.491125270724282
10
-26.616361141204834
20
34.334059879183755
10
-26.480777263641357
20
34.198478385806069
10
-26.323709487915039
20
34.088495895266519
10
-26.149933338165283
20
34.00746218860148
10
-25.964722633361816
20
33.957835361361489
10
-25.7737135887146
20
33.94112221896647
10
-25.58269739151001
20
33.957835361361489
10
-25.397489070892334
20
34.00746218860148
10
-25.223710536956787
20
34.088495895266519
10
-25.06664514541626
20
34.198478385806069
10
-24.931063652038574
20
34.334059879183755
10
-24.821083545684814
20
34.491125270724282
10
-24.740047454833984
20
34.664903804659829
10
-24.690425395965576
20
34.850112125277505
10
-24.673712253570557
20
35.041123554110513
10
-24.690425395965576
20
35.232137367129312
0
LWPOLYLINE
5
143
100
AcDbEntity
8
0
100
AcDbPolyline
90
36
70
1
43
0.0
10
-2.9999986290931702
20
52.577395364642129
10
-3.2527706027030945
20
52.695263549685464
10
-3.5221651196479797
20
52.767443582415567
10
-3.8000008463859558
20
52.791755124926553
10
-4.0778407454490662
20
52.767443582415567
10
-4.3472346663475037
20
52.695263549685464
10
-4.6000033617019653
20
52.577395364642129
10
-4.8284608125686646
20
52.417423650622354
10
-5.0256741046905518
20
52.220214530825601
10
-5.1856416463851929
20
51.991753503680215
10
-5.3035098314285278
20
51.738984510302529
10
-5.3756946325302124
20
51.469590589404092
10
-5.4000020027160645
20
51.191754266619668
10
-5.3756946325302124
20
50.913915559649453
10
-5.3035098314285278
20
50.64452044665812
10
-5.1856416463851929
20
50.391751453280435
10
-5.0256741046905518
20
50.163295194506631
10
-4.8284608125686646
20
49.966082498431192
10
-4.6000033617019653
20
49.806113168597207
10
-4.3472346663475037
20
49.688246175646768
10
-4.0778407454490662
20
49.616060182452188
10
-3.8000008463859558
20
49.591753408312783
10
-3.5221651196479797
20
49.616060182452188
10
-3.2527706027030945
20
49.688246175646768
10
-2.9999986290931702
20
49.806113168597207
10
-2.7715417742729187
20
49.966082498431192
10
-2.574332058429718
20
50.163295194506631
10
-2.4143604934215546
20
50.391751453280435
10
-2.2964926064014435
20
50.64452044665812
10
-2.2243113815784454
20
50.913915559649453
10
-2.200000137090683
20
51.191754266619668
10
-2.2243113815784454
20
51.469590589404092
10
-2.2964926064014435
20
51.738984510302529
10
-2.4143604934215546
20
51.991753503680215
10
-2.574332058429718
20
52.220214530825601
10
-2.7715417742729187
20
52.417423650622354
0
LWPOLYLINE
5
144
100
AcDbEntity
8
0
100
AcDbPolyline
90
601
70
1
43
0.0
10
-2.424284964799881
20
-52.533985450863852
10
-3.0403733253479004
20
-52.715059593319907
10
-3.6781579256057739
20
-52.789799049496665
10
-4.3194219470024109
20
-52.756096199154868
10
-4.9458518624305725
20
-52.614885643124595
10
-5.5395591259002686
20
-52.370210960507407
10
-6.0835927724838257
20
-52.029062584042563
10
-6.5624117851257324
20
-51.601177528500571
10
-6.9623512029647827
20
-51.098781898617759
10
-7.2719830274581909
20
-50.536218956112876
10
-7.496606707572937
20
-50.122219398617759
10
-7.7832567691802979
20
-49.748503044247641
10
-8.1248694658279419
20
-49.424234703183188
10
-8.5130226612091064
20
-49.15744431316854
10
-13.815350532531738
20
-46.096140220761313
10
-20.267784595489502
20
-42.370830848813071
10
-23.787233829498291
20
-40.338875129818931
10
-24.210176467895508
20
-40.136953666806235
10
-24.659407138824463
20
-40.003382042050376
10
-25.123960971832275
20
-39.94139321148397
10
-25.592498779296875
20
-39.952522590756431
10
-26.053586006164551
20
-40.036484077572837
10
-26.4959716796875
20
-40.191227272152915
10
-26.908853054046631
20
-40.413004234433188
10
-27.823710441589355
20
-40.905634239316001
10
-28.129823207855225
20
-41.070467308163657
10
-29.43730354309082
20
-41.532570198178306
10
-29.47371244430542
20
-41.539408043026938
10
-30.423712730407715
20
-41.717668846249595
10
-30.800254344940186
20
-41.788326576352134
10
-32.186315059661865
20
-41.831661537289634
10
-33.123710155487061
20
-41.715799644589438
10
-33.562581539154053
20
-41.661554649472251
10
-34.896378517150879
20
-41.28203041851522
10
-35.723710060119629
20
-40.901151970028891
10
-36.156036853790283
20
-40.702120140194907
10
-37.311654090881348
20
-39.935575798153891
10
-37.736988067626953
20
-39.658085182309165
10
-38.203036785125732
20
-39.456316307187095
10
-38.696439266204834
20
-39.336048439145102
10
-39.203059673309326
20
-39.300733879208579
10
-39.708373546600342
20
-39.351373985409751
10
-40.197911262512207
20
-39.486528709530845
10
-40.657634735107422
20
-39.702316597104087
10
-42.406344413757324
20
-40.711923912167563
10
-45.279636383056641
20
-42.370830848813071
10
-51.732072830200195
20
-46.096140220761313
10
-52.97337532043457
20
-46.812807396054282
10
-53.372774124145508
20
-47.088762596249595
10
-53.722434043884277
20
-47.425504997372641
10
-54.013204574584961
20
-47.814241722226157
10
-54.237470626831055
20
-48.244797065854087
10
-54.389357566833496
20
-48.705869987607016
10
-54.464893341064453
20
-49.185406044125571
10
-54.462089538574219
20
-49.670854881405845
10
-54.38103199005127
20
-50.149484947323813
10
-54.223837852478027
20
-50.608784034848227
10
-53.994617462158203
20
-51.03671677410604
10
-53.69938850402832
20
-51.422077491879477
10
-51.066904067993164
20
-53.99387009441854
10
-49.405279159545898
20
-55.260874107480063
10
-48.04290771484375
20
-56.299702003598227
10
-46.038980484008789
20
-57.549291923642173
10
-45.610613822937012
20
-57.849232032895102
10
-45.240840911865234
20
-58.219009712338462
10
-44.940900802612305
20
-58.647371605038657
10
-44.719901084899902
20
-59.121309593319907
10
-44.584555625915527
20
-59.626413658261313
10
-44.538974761962891
20
-60.147367790341391
10
-44.584555625915527
20
-60.668312385678306
10
-44.719901084899902
20
-61.173425987362876
10
-44.940900802612305
20
-61.647363975644126
10
-45.240840911865234
20
-62.075744941830649
10
-45.610613822937012
20
-62.445494011044516
10
-45.613284111022949
20
-62.447372749447837
10
-46.038980484008789
20
-62.745434120297446
10
-46.512918472290039
20
-62.966448143124595
10
-47.018032073974609
20
-63.10179360210897
10
-47.538981437683105
20
-63.147369697690024
10
-47.873649597167969
20
-63.147369697690024
10
-48.316307067871094
20
-63.064180687069907
10
-48.741660118103027
20
-62.916046455502524
10
-49.140233993530273
20
-62.706266716122641
10
-49.49249267578125
20
-62.447372749447837
10
-49.503159523010254
20
-62.439533546566977
10
-53.199934959411621
20
-59.562288597226157
10
-55.393772125244141
20
-58.196588829159751
10
-56.372480392456055
20
-57.587343528866782
10
-59.623346328735352
20
-56.086593940854087
10
-60.300230979919434
20
-55.890871360898032
10
-62.478938102722168
20
-55.260874107480063
10
-62.613449096679688
20
-55.221992805600181
10
-63.177838325500488
20
-55.152689293026938
10
-65.086150169372559
20
-54.918400123715415
10
-65.714836120605469
20
-54.904972389340415
10
-66.343522071838379
20
-54.918400123715415
10
-68.251833915710449
20
-55.152689293026938
10
-68.81622314453125
20
-55.221992805600181
10
-68.950738906860352
20
-55.260874107480063
10
-71.806330680847168
20
-56.086593940854087
10
-75.057191848754883
20
-57.587343528866782
10
-76.035904884338379
20
-58.196588829159751
10
-78.22974681854248
20
-59.562288597226157
10
-81.823835372924805
20
-62.35960610210897
10
-81.926507949829102
20
-62.439533546566977
10
-81.937179565429688
20
-62.447372749447837
10
-82.289447784423828
20
-62.706266716122641
10
-82.688016891479492
20
-62.916046455502524
10
-83.113365173339844
20
-63.064180687069907
10
-83.556022644042969
20
-63.147369697690024
10
-83.890695571899414
20
-63.147369697690024
10
-84.411640167236328
20
-63.10179360210897
10
-84.916753768920898
20
-62.966448143124595
10
-85.390691757202148
20
-62.745434120297446
10
-85.81639289855957
20
-62.447372749447837
10
-85.819063186645508
20
-62.445494011044516
10
-86.188831329345703
20
-62.075744941830649
10
-86.488771438598633
20
-61.647363975644126
10
-86.709775924682617
20
-61.173425987362876
10
-86.845121383666992
20
-60.668312385678306
10
-86.890707015991211
20
-60.147367790341391
10
-86.845121383666992
20
-59.626413658261313
10
-86.709775924682617
20
-59.121309593319907
10
-86.488771438598633
20
-58.647371605038657
10
-86.188831329345703
20
-58.219009712338462
10
-85.819063186645508
20
-57.849232032895102
10
-85.390691757202148
20
-57.549291923642173
10
-83.386764526367188
20
-56.299702003598227
10
-82.024402618408203
20
-55.260874107480063
10
-81.823835372924805
20
-55.107952430844321
10
-80.362777709960938
20
-53.99387009441854
10
-77.730293273925781
20
-51.422077491879477
10
-77.435050010681152
20
-51.03671677410604
10
-77.20583438873291
20
-50.608784034848227
10
-77.04864501953125
20
-50.149484947323813
10
-76.967582702636719
20
-49.670854881405845
10
-76.964783668518066
20
-49.185406044125571
10
-77.040314674377441
20
-48.705869987607016
10
-77.192201614379883
20
-48.244797065854087
10
-77.416467666625977
20
-47.814241722226157
10
-77.70723819732666
20
-47.425504997372641
10
-78.056902885437012
20
-47.088762596249595
10
-78.456301689147949
20
-46.812807396054282
10
-79.697604179382324
20
-46.096140220761313
10
-81.823835372924805
20
-44.868570640683188
10
-86.150035858154297
20
-42.370830848813071
10
-89.023332595825195
20
-40.711923912167563
10
-90.772037506103516
20
-39.702316597104087
10
-91.231765747070312
20
-39.486528709530845
10
-91.721296310424805
20
-39.351373985409751
10
-92.22661018371582
20
-39.300733879208579
10
-92.733230590820312
20
-39.336048439145102
10
-93.226633071899414
20
-39.456316307187095
10
-93.692684173583984
20
-39.658085182309165
10
-94.118013381958008
20
-39.935575798153891
10
-95.273637771606445
20
-40.702120140194907
10
-95.705966949462891
20
-40.901151970028891
10
-96.533298492431641
20
-41.28203041851522
10
-97.605962753295898
20
-41.58725388348104
10
-97.867088317871094
20
-41.661554649472251
10
-99.243354797363281
20
-41.831661537289634
10
-100.62941551208496
20
-41.788326576352134
10
-101.0059642791748
20
-41.717668846249595
10
-101.95596694946289
20
-41.539408043026938
10
-101.99236869812012
20
-41.532570198178306
10
-103.29985618591309
20
-41.070467308163657
10
-104.52082633972168
20
-40.413004234433188
10
-104.93370056152344
20
-40.191227272152915
10
-105.3760814666748
20
-40.036484077572837
10
-105.83717346191406
20
-39.952522590756431
10
-106.30571365356445
20
-39.94139321148397
10
-106.77026748657227
20
-40.003382042050376
10
-107.21949577331543
20
-40.136953666806235
10
-107.64244079589844
20
-40.338875129818931
10
-111.16189002990723
20
-42.370830848813071
10
-116.392822265625
20
-45.39091713726522
10
-117.61431694030762
20
-46.096140220761313
10
-122.91666030883789
20
-49.15744431316854
10
-123.30480575561523
20
-49.424234703183188
10
-123.64642143249512
20
-49.748503044247641
10
-123.93305778503418
20
-50.122219398617759
10
-124.15769577026367
20
-50.536218956112876
10
-124.46732521057129
20
-51.098781898617759
10
-124.86726760864258
20
-51.601177528500571
10
-125.34607887268066
20
-52.029062584042563
10
-125.89011192321777
20
-52.370210960507407
10
-126.48383140563965
20
-52.614885643124595
10
-127.11024284362793
20
-52.756096199154868
10
-127.75151252746582
20
-52.789799049496665
10
-128.38930130004883
20
-52.715059593319907
10
-129.00538444519043
20
-52.533985450863852
10
-129.58220481872559
20
-52.251764610409751
10
-130.10322570800781
20
-51.876446083188071
10
-130.32966613769531
20
-51.646362617611899
10
-130.55366516113281
20
-51.418758705258384
10
-130.92056274414062
20
-50.891748741269126
10
-131.19349479675293
20
-50.310503318905845
10
-131.36466979980469
20
-49.691587761044516
10
-131.42918586730957
20
-49.052683189511313
10
-131.38519287109375
20
-48.412042930722251
10
-131.23396873474121
20
-47.787958458066001
10
-130.97981452941895
20
-47.198253944516196
10
-130.62997817993164
20
-46.659761741757407
10
-130.32966613769531
20
-46.334368064999595
10
-130.1944637298584
20
-46.187864616513266
10
-130.07537841796875
20
-46.096140220761313
10
-129.68571662902832
20
-45.796028450131431
10
-129.11827087402344
20
-45.495458915829673
10
-128.50830078125
20
-45.294720008969321
10
-127.87322998046875
20
-45.199562385678306
10
-127.2312068939209
20
-45.212704017758384
10
-126.76037788391113
20
-45.225168541073813
10
-126.29339218139648
20
-45.163790062069907
10
-125.8417797088623
20
-45.030075386166587
10
-125.41665077209473
20
-44.827314689755454
10
-121.16189002990723
20
-42.370830848813071
10
-116.392822265625
20
-39.617401435971274
10
-110.14244079589844
20
-36.008745506405845
10
-109.75610733032227
20
-35.743423774838462
10
-109.41580772399902
20
-35.421167686581626
10
-109.12984848022461
20
-35.049845054745688
10
-109.04316902160645
20
-34.891125038266196
10
-108.90521049499512
20
-34.638515785336509
10
-108.74738693237305
20
-34.197222068905845
10
-108.66021156311035
20
-33.736730888485923
10
-108.64582061767578
20
-33.268286064267173
10
-108.59580039978027
20
-31.802278831601157
10
-108.30832481384277
20
-30.363861396908774
10
-107.79097557067871
20
-28.991266563534751
10
-107.73317337036133
20
-28.891130760312095
10
-107.05756187438965
20
-27.720924690365806
10
-106.12751007080078
20
-26.58659584820272
10
-105.02554893493652
20
-25.618425682187095
10
-103.78096580505371
20
-24.842096641659751
10
-103.38247299194336
20
-24.595409706234946
10
-103.02725791931152
20
-24.289671257138266
10
-102.7239990234375
20
-23.932339027524009
10
-102.4800968170166
20
-23.53213913738729
10
-102.3015022277832
20
-23.098827674984946
10
-102.19256401062012
20
-22.642999961972251
10
-102.15596199035645
20
-22.175766304135337
10
-102.15596199035645
20
-20.14163620769979
10
-102.15596199035645
20
-2.8987468034029145
10
-102.19294548034668
20
-2.4292052537202977
10
-102.30295181274414
20
-1.9712270051241063
10
-102.4832820892334
20
-1.5361226350069188
10
-102.7294921875
20
-1.1345971375703952
10
-102.99598693847656
20
-0.700002983212485
10
-103.04137229919434
20
-0.62600262463094203
10
-103.2697868347168
20
-0.074855163693442056
10
-103.40912818908691
20
0.50524584949015172
10
-103.45596313476562
20
1.1000000685453275
10
-103.40912818908691
20
1.6947590559720851
10
-103.2697868347168
20
2.2748600691556788
10
-103.04137229919434
20
2.8259979933500152
10
-102.99598693847656
20
2.8999983519315582
10
-102.7294921875
20
3.3345972746610504
10
-102.4832820892334
20
3.7361180037259918
10
-102.30295181274414
20
4.1712271422147609
10
-102.19294548034668
20
4.6292006224393702
10
-102.15596199035645
20
5.0987517088651515
10
-102.15596199035645
20
10.868810340762124
10
-102.15596199035645
20
22.341631576418862
10
-102.15596199035645
20
24.375761672854409
10
-102.19256401062012
20
24.842995330691323
10
-102.3015022277832
20
25.298832580447183
10
-102.4800968170166
20
25.732139274477944
10
-102.7239990234375
20
26.132341548800454
10
-103.02725791931152
20
26.489673778414712
10
-103.38247299194336
20
26.795412227511392
10
-103.78096580505371
20
27.042101547121987
10
-105.02554893493652
20
27.818418666720376
10
-106.12751007080078
20
28.786598369479165
10
-107.05756187438965
20
29.92092482745646
10
-107.73317337036133
20
31.091128513216958
10
-107.79097557067871
20
31.191264316439614
10
-108.30832481384277
20
32.56386391818522
10
-108.59580039978027
20
34.002278968691812
10
-108.64582061767578
20
35.468283817172036
10
-108.66021156311035
20
35.936731025576577
10
-108.74738693237305
20
36.397222205996499
10
-108.90521049499512
20
36.838515922427163
10
-109.12984848022461
20
37.249845191836343
10
-109.41580772399902
20
37.621165439486489
10
-109.75610733032227
20
37.943421527743325
10
-110.14244079589844
20
38.208745643496499
10
-111.4975643157959
20
38.991125747561441
10
-116.392822265625
20
41.817401573061929
10
-121.16189002990723
20
44.570823833346353
10
-125.41665077209473
20
47.027316018939004
10
-125.8417797088623
20
47.230067178606973
10
-126.29339218139648
20
47.363784238696084
10
-126.76037788391113
20
47.425166293978677
10
-127.2312068939209
20
47.412700578570352
10
-127.87322998046875
20
47.399566099047647
10
-128.50830078125
20
47.494723722338662
10
-129.11827087402344
20
47.69545309245585
10
-129.68571662902832
20
47.996025010943399
10
-130.07537841796875
20
48.296137973666177
10
-130.1944637298584
20
48.387858793139443
10
-130.32966613769531
20
48.534364625811563
10
-130.62997817993164
20
48.859755918383584
10
-130.97981452941895
20
49.398250505328164
10
-131.23396873474121
20
49.987959787249551
10
-131.38519287109375
20
50.612044259905801
10
-131.42918586730957
20
51.252680942416177
10
-131.36466979980469
20
51.891584321856485
10
-131.19349479675293
20
52.510495111346231
10
-130.92056274414062
20
53.091753646731362
10
-130.64811706542969
20
53.483072444796548
10
-130.55366516113281
20
53.61875049769877
10
-130.32966613769531
20
53.846354410052285
10
-130.10322570800781
20
54.076443836092935
10
-129.58220481872559
20
54.45176355540751
10
-129.00538444519043
20
54.733984395861611
10
-128.38930130004883
20
54.915056154131875
10
-127.75151252746582
20
54.989800378680215
10
-127.11024284362793
20
54.956085607409463
10
-126.48383140563965
20
54.814878627657876
10
-125.89011192321777
20
54.570205137133584
10
-125.34607887268066
20
54.229057952761636
10
-124.86726760864258
20
53.801175281405435
10
-124.61402893066406
20
53.483072444796548
10
-124.46732521057129
20
53.298778459429727
10
-124.15769577026367
20
52.736210748553262
10
-123.93305778503418
20
52.322224304079995
10
-123.64642143249512
20
51.948494836688027
10
-123.30480575561523
20
51.624234840273843
10
-122.91666030883789
20
51.357440873980508
10
-117.61431694030762
20
48.296137973666177
10
-116.392822265625
20
47.590904161334024
10
-111.16189002990723
20
44.570823833346353
10
-107.64244079589844
20
42.538868114352212
10
-107.21949577331543
20
42.336956188082681
10
-106.77026748657227
20
42.203377410769448
10
-106.30571365356445
20
42.141393348574624
10
-105.83717346191406
20
42.152520343661294
10
-105.3760814666748
20
42.236479446291909
10
-104.93370056152344
20
42.39122979342936
10
-104.52082633972168
20
42.612992450594888
10
-103.29985618591309
20
43.270469829440103
10
-101.99236869812012
20
43.732567951083169
10
-101.95596694946289
20
43.73940102756022
10
-101.0059642791748
20
43.917666599154458
10
-100.62941551208496
20
43.988324329256997
10
-99.243354797363281
20
44.031661674380288
10
-97.867088317871094
20
43.861552402377114
10
-97.605962753295898
20
43.787251636385903
10
-96.533298492431641
20
43.482035323977456
10
-95.705966949462891
20
43.101149722933755
10
-95.273637771606445
20
42.902120277285562
10
-94.118013381958008
20
42.135573551058755
10
-93.692684173583984
20
41.858085319399819
10
-93.226633071899414
20
41.656314060091958
10
-92.733230590820312
20
41.536050960421548
10
-92.22661018371582
20
41.500731632113443
10
-91.721296310424805
20
41.551374122500405
10
-91.231765747070312
20
41.686521694064126
10
-90.772037506103516
20
41.902309581637368
10
-89.023332595825195
20
42.911926433444009
10
-81.823835372924805
20
47.068558856844888
10
-79.697604179382324
20
48.296137973666177
10
-78.456301689147949
20
49.012808725237832
10
-78.056902885437012
20
49.288753196597085
10
-77.70723819732666
20
49.625505134463296
10
-77.416467666625977
20
50.014243051409707
10
-77.192201614379883
20
50.444788858294473
10
-77.040314674377441
20
50.90586774051188
10
-76.964783668518066
20
51.385406181216226
10
-76.967582702636719
20
51.870852634310708
10
-77.04864501953125
20
52.349488660693154
10
-77.20583438873291
20
52.808787748217568
10
-77.435050010681152
20
53.236715719103799
10
-77.623796463012695
20
53.483072444796548
10
-77.730293273925781
20
53.622074052691445
10
-80.362777709960938
20
56.193873211741433
10
-81.557645797729492
20
57.104971334338174
10
-81.823835372924805
20
57.30795137584208
10
-83.386764526367188
20
58.499700948595986
10
-85.390691757202148
20
59.749290272593484
10
-85.819063186645508
20
60.049232169985757
10
-86.188831329345703
20
60.419004485011087
10
-86.204557418823242
20
60.441456958651528
10
-86.488771438598633
20
60.847367867827401
10
-86.709775924682617
20
61.321306750178323
10
-86.845121383666992
20
61.826422736048684
10
-86.890707015991211
20
62.347367331385598
10
-86.845121383666992
20
62.868312075734124
10
-86.709775924682617
20
63.373427912592874
10
-86.488771438598633
20
63.847366645932183
10
-86.188831329345703
20
64.27573055028914
10
-85.819063186645508
20
64.645502790808663
10
-85.390691757202148
20
64.945440813899026
10
-84.916753768920898
20
65.166447386145578
10
-84.411640167236328
20
65.301787182688699
10
-83.890695571899414
20
65.347369834780679
10
-81.823835372924805
20
65.347369834780679
10
-76.035904884338379
20
65.347369834780679
10
-68.251833915710449
20
65.347369834780679
10
-63.177838325500488
20
65.347369834780679
10
-60.300230979919434
20
65.347369834780679
10
-55.393772125244141
20
65.347369834780679
10
-47.538981437683105
20
65.347369834780679
10
-47.018032073974609
20
65.301787182688699
10
-46.512918472290039
20
65.166447386145578
10
-46.038980484008789
20
64.945440813899026
10
-45.610613822937012
20
64.645502790808663
10
-45.240840911865234
20
64.27573055028914
10
-44.940900802612305
20
63.847366645932183
10
-44.719901084899902
20
63.373427912592874
10
-44.584555625915527
20
62.868312075734124
10
-44.538974761962891
20
62.347367331385598
10
-44.584555625915527
20
61.826422736048684
10
-44.719901084899902
20
61.321306750178323
10
-44.940900802612305
20
60.847367867827401
10
-45.225119590759277
20
60.441456958651528
10
-45.240840911865234
20
60.419004485011087
10
-45.610613822937012
20
60.049232169985757
10
-46.038980484008789
20
59.749290272593484
10
-48.04290771484375
20
58.499700948595986
10
-49.872031211853027
20
57.104971334338174
10
-51.066904067993164
20
56.193873211741433
10
-53.69938850402832
20
53.622074052691445
10
-53.805880546569824
20
53.483072444796548
10
-53.994617462158203
20
53.236715719103799
10
-54.223837852478027
20
52.808787748217568
10
-54.38103199005127
20
52.349488660693154
10
-54.462089538574219
20
51.870852634310708
10
-54.464893341064453
20
51.385406181216226
10
-54.389357566833496
20
50.90586774051188
10
-54.237470626831055
20
50.444788858294473
10
-54.013204574584961
20
50.014243051409707
10
-53.722434043884277
20
49.625505134463296
10
-53.372774124145508
20
49.288753196597085
10
-52.97337532043457
20
49.012808725237832
10
-51.732072830200195
20
48.296137973666177
10
-45.279636383056641
20
44.570823833346353
10
-42.406344413757324
20
42.911926433444009
10
-40.657634735107422
20
41.902309581637368
10
-40.197911262512207
20
41.686521694064126
10
-39.708373546600342
20
41.551374122500405
10
-39.203059673309326
20
41.500731632113443
10
-38.696439266204834
20
41.536050960421548
10
-38.203036785125732
20
41.656314060091958
10
-37.736988067626953
20
41.858085319399819
10
-37.311654090881348
20
42.135573551058755
10
-36.156036853790283
20
42.902120277285562
10
-35.723710060119629
20
43.101149722933755
10
-34.896378517150879
20
43.482035323977456
10
-33.562581539154053
20
43.861552402377114
10
-33.123710155487061
20
43.915797397494302
10
-32.186315059661865
20
44.031661674380288
10
-30.800254344940186
20
43.988324329256997
10
-30.423712730407715
20
43.917666599154458
10
-29.43730354309082
20
43.732567951083169
10
-28.129823207855225
20
43.270469829440103
10
-27.823710441589355
20
43.105631992220864
10
-26.908853054046631
20
42.612992450594888
10
-26.4959716796875
20
42.39122979342936
10
-26.053586006164551
20
42.236479446291909
10
-25.592498779296875
20
42.152520343661294
10
-25.123960971832275
20
42.141393348574624
10
-24.659407138824463
20
42.203377410769448
10
-24.210176467895508
20
42.336956188082681
10
-23.787233829498291
20
42.538868114352212
10
-20.267784595489502
20
44.570823833346353
10
-13.815350532531738
20
48.296137973666177
10
-8.5130226612091064
20
51.357440873980508
10
-8.1248694658279419
20
51.624234840273843
10
-7.7832567691802979
20
51.948494836688027
10
-7.496606707572937
20
52.322224304079995
10
-7.2719830274581909
20
52.736210748553262
10
-6.9623512029647827
20
53.298778459429727
10
-6.8156427145004272
20
53.483072444796548
10
-6.5624117851257324
20
53.801175281405435
10
-6.0835927724838257
20
54.229057952761636
10
-5.5395591259002686
20
54.570205137133584
10
-4.9458518624305725
20
54.814878627657876
10
-4.3194219470024109
20
54.956085607409463
10
-3.6781579256057739
20
54.989800378680215
10
-3.0403733253479004
20
54.915056154131875
10
-2.424284964799881
20
54.733984395861611
10
-1.8474757671356201
20
54.45176355540751
10
-1.326434463262558
20
54.076443836092935
10
-0.87601691484451294
20
53.61875049769877
10
-0.78155100345611572
20
53.483072444796548
10
-0.5091056227684021
20
53.091753646731362
10
-0.2361685037612915
20
52.510495111346231
10
-0.064998865127563477
20
51.891584321856485
10
-0.00049173831939697266
20
51.252680942416177
10
-0.044479966163635254
20
50.612044259905801
10
-0.19571930170059204
20
49.987959787249551
10
-0.44987350702285767
20
49.398250505328164
10
-0.79970061779022217
20
48.859755918383584
10
-1.2352094799280167
20
48.387858793139443
10
-1.3542920351028442
20
48.296137973666177
10
-1.7439574003219604
20
47.996025010943399
10
-2.31141597032547
20
47.69545309245585
10
-2.9213801026344299
20
47.494723722338662
10
-3.5564416646957397
20
47.399566099047647
10
-4.1984543204307556
20
47.412700578570352
10
-4.6692901849746704
20
47.425166293978677
10
-5.1362740993499756
20
47.363784238696084
10
-5.5878943204879761
20
47.230067178606973
10
-6.0130208730697632
20
47.027316018939004
10
-10.267786979675293
20
44.570823833346353
10
-19.93211030960083
20
38.991125747561441
10
-21.287233829498291
20
38.208745643496499
10
-21.673567295074463
20
37.943421527743325
10
-22.013869285583496
20
37.621165439486489
10
-22.299821376800537
20
37.249845191836343
10
-22.524459362030029
20
36.838515922427163
10
-22.682287693023682
20
36.397222205996499
10
-22.769463062286377
20
35.936731025576577
10
-22.783854007720947
20
35.468283817172036
10
-22.833869457244873
20
34.002278968691812
10
-23.12136173248291
20
32.56386391818522
10
-23.638691902160645
20
31.191264316439614
10
-23.696506023406982
20
31.091128513216958
10
-24.372119903564453
20
29.92092482745646
10
-25.302164554595947
20
28.786598369479165
10
-26.404120922088623
20
27.818418666720376
10
-27.648711204528809
20
27.042101547121987
10
-27.823710441589355
20
26.933768913149819
10
-28.04720401763916
20
26.795412227511392
10
-28.402414321899414
20
26.489673778414712
10
-28.705670833587646
20
26.132341548800454
10
-28.949573040008545
20
25.732139274477944
10
-29.128172397613525
20
25.298832580447183
10
-29.237103462219238
20
24.842995330691323
10
-29.273710250854492
20
24.375761672854409
10
-29.273710250854492
20
22.341631576418862
10
-29.273710250854492
20
10.868810340762124
10
-29.273710250854492
20
5.0987517088651515
10
-29.236738681793213
20
4.6292006224393702
10
-29.12672758102417
20
4.1712271422147609
10
-28.94639253616333
20
3.7361180037259918
10
-28.700180053710938
20
3.3345972746610504
10
-28.433687686920166
20
2.8999983519315582
10
-28.388309478759766
20
2.8259979933500152
10
-28.159892559051514
20
2.2748600691556788
10
-28.020541667938232
20
1.6947590559720851
10
-27.973711490631104
20
1.1000000685453275
10
-28.020541667938232
20
0.50524584949015172
10
-28.159892559051514
20
-0.074855163693442056
10
-28.388309478759766
20
-0.62600262463094203
10
-28.433687686920166
20
-0.700002983212485
10
-28.700180053710938
20
-1.1345971375703952
10
-28.94639253616333
20
-1.5361226350069188
10
-29.12672758102417
20
-1.9712270051241063
10
-29.236738681793213
20
-2.4292052537202977
10
-29.273710250854492
20
-2.898746803402914
10
-29.273710250854492
20
-20.14163620769979
10
-29.273710250854492
20
-22.175766304135337
10
-29.237103462219238
20
-22.642999961972251
10
-29.128172397613525
20
-23.098827674984946
10
-28.949573040008545
20
-23.53213913738729
10
-28.705670833587646
20
-23.932339027524009
10
-28.402414321899414
20
-24.289671257138266
10
-28.04720401763916
20
-24.595409706234946
10
-27.823710441589355
20
-24.733768776059165
10
-27.648711204528809
20
-24.842096641659751
10
-26.404120922088623
20
-25.618425682187095
10
-25.302164554595947
20
-26.58659584820272
10
-24.372119903564453
20
-27.720924690365806
10
-23.696506023406982
20
-28.891130760312095
10
-23.638691902160645
20
-28.991266563534751
10
-23.12136173248291
20
-30.363861396908774
10
-22.833869457244873
20
-31.802278831601157
10
-22.783854007720947
20
-33.268286064267173
10
-22.769463062286377
20
-33.736730888485923
10
-22.682287693023682
20
-34.197222068905845
10
-22.524459362030029
20
-34.638515785336509
10
-22.386503219604492
20
-34.891125038266196
10
-22.299821376800537
20
-35.049845054745688
10
-22.013869285583496
20
-35.421167686581626
10
-21.673567295074463
20
-35.743423774838462
10
-21.287233829498291
20
-36.008745506405845
10
-10.267786979675293
20
-42.370830848813071
10
-6.0130208730697632
20
-44.827314689755454
10
-5.5878943204879761
20
-45.030075386166587
10
-5.1362740993499756
20
-45.163790062069907
10
-4.6692901849746704
20
-45.225168541073813
10
-4.1984543204307556
20
-45.212704017758384
10
-3.5564416646957397
20
-45.199562385678306
10
-2.9213801026344299
20
-45.294720008969321
10
-2.31141597032547
20
-45.495458915829673
10
-1.7439574003219604
20
-45.796028450131431
10
-1.3542920351028442
20
-46.096140220761313
10
-1.2352094799280167
20
-46.187864616513266
10
-0.79970061779022217
20
-46.659761741757407
10
-0.44987350702285767
20
-47.198253944516196
10
-0.19571930170059204
20
-47.787958458066001
10
-0.044479966163635254
20
-48.412042930722251
10
-0.00049173831939697266
20
-49.052683189511313
10
-0.064998865127563477
20
-49.691587761044516
10
-0.2361685037612915
20
-50.310503318905845
10
-0.5091056227684021
20
-50.891748741269126
10
-0.87601691484451294
20
-51.418758705258384
10
-1.326434463262558
20
-51.876446083188071
10
-1.8474757671356201
20
-52.251764610409751
0
ENDSEC
0
SECTION
2
OBJECTS
0
DICTIONARY
5
C
100
AcDbDictionary
3
ACAD_GROUP
350
D
3
ACAD_MLINESTYLE
350
17
0
DICTIONARY
5
D
100
AcDbDictionary
0
DICTIONARY
5
1A
330
C
100
AcDbDictionary
0
DICTIONARY
5
17
100
AcDbDictionary
0
ENDSEC
0
EOF
