0
SECTION
2
HEADER
9
$INSUNITS
70
4
9
$ACADVER
1
AC1014
9
$HANDSEED
5
FFFF
0
ENDSEC
0
SECTION
2
TABLES
0
TABLE
2
VPORT
5
8
100
AcDbSymbolTable
0
ENDTAB
0
TABLE
2
LTYPE
5
5
100
AcDbSymbolTable
0
LTYPE
5
14
100
AcDbSymbolTableRecord
100
AcDbLinetypeTableRecord
2
BYBLOCK
70
0
0
LTYPE
5
15
100
AcDbSymbolTableRecord
100
AcDbLinetypeTableRecord
2
BYLAYER
70
0
0
ENDTAB
0
TABLE
2
LAYER
5
2
100
AcDbSymbolTable
70
2
0
LAYER
5
50
100
AcDbSymbolTableRecord
100
AcDbLayerTableRecord
2
0
70
0
6
CONTINUOUS
0
ENDTAB
0
TABLE
2
STYLE
5
3
100
AcDbSymbolTable
70
1
0
STYLE
5
11
100
AcDbSymbolTableRecord
100
AcDbTextStyleTableRecord
2
STANDARD
70
0
0
ENDTAB
0
TABLE
2
VIEW
5
6
100
AcDbSymbolTable
70
0
0
ENDTAB
0
TABLE
2
UCS
5
7
100
AcDbSymbolTable
70
0
0
ENDTAB
0
TABLE
2
APPID
5
9
100
AcDbSymbolTable
70
2
0
APPID
5
12
100
AcDbSymbolTableRecord
100
AcDbRegAppTableRecord
2
ACAD
70
0
0
ENDTAB
0
TABLE
2
DIMSTYLE
5
A
100
AcDbSymbolTable
70
1
0
ENDTAB
0
TABLE
2
BLOCK_RECORD
5
1
100
AcDbSymbolTable
70
1
0
BLOCK_RECORD
5
1F
100
AcDbSymbolTableRecord
100
AcDbBlockTableRecord
2
*MODEL_SPACE
0
BLOCK_RECORD
5
1B
100
AcDbSymbolTableRecord
100
AcDbBlockTableRecord
2
*PAPER_SPACE
0
ENDTAB
0
ENDSEC
0
SECTION
2
BLOCKS
0
BLOCK
5
20
100
AcDbEntity
100
AcDbBlockBegin
2
*MODEL_SPACE
0
ENDBLK
5
21
100
AcDbEntity
100
AcDbBlockEnd
0
BLOCK
5
1C
100
AcDbEntity
100
AcDbBlockBegin
2
*PAPER_SPACE
0
ENDBLK
5
1D
100
AcDbEntity
100
AcDbBlockEnd
0
ENDSEC
0
SECTION
2
ENTITIES
0
SPLINE
5
100
100
AcDbEntity
8
0
100
AcDbSpline
70
1064
71
3
72
8
73
4
74
0
42
0.000000001
43
0.0000000001
44
0.0000000001
40
0
40
0
40
0
40
0
40
1
40
1
40
1
40
1
10
-2.7645945408788086
20
0.82119699355323317
30
0
10
-3.3909442733121766
20
0.7012242005547229
30
0
10
-3.1832705977788187
20
1.0659720256391776
30
0
10
-1.9569180169337705
20
2.2397607294083892
30
0
0
SPLINE
5
101
100
AcDbEntity
8
0
100
AcDbSpline
70
1064
71
3
72
8
73
4
74
0
42
0.000000001
43
0.0000000001
44
0.0000000001
40
0
40
0
40
0
40
0
40
1
40
1
40
1
40
1
10
-0.79731090891569822
20
-0.75320043311310192
30
0
10
-2.3978184183782965
20
0.84730707634949609
30
0
10
-2.442325058822072
20
0.88292517796901182
30
0
10
-2.7645945408788086
20
0.82119699355323317
30
0
0
SPLINE
5
102
100
AcDbEntity
8
0
100
AcDbSpline
70
1064
71
3
72
8
73
4
74
0
42
0.000000001
43
0.0000000001
44
0.0000000001
40
0
40
0
40
0
40
0
40
0.86414860345550104
40
0.86414860345550104
40
0.86414860345550104
40
0.86414860345550104
10
-2.7932894539289341
20
-0.92720437153990343
30
0
10
-2.5914654282749838
20
-1.2642846039404958
30
0
10
-2.5994260596656082
20
-1.8264361330937715
30
0
10
-2.7919684837648298
20
-2.2458129393396726
30
0
0
SPLINE
5
103
100
AcDbEntity
8
0
100
AcDbSpline
70
1064
71
3
72
8
73
4
74
0
42
0.000000001
43
0.0000000001
44
0.0000000001
40
0
40
0
40
0
40
0
40
1
40
1
40
1
40
1
10
-5.4465065528253209
20
-1.2598933573055087
30
0
10
-4.3189882589647599
20
-0.29093196834847512
30
0
10
-3.2541930643731987
20
-0.15741704282359187
30
0
10
-2.7932894539289341
20
-0.92720437153990343
30
0
0
SPLINE
5
104
100
AcDbEntity
8
0
100
AcDbSpline
70
1064
71
3
72
8
73
4
74
0
42
0.000000001
43
0.0000000001
44
0.0000000001
40
0
40
0
40
0
40
0
40
1
40
1
40
1
40
1
10
-5.9610863566500694
20
-2.0502206944239134
30
0
10
-6.1402060008750068
20
-1.8711010501989755
30
0
10
-6.1179449371531298
20
-1.8369119990126213
30
0
10
-5.4465065528253209
20
-1.2598933573055087
30
0
0
SPLINE
5
105
100
AcDbEntity
8
0
100
AcDbSpline
70
1064
71
3
72
8
73
4
74
0
42
0.000000001
43
0.0000000001
44
0.0000000001
40
0
40
0
40
0
40
0
40
1
40
1
40
1
40
1
10
-5.6716085987174409
20
-2.1351776302696717
30
0
10
-5.727851887238911
20
-2.19142091879114
30
0
10
-5.8581172904626246
20
-2.1531897606113577
30
0
10
-5.9610863566500694
20
-2.0502206944239134
30
0
0
SPLINE
5
106
100
AcDbEntity
8
0
100
AcDbSpline
70
1064
71
3
72
8
73
4
74
0
42
0.000000001
43
0.0000000001
44
0.0000000001
40
0
40
0
40
0
40
0
40
1
40
1
40
1
40
1
10
-4.5322842150696214
20
-2.4313262885462916
30
0
10
-4.9580887881838498
20
-2.0055217154320633
30
0
10
-5.4214970461885601
20
-1.8850660777407899
30
0
10
-5.6716085987174409
20
-2.1351776302696717
30
0
0
SPLINE
5
107
100
AcDbEntity
8
0
100
AcDbSpline
70
1064
71
3
72
8
73
4
74
0
42
0.000000001
43
0.0000000001
44
0.0000000001
40
0
40
0
40
0
40
0
40
1
40
1
40
1
40
1
10
-4.1180876480171689
20
-3.5501308968081151
30
0
10
-3.8835585153661798
20
-3.315601764157126
30
0
10
-4.0220235357055953
20
-2.9415869679103182
30
0
10
-4.5322842150696214
20
-2.4313262885462916
30
0
0
LINE
5
108
100
AcDbEntity
8
0
100
AcDbLine
10
-7.3344604035983982
20
-3.1308692669497011
30
0
11
-6.6545484733734153
21
-2.4173109830843509
31
0
0
SPLINE
5
109
100
AcDbEntity
8
0
100
AcDbSpline
70
1064
71
3
72
8
73
4
74
0
42
0.000000001
43
0.0000000001
44
0.0000000001
40
0
40
0
40
0
40
0
40
1
40
1
40
1
40
1
10
-8.2479960283729543
20
-4.3302141717070688
30
0
10
-8.3046660640567218
20
-4.2181122942553255
30
0
10
-8.0613295534293687
20
-3.89864487201945
30
0
10
-7.3344604035971672
20
-3.1308692669491562
30
0
0
LINE
5
110
100
AcDbEntity
8
0
100
AcDbLine
10
-6.2967794337153489
20
-2.4129923153844408
30
0
11
-4.3797117867047533
21
-4.3300599623950369
31
0
0
SPLINE
5
111
100
AcDbEntity
8
0
100
AcDbSpline
70
1064
71
3
72
8
73
4
74
0
42
0.000000001
43
0.0000000001
44
0.0000000001
40
0
40
0
40
0
40
0
40
1
40
1
40
1
40
1
10
-7.9393581974506819
20
-4.3475217372220136
30
0
10
-8.0670648735091977
20
-4.4222808582698345
30
0
10
-8.205724308778743
20
-4.4145062125516263
30
0
10
-8.2479960283743363
20
-4.3302141717078122
30
0
0
SPLINE
5
112
100
AcDbEntity
8
0
100
AcDbSpline
70
1064
71
3
72
8
73
4
74
0
42
0.000000001
43
0.0000000001
44
0.0000000001
40
0
40
0
40
0
40
0
40
1
40
1
40
1
40
1
10
-5.971497237605444
20
-5.9477536655116729
30
0
10
-7.6630063589201018
20
-4.2562445441970151
30
0
10
-7.7134156071244444
20
-4.2152525160338152
30
0
10
-7.9393581974506819
20
-4.3475217372220136
30
0
0
SPLINE
5
113
100
AcDbEntity
8
0
100
AcDbSpline
70
1064
71
3
72
8
73
4
74
0
42
0.000000001
43
0.0000000001
44
0.0000000001
40
0.2767775998696998
40
0.2767775998696998
40
0.2767775998696998
40
0.2767775998696998
40
1
40
1
40
1
40
1
10
-2.457895132195453
20
-2.5761275357798579
30
0
10
-2.237905015416954
20
-2.4720969495162635
30
0
10
-1.9679779837720821
20
-2.3970163628964647
30
0
10
-1.7460735030507299
20
-2.3845360649771958
30
0
0
LINE
5
114
100
AcDbEntity
8
0
100
AcDbLine
10
1.909238172297214
20
6.1441348379320821
30
0
11
2.7823182954585075
21
7.0172149610933765
31
0
0
SPLINE
5
115
100
AcDbEntity
8
0
100
AcDbSpline
70
1064
71
3
72
8
73
4
74
0
42
0.000000001
43
0.0000000001
44
0.0000000001
40
0
40
0
40
0
40
0
40
1
40
1
40
1
40
1
10
-1.7460735030507299
20
-2.3845360649771958
30
0
10
-1.3102997981785147
20
-2.3600251398234944
30
0
10
-1.1468205251862147
20
-2.4197125373071069
30
0
10
-0.85761329017250365
20
-2.7089197723208178
30
0
0
LINE
5
116
100
AcDbEntity
8
0
100
AcDbLine
10
1.0361590482972092
20
5.2710557139320766
30
0
11
1.909238172297214
21
6.1441348379320821
31
0
0
SPLINE
5
117
100
AcDbEntity
8
0
100
AcDbSpline
70
1064
71
3
72
8
73
4
74
0
42
0.000000001
43
0.0000000001
44
0.0000000001
40
0
40
0
40
0
40
0
40
1
40
1
40
1
40
1
10
-0.85761329017250365
20
-2.7089197723208178
30
0
10
-0.15513995705643824
20
-3.4113931054368836
30
0
10
-0.37349816383048878
20
-4.4962599515764614
30
0
10
-1.4341158650740033
20
-5.5731479952451366
30
0
0
LINE
5
118
100
AcDbEntity
8
0
100
AcDbLine
10
2.9026333011983985
20
3.4045814610308884
30
0
11
1.0361590482972092
21
5.2710557139320766
31
0
0
SPLINE
5
119
100
AcDbEntity
8
0
100
AcDbSpline
70
1064
71
3
72
8
73
4
74
0
42
0.000000001
43
0.0000000001
44
0.0000000001
40
0
40
0
40
0
40
0
40
1
40
1
40
1
40
1
10
-1.4341158650740033
20
-5.5731479952451366
30
0
10
-1.8758203415656094
20
-6.0216227886289619
30
0
10
-1.9521177963125411
20
-6.059188755180795
30
0
10
-2.1069320928189272
20
-5.9043749582550547
30
0
0
SPLINE
5
120
100
AcDbEntity
8
0
100
AcDbSpline
70
1064
71
3
72
8
73
4
74
0
42
0.000000001
43
0.0000000001
44
0.0000000001
40
0
40
0
40
0
40
0
40
1
40
1
40
1
40
1
10
0.99300327391575371
20
4.3443056421483561
30
0
10
1.0008406950643023
20
4.1871775378876697
30
0
10
1.1258617504739619
20
3.7952585207183533
30
0
10
1.2708280635286162
20
3.4733767132416302
30
0
0
LINE
5
121
100
AcDbEntity
8
0
100
AcDbLine
10
-2.4583247128316938
20
-6.6050004268613707
30
0
11
-3.1390165528109653
21
-7.2856922668406412
31
0
0
SPLINE
5
122
100
AcDbEntity
8
0
100
AcDbSpline
70
1064
71
3
72
8
73
4
74
0
42
0.000000001
43
0.0000000001
44
0.0000000001
40
0
40
0
40
0
40
0
40
1
40
1
40
1
40
1
10
0.20673128267785335
20
4.4416279483127221
30
0
10
0.7270275380255653
20
4.9619242036604341
30
0
10
0.96366090435055174
20
4.932634789643533
30
0
10
0.99300327391575371
20
4.3443056421483561
30
0
0
SPLINE
5
123
100
AcDbEntity
8
0
100
AcDbSpline
70
1064
71
3
72
8
73
4
74
0
42
0.000000001
43
0.0000000001
44
0.0000000001
40
0
40
0
40
0
40
0
40
1
40
1
40
1
40
1
10
-4.2791734563788033
20
-8.2512337452729927
30
0
10
-4.4705005566030485
20
-8.2060673617526696
30
0
10
-4.5155663682949054
20
-7.9637783834600633
30
0
10
-4.3613288376424206
20
-7.8095408528075776
30
0
0
SPLINE
5
124
100
AcDbEntity
8
0
100
AcDbSpline
70
1064
71
3
72
8
73
4
74
0
42
0.000000001
43
0.0000000001
44
0.0000000001
40
0
40
0
40
0
40
0
40
1
40
1
40
1
40
1
10
1.2168114059390089
20
2.5936092035750797
30
0
10
1.1494659367581692
20
2.5936092035750797
30
0
10
0.78660352902548814
20
2.9013698645586308
30
0
10
0.41045127699183087
20
3.2775221165922872
30
0
0
SPLINE
5
125
100
AcDbEntity
8
0
100
AcDbSpline
70
1064
71
3
72
8
73
4
74
0
42
0.000000001
43
0.0000000001
44
0.0000000001
40
0
40
0
40
0
40
0
40
1
40
1
40
1
40
1
10
-4.3613288376424206
20
-7.8095408528075776
30
0
10
-4.2560065592773508
20
-7.7042185744425096
30
0
10
-4.51821114822609
20
-7.4010397548910252
30
0
10
-5.971497237605444
20
-5.9477536655116729
30
0
0
SPLINE
5
126
100
AcDbEntity
8
0
100
AcDbSpline
70
1064
71
3
72
8
73
4
74
0
42
0.000000001
43
0.0000000001
44
0.0000000001
40
0
40
0
40
0
40
0
40
1
40
1
40
1
40
1
10
-0.64119895168561669
20
2.9506375085430525
30
0
10
-0.77343395159967532
20
2.724753119361881
30
0
10
-0.73230597505363315
20
2.6741161248312983
30
0
10
0.94884983698753433
20
0.99296031279013097
30
0
0
SPLINE
5
127
100
AcDbEntity
8
0
100
AcDbSpline
70
1064
71
3
72
8
73
4
74
0
42
0.000000001
43
0.0000000001
44
0.0000000001
40
0
40
0
40
0
40
0
40
1
40
1
40
1
40
1
10
-3.1390165528109653
20
-7.2856922668406412
30
0
10
-3.7107648685105166
20
-7.8574405825401925
30
0
10
-4.1983149864679152
20
-8.270321379070591
30
0
10
-4.2791734563788033
20
-8.2512337452729927
30
0
0
SPLINE
5
128
100
AcDbEntity
8
0
100
AcDbSpline
70
1064
71
3
72
8
73
4
74
0
42
0.000000001
43
0.0000000001
44
0.0000000001
40
0
40
0
40
0
40
0
40
1
40
1
40
1
40
1
10
-0.65852340927035513
20
3.2592584473961694
30
0
10
-0.5742116818267734
20
3.2169904278197228
30
0
10
-0.56642871496845904
20
3.0783612952386408
30
0
10
-0.64119895168561669
20
2.9506375085430525
30
0
0
SPLINE
5
129
100
AcDbEntity
8
0
100
AcDbSpline
70
1064
71
3
72
8
73
4
74
0
42
0.000000001
43
0.0000000001
44
0.0000000001
40
0
40
0
40
0
40
0
40
1
40
1
40
1
40
1
10
-2.1069320928189272
20
-5.9043749582550547
30
0
10
-2.2223002510184724
20
-5.7890068000555095
30
0
10
-2.2233421264522617
20
-5.6715541416174187
30
0
10
-2.1100032648300631
20
-5.5582152799952205
30
0
0
SPLINE
5
130
100
AcDbEntity
8
0
100
AcDbSpline
70
1064
71
3
72
8
73
4
74
0
42
0.000000001
43
0.0000000001
44
0.0000000001
40
0
40
0
40
0
40
0
40
1
40
1
40
1
40
1
10
-1.9569180169337705
20
2.2397607294083892
30
0
10
-1.1068620669285947
20
3.0533812638598947
30
0
10
-0.77213154485985847
20
3.3162111404326158
30
0
10
-0.65852340927035513
20
3.2592584473961694
30
0
0
SPLINE
5
131
100
AcDbEntity
8
0
100
AcDbSpline
70
1064
71
3
72
8
73
4
74
0
42
0.000000001
43
0.0000000001
44
0.0000000001
40
0
40
0
40
0
40
0
40
1
40
1
40
1
40
1
10
-2.1100032648300631
20
-5.5582152799952205
30
0
10
-1.8708315292511382
20
-5.3190435444162958
30
0
10
-2.0159644524506821
20
-4.9476460511652309
30
0
10
-2.5619591361437131
20
-4.4016513674721995
30
0
0
LINE
5
132
100
AcDbEntity
8
0
100
AcDbLine
10
4.2755553319723125
20
8.1444428490451966
30
0
11
4.7929695239962786
21
7.5892158148086466
31
0
0
SPLINE
5
133
100
AcDbEntity
8
0
100
AcDbSpline
70
1064
71
3
72
8
73
4
74
0
42
0.000000001
43
0.0000000001
44
0.0000000001
40
0
40
0
40
0
40
0
40
1
40
1
40
1
40
1
10
-2.5619591361437131
20
-4.4016513674721995
30
0
10
-3.0492700798676293
20
-3.9143404237482837
30
0
10
-3.5875315049764578
20
-3.7180384526319248
30
0
10
-3.8143885776721764
20
-3.9448955253276434
30
0
0
LINE
5
134
100
AcDbEntity
8
0
100
AcDbLine
10
3.6152770970721226
20
7.8501737627069925
30
0
11
3.9158838011789152
21
8.1507804668137833
31
0
0
SPLINE
5
135
100
AcDbEntity
8
0
100
AcDbSpline
70
1064
71
3
72
8
73
4
74
0
42
0.000000001
43
0.0000000001
44
0.0000000001
40
0
40
0
40
0
40
0
40
1
40
1
40
1
40
1
10
-3.8143885776721764
20
-3.9448955253276434
30
0
10
-3.8836949008820865
20
-4.0142018485375539
30
0
10
-4.0189770929363542
20
-3.9923299581376277
30
0
10
-4.1150154768447438
20
-3.8962915742292381
30
0
0
LINE
5
136
100
AcDbEntity
8
0
100
AcDbLine
10
-0.0966849407287379
20
4.1382117249061316
30
0
11
0.20673128267785418
21
4.441627948312723
31
0
0
SPLINE
5
137
100
AcDbEntity
8
0
100
AcDbSpline
70
1064
71
3
72
8
73
4
74
0
42
0.000000001
43
0.0000000001
44
0.0000000001
40
0
40
0
40
0
40
0
40
1
40
1
40
1
40
1
10
-4.1150154768447438
20
-3.8962915742292381
30
0
10
-4.2303846342055769
20
-3.780922416868405
30
0
10
-4.2314265096393671
20
-3.6634697584303133
30
0
10
-4.1180876480171689
20
-3.5501308968081151
30
0
0
LINE
5
138
100
AcDbEntity
8
0
100
AcDbLine
10
0.4104512769918317
20
3.2775221165922872
30
0
11
-0.096684940728738455
21
3.7846583343128577
31
0
0
LINE
5
139
100
AcDbEntity
8
0
100
AcDbLine
10
2.7823182954585075
20
7.0172149610933765
30
0
11
4.6929125133847469
21
5.1066207431671398
31
0
0
SPLINE
5
140
100
AcDbEntity
8
0
100
AcDbSpline
70
1064
71
3
72
8
73
4
74
0
42
0.000000001
43
0.0000000001
44
0.0000000001
40
0
40
0
40
0
40
0
40
1
40
1
40
1
40
1
10
4.7929695239962777
20
7.5892158148086466
30
0
10
5.3749200258244052
20
6.9647350135657895
30
0
10
5.4670207150940344
20
6.8152045317443637
30
0
10
5.3635475720364401
20
6.6628524184436504
30
0
0
SPLINE
5
141
100
AcDbEntity
8
0
100
AcDbSpline
70
1064
71
3
72
8
73
4
74
0
42
0.000000001
43
0.0000000001
44
0.0000000001
40
0
40
0
40
0
40
0
40
1
40
1
40
1
40
1
10
3.2954780413016915
20
7.2025229107598658
30
0
10
3.1548405945303233
20
7.3431603575312341
30
0
10
3.2002734574887226
20
7.4351701231235925
30
0
10
3.6152770970721217
20
7.8501737627069907
30
0
0
SPLINE
5
142
100
AcDbEntity
8
0
100
AcDbSpline
70
1064
71
3
72
8
73
4
74
0
42
0.000000001
43
0.0000000001
44
0.0000000001
40
0
40
0
40
0
40
0
40
1
40
1
40
1
40
1
10
3.6818642028348414
20
7.0592726572185525
30
0
10
3.5595109080660059
20
7.0479022017531676
30
0
10
3.3856368606067342
20
7.1123640914548236
30
0
10
3.2954780413016915
20
7.2025229107598658
30
0
0
SPLINE
5
143
100
AcDbEntity
8
0
100
AcDbSpline
70
1064
71
3
72
8
73
4
74
0
42
0.000000001
43
0.0000000001
44
0.0000000001
40
0
40
0
40
0
40
0
40
1
40
1
40
1
40
1
10
4.9038084840741538
20
6.6377205145490246
30
0
10
4.1358521184193817
20
6.9951534798389181
30
0
10
3.8930908959108077
20
7.0789041782188971
30
0
10
3.6818642028348414
20
7.0592726572185525
30
0
0
SPLINE
5
144
100
AcDbEntity
8
0
100
AcDbSpline
70
1064
71
3
72
8
73
4
74
0
42
0.000000001
43
0.0000000001
44
0.0000000001
40
0
40
0
40
0
40
0
40
1
40
1
40
1
40
1
10
0.88369502893216456
20
-3.0617875696826511
30
0
10
0.7812605140341754
20
-3.0376063677542211
30
0
10
0.73837151571680226
20
-2.8952188899856974
30
0
10
0.77656145849342617
20
-2.7061096311963539
30
0
0
SPLINE
5
145
100
AcDbEntity
8
0
100
AcDbSpline
70
1064
71
3
72
8
73
4
74
0
42
0.000000001
43
0.0000000001
44
0.0000000001
40
0
40
0
40
0
40
0
40
1
40
1
40
1
40
1
10
0.77656145849342617
20
-2.7061096311963539
30
0
10
0.8381467628449204
20
-2.4011406268534277
30
0
10
0.78631377225176591
20
-2.3368251142805656
30
0
10
-0.79731090891569822
20
-0.75320043311310192
30
0
0
SPLINE
5
146
100
AcDbEntity
8
0
100
AcDbSpline
70
1064
71
3
72
8
73
4
74
0
42
0.000000001
43
0.0000000001
44
0.0000000001
40
0
40
0
40
0
40
0
40
1
40
1
40
1
40
1
10
0.94884983698753433
20
0.99296031279013097
30
0
10
2.6300066481899909
20
-0.68819649841232522
30
0
10
2.6806421439786403
20
-0.72932397537772276
30
0
10
2.9065270327404544
20
-0.59708847588301817
30
0
0
SPLINE
5
147
100
AcDbEntity
8
0
100
AcDbSpline
70
1064
71
3
72
8
73
4
74
0
42
0.000000001
43
0.0000000001
44
0.0000000001
40
0
40
0
40
0
40
0
40
1
40
1
40
1
40
1
10
2.9065270327404544
20
-0.59708847588301817
30
0
10
3.0342573139844187
20
-0.52231374294006239
30
0
10
3.1728744566300393
20
-0.53009970728224309
30
0
10
3.2151394787226195
20
-0.61442042717742207
30
0
0
SPLINE
5
148
100
AcDbEntity
8
0
100
AcDbSpline
70
1064
71
3
72
8
73
4
74
0
42
0.000000001
43
0.0000000001
44
0.0000000001
40
0
40
0
40
0
40
0
40
1
40
1
40
1
40
1
10
3.2151394787226195
20
-0.61442042717742207
30
0
10
3.3213952859692366
20
-0.82640548367151301
30
0
10
1.1353098196198923
20
-3.1211857099731857
30
0
10
0.88369502893216456
20
-3.0617875696826511
30
0
0
SPLINE
5
149
100
AcDbEntity
8
0
100
AcDbSpline
70
1064
71
3
72
8
73
4
74
0
42
0.000000001
43
0.0000000001
44
0.0000000001
40
0
40
0
40
0
40
0
40
1
40
1
40
1
40
1
10
4.8125580810612076
20
0.86707548244639276
30
0
10
4.7101230665825735
20
0.89125618479417823
30
0
10
4.6672340682652003
20
1.0336436625627017
30
0
10
4.7054240110418242
20
1.2227529213520456
30
0
0
SPLINE
5
150
100
AcDbEntity
8
0
100
AcDbSpline
70
1064
71
3
72
8
73
4
74
0
42
0.000000001
43
0.0000000001
44
0.0000000001
40
0
40
0
40
0
40
0
40
1
40
1
40
1
40
1
10
1.2708280635286162
20
3.4733767132416302
30
0
10
1.5182463768038101
20
2.9240118585218209
30
0
10
1.4979594059980812
20
2.5936072052525025
30
0
10
1.2168114059390089
20
2.5936092035750797
30
0
0
LINE
5
151
100
AcDbEntity
8
0
100
AcDbLine
10
-4.3797117867047533
20
-4.3300599623950369
30
0
11
-2.4583247128316938
21
-6.2514470362680967
31
0
0
SPLINE
5
152
100
AcDbEntity
8
0
100
AcDbSpline
70
1064
71
3
72
8
73
4
74
0
42
0.000000001
43
0.0000000001
44
0.0000000001
40
0
40
0
40
0
40
0
40
1
40
1
40
1
40
1
10
4.7054240110418242
20
1.2227529213520456
30
0
10
4.7674729262312763
20
1.5300100050460905
30
0
10
4.7211767879194415
20
1.5860379743098458
30
0
10
2.902633301198398
20
3.4045814610308889
30
0
0
SPLINE
5
153
100
AcDbEntity
8
0
100
AcDbSpline
70
1064
71
3
72
8
73
4
74
0
42
0.000000001
43
0.0000000001
44
0.0000000001
40
0
40
0
40
0
40
0
40
1
40
1
40
1
40
1
10
4.6929125133847451
20
5.1066207431671407
30
0
10
6.5619496149914465
20
3.2375836415604398
30
0
10
6.608552495818909
20
3.1989820443328716
30
0
10
6.8353890857082096
20
3.3317735770847365
30
0
0
SPLINE
5
154
100
AcDbEntity
8
0
100
AcDbSpline
70
1064
71
3
72
8
73
4
74
0
42
0.000000001
43
0.0000000001
44
0.0000000001
40
0
40
0
40
0
40
0
40
1
40
1
40
1
40
1
10
6.8353890857082096
20
3.3317735770847365
30
0
10
6.963118867371529
20
3.4065478104470488
30
0
10
7.1017355104365043
20
3.398761346524223
30
0
10
7.1440010321097294
20
3.3144411262096884
30
0
0
SPLINE
5
155
100
AcDbEntity
8
0
100
AcDbSpline
70
1064
71
3
72
8
73
4
74
0
42
0.000000001
43
0.0000000001
44
0.0000000001
40
0
40
0
40
0
40
0
40
1
40
1
40
1
40
1
10
7.1440010321097294
20
3.3144411262096884
30
0
10
7.2502558401950594
20
3.1024550705543104
30
0
10
5.0641718725876474
20
0.80767634299457047
30
0
10
4.8125580810612076
20
0.86707548244639276
30
0
0
SPLINE
5
156
100
AcDbEntity
8
0
100
AcDbSpline
70
1064
71
3
72
8
73
4
74
0
42
0.000000001
43
0.0000000001
44
0.0000000001
40
0
40
0
40
0
40
0
40
1
40
1
40
1
40
1
10
5.3635475720364401
20
6.6628524184436504
30
0
10
5.2811387472671845
20
6.5415102748989797
30
0
10
5.1284509157734721
20
6.5331652798157727
30
0
10
4.9038084840741538
20
6.6377205145490246
30
0
0
SPLINE
5
157
100
AcDbEntity
8
0
100
AcDbSpline
70
1064
71
3
72
8
73
4
74
0
42
0.000000001
43
0.0000000001
44
0.0000000001
40
0
40
0
40
0
40
0
40
1
40
1
40
1
40
1
10
-8.0349580595004113
20
8.2970989228778151
30
0
10
-8.1899144867001148
20
8.4520553500775168
30
0
10
-8.1628761830666523
20
8.502223238383058
30
0
10
-7.7750617204713084
20
8.7793196394164568
30
0
0
SPLINE
5
158
100
AcDbEntity
8
0
100
AcDbSpline
70
1064
71
3
72
8
73
4
74
0
42
0.000000001
43
0.0000000001
44
0.0000000001
40
0
40
0
40
0
40
0
40
1
40
1
40
1
40
1
10
-7.5108244003282927
20
5.2129102131578566
30
0
10
-8.6167905354013108
20
4.7842275559515333
30
0
10
-9.2925665286736798
20
5.122222088160127
30
0
10
-9.3584844461632937
20
6.1370314915910136
30
0
0
SPLINE
5
159
100
AcDbEntity
8
0
100
AcDbSpline
70
1064
71
3
72
8
73
4
74
0
42
0.000000001
43
0.0000000001
44
0.0000000001
40
0
40
0
40
0
40
0
40
1
40
1
40
1
40
1
10
-2.8019950638543234
20
6.3889030667299371
30
0
10
-2.6629832524996671
20
5.8155158767265993
30
0
10
-2.8476082754253329
20
5.2398321145011888
30
0
10
-3.3809076157841633
20
4.5837808140193319
30
0
0
SPLINE
5
160
100
AcDbEntity
8
0
100
AcDbSpline
70
1064
71
3
72
8
73
4
74
0
42
0.000000001
43
0.0000000001
44
0.0000000001
40
0
40
0
40
0
40
0
40
1
40
1
40
1
40
1
10
-9.3584844461632937
20
6.1370314915910136
30
0
10
-9.395446169925787
20
6.7060595906820826
30
0
10
-9.2515560784742199
20
7.1015317502891691
30
0
10
-8.7435776083887422
20
7.8270598558758202
30
0
0
SPLINE
5
161
100
AcDbEntity
8
0
100
AcDbSpline
70
1064
71
3
72
8
73
4
74
0
42
0.000000001
43
0.0000000001
44
0.0000000001
40
0
40
0
40
0
40
0
40
0.9108759897462958
40
0.9108759897462958
40
0.9108759897462958
40
0.9108759897462958
10
-7.2499308983330675
20
3.399664779170136
30
0
10
-7.47229310940331
20
3.7710469134416158
30
0
10
-7.4435392368530966
20
4.494122215054718
30
0
10
-7.2068112923381911
20
4.9560442613511118
30
0
0
SPLINE
5
162
100
AcDbEntity
8
0
100
AcDbSpline
70
1064
71
3
72
8
73
4
74
0
42
0.000000001
43
0.0000000001
44
0.0000000001
40
0
40
0
40
0
40
0
40
1
40
1
40
1
40
1
10
-4.600847579478347
20
4.0772160322622
30
0
10
-4.5011782434468302
20
4.1216047716739093
30
0
10
-4.3452566264422448
20
4.0835492160906144
30
0
10
-4.2543554302996984
20
3.9926480199480685
30
0
0
SPLINE
5
163
100
AcDbEntity
8
0
100
AcDbSpline
70
1064
71
3
72
8
73
4
74
0
42
0.000000001
43
0.0000000001
44
0.0000000001
40
0
40
0
40
0
40
0
40
1
40
1
40
1
40
1
10
-7.6807918520439156
20
8.2048568522858361
30
0
10
-7.7804610631802742
20
8.1604679879789686
30
0
10
-7.9398359064937587
20
8.2019767698711625
30
0
10
-8.0349580595004113
20
8.2970989228778151
30
0
0
SPLINE
5
164
100
AcDbEntity
8
0
100
AcDbSpline
70
1064
71
3
72
8
73
4
74
0
42
0.000000001
43
0.0000000001
44
0.0000000001
40
0
40
0
40
0
40
0
40
1
40
1
40
1
40
1
10
-4.420317619094412
20
3.5037998665814909
30
0
10
-4.6024981939272775
20
3.325834753225644
30
0
10
-4.9643089844036039
20
3.0786717256597109
30
0
10
-5.2243417089486144
20
2.9545489162485916
30
0
0
SPLINE
5
165
100
AcDbEntity
8
0
100
AcDbSpline
70
1064
71
3
72
8
73
4
74
0
42
0.000000001
43
0.0000000001
44
0.0000000001
40
0
40
0
40
0
40
0
40
1
40
1
40
1
40
1
10
-3.9802170462614899
20
4.2423579096388941
30
0
10
-4.077836602909243
20
4.3399774662866468
30
0
10
-4.1213885447416665
20
4.5013954695403617
30
0
10
-4.0769998053299581
20
4.6010648055718786
30
0
0
SPLINE
5
166
100
AcDbEntity
8
0
100
AcDbSpline
70
1064
71
3
72
8
73
4
74
0
42
0.000000001
43
0.0000000001
44
0.0000000001
40
0
40
0
40
0
40
0
40
1
40
1
40
1
40
1
10
-8.7435776083887422
20
7.8270598558758202
30
0
10
-8.505843541009094
20
8.1666072096222102
30
0
10
-8.453196858441455
20
8.1914894480898255
30
0
10
-8.2989242322487051
20
8.0372168218970756
30
0
0
SPLINE
5
167
100
AcDbEntity
8
0
100
AcDbSpline
70
1064
71
3
72
8
73
4
74
0
42
0.000000001
43
0.0000000001
44
0.0000000001
40
0
40
0
40
0
40
0
40
1
40
1
40
1
40
1
10
-8.2989242322487051
20
8.0372168218970756
30
0
10
-8.2026787721632353
20
7.9409713618116049
30
0
10
-8.1602507618854361
20
7.7806772901125152
30
0
10
-8.2046397510874662
20
7.6810082038713201
30
0
0
SPLINE
5
168
100
AcDbEntity
8
0
100
AcDbSpline
70
1064
71
3
72
8
73
4
74
0
42
0.000000001
43
0.0000000001
44
0.0000000001
40
0
40
0
40
0
40
0
40
0.98466538363970035
40
0.98466538363970035
40
0.98466538363970035
40
0.98466538363970035
10
-6.8825387928980746
20
9.2869943644701713
30
0
10
-5.6204283638261803
20
9.8317377056584814
30
0
10
-4.7205009170338217
20
8.9054205782005162
30
0
10
-5.1832067818486296
20
7.5699538670944317
30
0
0
SPLINE
5
169
100
AcDbEntity
8
0
100
AcDbSpline
70
1064
71
3
72
8
73
4
74
0
42
0.000000001
43
0.0000000001
44
0.0000000001
40
0
40
0
40
0
40
0
40
1
40
1
40
1
40
1
10
-6.2838628306777817
20
5.7602312834616356
30
0
10
-6.3473877568809627
20
5.6175952643225493
30
0
10
-6.1961122398688238
20
5.4105565557881601
30
0
10
-5.5733172735103231
20
4.7877615894296603
30
0
0
SPLINE
5
170
100
AcDbEntity
8
0
100
AcDbSpline
70
1064
71
3
72
8
73
4
74
0
42
0.000000001
43
0.0000000001
44
0.0000000001
40
0
40
0
40
0
40
0
40
1
40
1
40
1
40
1
10
-8.2046397510874662
20
7.6810082038713201
30
0
10
-8.2671455327761745
20
7.5406602640833507
30
0
10
-8.1265900172304768
20
7.3410343331498131
30
0
10
-7.5814021562780729
20
6.7958464721974092
30
0
0
SPLINE
5
171
100
AcDbEntity
8
0
100
AcDbSpline
70
1064
71
3
72
8
73
4
74
0
42
0.000000001
43
0.0000000001
44
0.0000000001
40
0
40
0
40
0
40
0
40
1
40
1
40
1
40
1
10
-3.3809076157841633
20
4.5837808140193319
30
0
10
-3.7670869509305529
20
4.1087130931464806
30
0
10
-3.8177294408482232
20
4.0798623109353187
30
0
10
-3.9802170462614899
20
4.2423579096388941
30
0
0
SPLINE
5
172
100
AcDbEntity
8
0
100
AcDbSpline
70
1064
71
3
72
8
73
4
74
0
42
0.000000001
43
0.0000000001
44
0.0000000001
40
0
40
0
40
0
40
0
40
1
40
1
40
1
40
1
10
-6.6962406743944838
20
6.1726091271783368
30
0
10
-6.5965715881532887
20
6.2169981163803669
30
0
10
-6.4448534426902562
20
6.1831460323386267
30
0
10
-6.3590896841038731
20
6.0973822737522445
30
0
0
SPLINE
5
173
100
AcDbEntity
8
0
100
AcDbSpline
70
1064
71
3
72
8
73
4
74
0
42
0.000000001
43
0.0000000001
44
0.0000000001
40
0
40
0
40
0
40
0
40
1
40
1
40
1
40
1
10
-7.7750617204713084
20
8.7793196394164568
30
0
10
-7.536996181334132
20
8.9494194800028311
30
0
10
-7.1353608202128704
20
9.1778732124378912
30
0
10
-6.8825387928980746
20
9.2869943644701713
30
0
0
SPLINE
5
174
100
AcDbEntity
8
0
100
AcDbSpline
70
1064
71
3
72
8
73
4
74
0
42
0.000000001
43
0.0000000001
44
0.0000000001
40
0
40
0
40
0
40
0
40
1
40
1
40
1
40
1
10
-4.0769998053299581
20
4.6010648055718786
30
0
10
-3.959200188134365
20
4.8655692764644591
30
0
10
-5.4955105856368123
20
6.4018796739669064
30
0
10
-5.7600150565293928
20
6.2840800567713142
30
0
0
SPLINE
5
175
100
AcDbEntity
8
0
100
AcDbSpline
70
1064
71
3
72
8
73
4
74
0
42
0.000000001
43
0.0000000001
44
0.0000000001
40
0.33199836885612322
40
0.33199836885612322
40
0.33199836885612322
40
0.33199836885612322
40
1
40
1
40
1
40
1
10
-4.856976112137704
20
7.2548733396534129
30
0
10
-4.5073096125395988
20
7.3898129012075078
30
0
10
-4.0713400849381989
20
7.4508121822211359
30
0
10
-3.7805101832635692
20
7.380317358376276
30
0
0
SPLINE
5
176
100
AcDbEntity
8
0
100
AcDbSpline
70
1064
71
3
72
8
73
4
74
0
42
0.000000001
43
0.0000000001
44
0.0000000001
40
0
40
0
40
0
40
0
40
1
40
1
40
1
40
1
10
-5.5733172735103231
20
4.7877615894296603
30
0
10
-4.9505225569421443
20
4.1649668728614806
30
0
10
-4.7434838484077559
20
4.0136913558493426
30
0
10
-4.600847579478347
20
4.0772160322622
30
0
0
SPLINE
5
177
100
AcDbEntity
8
0
100
AcDbSpline
70
1064
71
3
72
8
73
4
74
0
42
0.000000001
43
0.0000000001
44
0.0000000001
40
0
40
0
40
0
40
0
40
1
40
1
40
1
40
1
10
-6.7956302452651673
20
7.5816193823716036
30
0
10
-7.340817981322413
20
8.1268071184288502
30
0
10
-7.5404437873607888
20
8.2673625090793852
30
0
10
-7.6807918520439156
20
8.2048568522858361
30
0
0
SPLINE
5
178
100
AcDbEntity
8
0
100
AcDbSpline
70
1064
71
3
72
8
73
4
74
0
42
0.000000001
43
0.0000000001
44
0.0000000001
40
0
40
0
40
0
40
0
40
1
40
1
40
1
40
1
10
-6.3590896841038731
20
6.0973822737522445
30
0
10
-6.2733259255174918
20
6.0116185151658632
30
0
10
-6.2394738414757525
20
5.8599003697028307
30
0
10
-6.2838628306777817
20
5.7602312834616356
30
0
0
SPLINE
5
179
100
AcDbEntity
8
0
100
AcDbSpline
70
1064
71
3
72
8
73
4
74
0
42
0.000000001
43
0.0000000001
44
0.0000000001
40
0
40
0
40
0
40
0
40
1
40
1
40
1
40
1
10
-7.5814021562780729
20
6.7958464721974092
30
0
10
-7.0362142953256646
20
6.250658611245
30
0
10
-6.8365886141824515
20
6.1101033454896285
30
0
10
-6.6962406743944838
20
6.1726091271783368
30
0
0
SPLINE
5
180
100
AcDbEntity
8
0
100
AcDbSpline
70
1064
71
3
72
8
73
4
74
0
42
0.000000001
43
0.0000000001
44
0.0000000001
40
0
40
0
40
0
40
0
40
1
40
1
40
1
40
1
10
-6.1723929002460949
20
6.6964579004880154
30
0
10
-6.1098871185573866
20
6.8368058402759821
30
0
10
-6.2504426341030817
20
7.0364317712095179
30
0
10
-6.7956302452651673
20
7.5816193823716036
30
0
0
SPLINE
5
181
100
AcDbEntity
8
0
100
AcDbSpline
70
1064
71
3
72
8
73
4
74
0
42
0.000000001
43
0.0000000001
44
0.0000000001
40
0
40
0
40
0
40
0
40
1
40
1
40
1
40
1
10
-4.2543554302996984
20
3.9926480199480685
30
0
10
-4.1208949590650494
20
3.85918754871342
30
0
10
-4.152842142109888
20
3.7650865385438181
30
0
10
-4.420317619094412
20
3.5037998665814909
30
0
0
SPLINE
5
182
100
AcDbEntity
8
0
100
AcDbSpline
70
1064
71
3
72
8
73
4
74
0
42
0.000000001
43
0.0000000001
44
0.0000000001
40
0
40
0
40
0
40
0
40
1
40
1
40
1
40
1
10
-3.7805101832635692
20
7.380317358376276
30
0
10
-3.2272675835823215
20
7.2462169243362151
30
0
10
-2.9390395266315341
20
6.9541900561657988
30
0
10
-2.8019950638543234
20
6.3889030667299371
30
0
0
SPLINE
5
183
100
AcDbEntity
8
0
100
AcDbSpline
70
1064
71
3
72
8
73
4
74
0
42
0.000000001
43
0.0000000001
44
0.0000000001
40
0
40
0
40
0
40
0
40
1
40
1
40
1
40
1
10
-5.7600150565293928
20
6.2840800567713142
30
0
10
-5.8596841427705897
20
6.2396910675692832
30
0
10
-6.0114022882336196
20
6.2735431516110243
30
0
10
-6.0971660468200017
20
6.3593069101974056
30
0
0
SPLINE
5
184
100
AcDbEntity
8
0
100
AcDbSpline
70
1064
71
3
72
8
73
4
74
0
42
0.000000001
43
0.0000000001
44
0.0000000001
40
0
40
0
40
0
40
0
40
1
40
1
40
1
40
1
10
-5.2243417089486144
20
2.9545489162485916
30
0
10
-6.0141292491807992
20
2.5775538716679183
30
0
10
-6.8703540209823979
20
2.7657064335233312
30
0
10
-7.2499308983330675
20
3.399664779170136
30
0
0
LINE
5
185
100
AcDbEntity
8
0
100
AcDbLine
10
-7.4570810400034615
20
5.2337416566125263
30
0
11
-7.5108244003282945
21
5.2129102131578575
31
0
0
SPLINE
5
186
100
AcDbEntity
8
0
100
AcDbSpline
70
1064
71
3
72
8
73
4
74
0
42
0.000000001
43
0.0000000001
44
0.0000000001
40
0
40
0
40
0
40
0
40
1
40
1
40
1
40
1
10
-6.0971660468200017
20
6.3593069101974056
30
0
10
-6.182929805406383
20
6.4450706687837869
30
0
10
-6.216781889448125
20
6.5967888142468194
30
0
10
-6.1723929002460949
20
6.6964579004880154
30
0
0
CIRCLE
5
187
100
AcDbEntity
8
0
100
AcDbCircle
10
-12.727922061357857
20
12.727922061357855
30
0
40
1.0000000000000009
0
ARC
5
188
100
AcDbEntity
8
0
100
AcDbCircle
10
-12.727922061357857
20
12.727922061357855
30
0
40
2.7500000149011612
100
AcDbArc
50
77.372004618426658
51
192.46775593655843
0
ARC
5
189
100
AcDbEntity
8
0
100
AcDbCircle
10
12.727922061357857
20
12.727922061357855
30
0
40
2.7500000149011634
100
AcDbArc
50
-12.627995381573347
51
102.46775593655846
0
CIRCLE
5
190
100
AcDbEntity
8
0
100
AcDbCircle
10
12.727922061357857
20
12.727922061357855
30
0
40
1.0000000000000009
0
CIRCLE
5
191
100
AcDbEntity
8
0
100
AcDbCircle
10
-12.727922061357857
20
-12.727922061357855
30
0
40
1.0000000000000009
0
ARC
5
192
100
AcDbEntity
8
0
100
AcDbCircle
10
-12.727922061357857
20
-12.727922061357855
30
0
40
2.7500000149011612
100
AcDbArc
50
167.3720046184267
51
282.46775593655866
0
CIRCLE
5
193
100
AcDbEntity
8
0
100
AcDbCircle
10
12.727922061357855
20
-12.727922061357857
30
0
40
1.0000000000000009
0
LWPOLYLINE
5
194
100
AcDbEntity
8
0
100
AcDbPolyline
90
4
70
1
43
0.0
10
-1.0857923326628527
20
45.119318181818201
42
-9.0999738356501503
10
1.0857923326629138
20
45.119318181818208
42
0.26935393690361931
10
0.71662293955748102
20
44.778750000000031
42
-0.73783571640412149
10
-0.71662293955748879
20
44.778750000000031
42
0.26935393690377873
0
ARC
5
195
100
AcDbEntity
8
0
100
AcDbCircle
10
0
20
50
30
0
40
7.0000000000003002
100
AcDbArc
50
-42.667925494110726
51
222.66792549411025
0
ARC
5
196
100
AcDbEntity
8
0
100
AcDbCircle
10
-12.500000000000108
20
38.478281378196037
30
0
40
10.000000000000009
100
AcDbArc
50
0
51
42.667925494111103
0
ARC
5
197
100
AcDbEntity
8
0
100
AcDbCircle
10
12.500000000000011
20
38.478281378196073
30
0
40
10.000000000000398
100
AcDbArc
50
137.33207450588904
51
180
0
LINE
5
198
100
AcDbEntity
8
0
100
AcDbLine
10
-2.5000000000000622
20
23.217841785497235
30
0
11
-2.5000000000001044
21
38.478281378196073
31
0
0
LINE
5
199
100
AcDbEntity
8
0
100
AcDbLine
10
2.5
20
23.224441083607751
30
0
11
2.5000000000000044
21
38.478281378196073
31
0
0
LWPOLYLINE
5
200
100
AcDbEntity
8
0
100
AcDbPolyline
90
12
70
1
43
0.0
10
10.2404534685913
20
13.477922061357861
10
2.4453445286339663
20
13.477922061357855
42
0.66817863791929866
10
1.7382377474474153
20
11.770815280171297
10
3.3261318862910736
20
10.51417536873516
42
-0.02899079819509812
10
3.4992085117258287
20
10.3600843995305
10
10.360084399530496
20
3.4992085117258371
42
-0.028990798195097898
10
10.514175368735188
20
3.3261318862910438
10
11.770815280171313
20
1.7382377474474016
42
0.66817863791929877
10
13.477922061357859
20
2.4453445286339481
10
13.47792206135785
20
10.24045346859131
42
0.44386569119319413
10
12.927922061357853
20
10.73794718714462
42
-0.47418455013371802
10
10.737947187144609
20
12.927922061357863
42
0.44386569119319147
0
LWPOLYLINE
5
201
100
AcDbEntity
8
0
100
AcDbPolyline
90
8
70
1
43
0.0
10
-13.476744308234277
20
10.206155275910687
10
-13.298789859814068
20
7.6180411257215432
42
0.64363268960095732
10
-11.594038584874671
20
6.9795307298962284
10
-6.979530729896215
20
11.59403858487468
42
0.64363268960095643
10
-7.6180411257215237
20
13.298789859814075
10
-10.206155275910685
20
13.476744308234288
42
0.46456933035658959
10
-10.737947187144618
20
12.927922061357858
42
-0.47418455013371746
10
-12.927922061357851
20
10.737947187144615
42
0.46456933035658804
0
LWPOLYLINE
5
202
100
AcDbEntity
8
0
100
AcDbPolyline
90
12
70
1
43
0.0
10
-10.24045346859131
20
-13.47792206135785
10
-2.4453445286339672
20
-13.477922061357855
42
0.66817863791929866
10
-1.7382377474474175
20
-11.770815280171298
10
-3.3261318862910589
20
-10.514175368735177
42
-0.028990798195097679
10
-3.4992085117258109
20
-10.360084399530518
10
-10.360084399530509
20
-3.4992085117258211
42
-0.028990798195097346
10
-10.514175368735163
20
-3.32613188629107
10
-11.770815280171313
20
-1.7382377474474009
42
0.66817863791929866
10
-13.477922061357859
20
-2.4453445286339468
10
-13.477922061357859
20
-10.2404534685913
42
0.44386569119319147
10
-12.927922061357862
20
-10.737947187144613
42
-0.47418455013371802
10
-10.73794718714462
20
-12.927922061357853
42
0.44386569119319413
0
LWPOLYLINE
5
203
100
AcDbEntity
8
0
100
AcDbPolyline
90
8
70
1
43
0.0
10
2.02108045992202
20
-12.053657992645936
10
12.053657992645919
20
-2.0210804599220387
42
-0.66817863791929877
10
13.760764773832472
20
-2.7281872411085883
10
13.504512198708326
20
-10.260302620815366
42
-0.4369418569041173
10
12.949425460642896
20
-10.740225846111377
42
0.48082314599263187
10
10.740225846111377
20
-12.949425460642898
42
-0.43694185690411858
10
10.260302620815363
20
-13.504512198708341
10
2.7281872411085639
20
-13.760764773832474
42
-0.66817863791929866
0
LINE
5
204
100
AcDbEntity
8
0
100
AcDbLine
10
-10.375242399493345
20
15.217880595840985
30
0
11
-10.497485981796373
21
15.217842180515188
31
0
0
LINE
5
205
100
AcDbEntity
8
0
100
AcDbLine
10
10.502514018203687
20
15.224441478625728
30
0
11
10.409616916529824
21
15.224412285498703
31
0
0
ARC
5
206
100
AcDbEntity
8
0
100
AcDbCircle
10
-10.500000000000057
20
23.217841785497207
30
0
40
7.9999999999999982
100
AcDbArc
50
-89.981994670617354
51
0
0
ARC
5
207
100
AcDbEntity
8
0
100
AcDbCircle
10
10.407102898326157
20
23.224411890480642
30
0
40
7.9999999999999201
100
AcDbArc
50
270.0180053293825
51
282.46775593655843
0
ARC
5
208
100
AcDbEntity
8
0
100
AcDbCircle
10
-10.407102898326102
20
-23.224411890480852
30
0
40
8.0000000000001332
100
AcDbArc
50
90.350670455808526
51
102.46775593655843
0
ARC
5
209
100
AcDbEntity
8
0
100
AcDbCircle
10
-23.217880200823757
20
-10.377756417696942
30
0
40
8.0000000000007443
100
AcDbArc
50
347.3720046184273
51
359.58024846517611
0
ARC
5
210
100
AcDbEntity
8
0
100
AcDbCircle
10
-23.224411890480845
20
10.407102898326146
30
0
40
8.0000000000001101
100
AcDbArc
50
0.35067045579881967
51
12.467755936558195
0
ARC
5
211
100
AcDbEntity
8
0
100
AcDbCircle
10
-10.377756417696954
20
23.21788020082348
30
0
40
8.0000000000004725
100
AcDbArc
50
257.37200461842696
51
270.01800532938205
0
ARC
5
212
100
AcDbEntity
8
0
100
AcDbCircle
10
8.3355743382330818
20
17.805546549040905
30
0
40
0.20000000000000881
100
AcDbArc
50
194.8561405368107
51
314.9999999999971
0
ARC
5
213
100
AcDbEntity
8
0
100
AcDbCircle
10
6.7957497676207277
20
17.397092828327029
30
0
40
1.3930769442266413
100
AcDbArc
50
14.856140536810873
51
45.000000000000071
0
ARC
5
214
100
AcDbEntity
8
0
100
AcDbCircle
10
5.0828831447749598
20
21.058237742499024
30
0
40
0.2000000000000024
100
AcDbArc
50
134.99999999999892
51
255.14385946318799
0
LINE
5
215
100
AcDbEntity
8
0
100
AcDbLine
10
7.5686718872420098
20
20.291335291507963
30
0
11
9.195017483971073
21
18.664989694778903
31
0
0
ARC
5
216
100
AcDbEntity
8
0
100
AcDbCircle
10
4.6744294240610831
20
19.518413171886674
30
0
40
1.3930769442265856
100
AcDbArc
50
44.99999999999995
51
75.143859463189216
0
ARC
5
217
100
AcDbEntity
8
0
100
AcDbCircle
10
9.0535961277337584
20
18.52356833854159
30
0
40
0.20000000000000351
100
AcDbArc
50
-45.000000000000355
51
44.999999999999638
0
ARC
5
218
100
AcDbEntity
8
0
100
AcDbCircle
10
5.8009049342756489
20
21.776259531999713
30
0
40
0.20000000000000462
100
AcDbArc
50
45.000000000000895
51
134.99999999999912
0
LINE
5
219
100
AcDbEntity
8
0
100
AcDbLine
10
7.5686718872420098
20
20.291335291507963
30
0
11
5.9423262905129608
21
21.91768088823703
31
0
0
LINE
5
220
100
AcDbEntity
8
0
100
AcDbLine
10
4.9414617885376488
20
21.19965909873634
30
0
11
5.659483578038337
21
21.91768088823703
31
0
0
LINE
5
221
100
AcDbEntity
8
0
100
AcDbLine
10
9.1950174839710694
20
18.382146982304278
30
0
11
8.4769956944703839
21
17.664125192803589
31
0
0
ARC
5
222
100
AcDbEntity
8
0
100
AcDbCircle
10
5.305930187445064
20
20.149913935270654
30
0
40
0.50000000000000044
100
AcDbArc
50
-44.99999999999995
51
45
0
ARC
5
223
100
AcDbEntity
8
0
100
AcDbCircle
10
7.4272505310047023
20
18.028593591711008
30
0
40
0.5000000000000604
100
AcDbArc
50
44.999999999999858
51
134.99999999999918
0
LINE
5
224
100
AcDbEntity
8
0
100
AcDbLine
10
5.6594835780383379
20
19.79636054467738
30
0
11
4.597448281325681
21
18.734325247964726
31
0
0
LINE
5
225
100
AcDbEntity
8
0
100
AcDbLine
10
7.0736971404114293
20
18.382146982304292
30
0
11
6.0120247109804374
21
17.320474552873325
31
0
0
LINE
5
226
100
AcDbEntity
8
0
100
AcDbLine
10
-23.224441083607751
20
2.5000000000000067
30
0
11
-38.478281378196073
21
2.5000000000000133
31
0
0
LINE
5
227
100
AcDbEntity
8
0
100
AcDbLine
10
-23.217841785497235
20
-2.5000000000000577
30
0
11
-38.478281378196073
21
-2.5000000000000955
31
0
0
LWPOLYLINE
5
228
100
AcDbEntity
8
0
100
AcDbPolyline
90
4
70
1
43
0.0
10
-44.778750000000031
20
0.71662293955749323
42
-0.26935393690361925
10
-45.119318181818208
20
1.0857923326629257
42
9.0999738356501503
10
-45.119318181818187
20
-1.08579233266284
42
-0.26935393690377873
10
-44.778750000000016
20
-0.71662293955747358
42
0.73783571640412149
0
ARC
5
229
100
AcDbEntity
8
0
100
AcDbCircle
10
-50
20
1.3322676295501878e-14
30
0
40
7.0000000000003002
100
AcDbArc
50
47.332074505889146
51
312.66792549411019
0
ARC
5
230
100
AcDbEntity
8
0
100
AcDbCircle
10
-38.478281378196073
20
12.500000000000021
30
0
40
10.000000000000398
100
AcDbArc
50
227.3320745058891
51
270
0
ARC
5
231
100
AcDbEntity
8
0
100
AcDbCircle
10
-38.478281378196044
20
-12.500000000000103
30
0
40
10.000000000000004
100
AcDbArc
50
90.000000000000171
51
132.66792549411107
0
ARC
5
232
100
AcDbEntity
8
0
100
AcDbCircle
10
-23.22444108360774
20
10.500000000000004
30
0
40
7.9999999999999982
100
AcDbArc
50
269.99999999999989
51
359.68534020295198
0
ARC
5
233
100
AcDbEntity
8
0
100
AcDbCircle
10
-23.21788020082348
20
-10.377756417696951
30
0
40
8.0000000000004743
100
AcDbArc
50
347.37200461842701
51
359.58024846517611
0
ARC
5
234
100
AcDbEntity
8
0
100
AcDbCircle
10
-10.407102898326151
20
-23.224411890480834
30
0
40
8.0000000000001172
100
AcDbArc
50
90.350670455808171
51
102.46775593655819
0
ARC
5
235
100
AcDbEntity
8
0
100
AcDbCircle
10
-12.727922061357857
20
-12.727922061357855
30
0
40
2.7500000149011621
100
AcDbArc
50
167.37200461842664
51
282.46775593655843
0
ARC
5
236
100
AcDbEntity
8
0
100
AcDbCircle
10
-23.224411890480638
20
10.407102898326162
30
0
40
7.9999999999999059
100
AcDbArc
50
0.35067045579881967
51
12.467755936558405
0
ARC
5
237
100
AcDbEntity
8
0
100
AcDbCircle
10
-12.72792206135785
20
12.727922061357862
30
0
40
2.7500000149011639
100
AcDbArc
50
77.372004618426644
51
192.46775593655849
0
LINE
5
238
100
AcDbEntity
8
0
100
AcDbLine
10
-2.5000000000000044
20
-23.224441083607751
30
0
11
-2.5000000000000133
21
-38.478281378196073
31
0
0
LINE
5
239
100
AcDbEntity
8
0
100
AcDbLine
10
2.5000000000000577
20
-23.217841785497235
30
0
11
2.5000000000000955
21
-38.478281378196073
31
0
0
ARC
5
240
100
AcDbEntity
8
0
100
AcDbCircle
10
-5.3059301874450675
20
-20.149913935270657
30
0
40
0.50000000000000044
100
AcDbArc
50
135.00000000000009
51
224.99999999999972
0
ARC
5
241
100
AcDbEntity
8
0
100
AcDbCircle
10
-5.0828831447749607
20
-21.058237742499028
30
0
40
0.2000000000000024
100
AcDbArc
50
-45.000000000000355
51
75.143859463188974
0
ARC
5
242
100
AcDbEntity
8
0
100
AcDbCircle
10
-7.4272505310047032
20
-18.028593591711001
30
0
40
0.5000000000000604
100
AcDbArc
50
225.00000000000014
51
314.99999999999881
0
ARC
5
243
100
AcDbEntity
8
0
100
AcDbCircle
10
-6.7957497676207286
20
-17.397092828327029
30
0
40
1.3930769442266413
100
AcDbArc
50
194.85614053681084
51
224.99999999999997
0
LINE
5
244
100
AcDbEntity
8
0
100
AcDbLine
10
-4.9414617885376497
20
-21.19965909873634
30
0
11
-5.6594835780383379
21
-21.917680888237022
31
0
0
LWPOLYLINE
5
245
100
AcDbEntity
8
0
100
AcDbPolyline
90
4
70
1
43
0.0
10
-0.71662293955748435
20
-44.778750000000031
42
-0.26935393690361925
10
-1.0857923326629169
20
-45.119318181818208
42
9.0999738356501503
10
1.0857923326628489
20
-45.119318181818201
42
-0.26935393690377873
10
0.71662293955748246
20
-44.778750000000016
42
0.73783571640412149
0
LINE
5
246
100
AcDbEntity
8
0
100
AcDbLine
10
-9.1950174839710712
20
-18.382146982304278
30
0
11
-8.4769956944703857
21
-17.664125192803589
31
0
0
ARC
5
247
100
AcDbEntity
8
0
100
AcDbCircle
10
-5.8009049342756516
20
-21.776259531999713
30
0
40
0.20000000000000462
100
AcDbArc
50
225.00000000000091
51
315.00000000000091
0
ARC
5
248
100
AcDbEntity
8
0
100
AcDbCircle
10
-9.0535961277337584
20
-18.52356833854159
30
0
40
0.20000000000000351
100
AcDbArc
50
135
51
224.99999999999855
0
ARC
5
249
100
AcDbEntity
8
0
100
AcDbCircle
10
-4.4408920985006262e-15
20
-50
30
0
40
7.0000000000003002
100
AcDbArc
50
-222.66792549411079
51
42.66792549411025
0
ARC
5
250
100
AcDbEntity
8
0
100
AcDbCircle
10
-12.500000000000018
20
-38.478281378196073
30
0
40
10.000000000000398
100
AcDbArc
50
-42.667925494110925
51
0
0
ARC
5
251
100
AcDbEntity
8
0
100
AcDbCircle
10
12.500000000000105
20
-38.478281378196044
30
0
40
10.000000000000009
100
AcDbArc
50
180
51
222.66792549411107
0
LINE
5
252
100
AcDbEntity
8
0
100
AcDbLine
10
-5.6594835780383415
20
-19.796360544677384
30
0
11
-4.5974482813256836
21
-18.734325247964726
31
0
0
LINE
5
253
100
AcDbEntity
8
0
100
AcDbLine
10
-7.0736971404114311
20
-18.382146982304288
30
0
11
-6.0120247109804383
21
-17.320474552873321
31
0
0
ARC
5
254
100
AcDbEntity
8
0
100
AcDbCircle
10
-8.3355743382330836
20
-17.805546549040905
30
0
40
0.20000000000000878
100
AcDbArc
50
14.856140536810727
51
134.99999999999713
0
LINE
5
255
100
AcDbEntity
8
0
100
AcDbLine
10
-7.5686718872420116
20
-20.291335291507963
30
0
11
-9.1950174839710748
21
-18.6649896947789
31
0
0
LINE
5
256
100
AcDbEntity
8
0
100
AcDbLine
10
-7.5686718872420116
20
-20.291335291507963
30
0
11
-5.9423262905129635
21
-21.91768088823703
31
0
0
ARC
5
257
100
AcDbEntity
8
0
100
AcDbCircle
10
-4.6744294240610866
20
-19.518413171886678
30
0
40
1.3930769442265856
100
AcDbArc
50
224.99999999999986
51
255.14385946318919
0
ARC
5
258
100
AcDbEntity
8
0
100
AcDbCircle
10
10.500000000000052
20
-23.217841785497207
30
0
40
8
100
AcDbArc
50
90.455762193590758
51
180
0
ARC
5
259
100
AcDbEntity
8
0
100
AcDbCircle
10
10.377756417696951
20
-23.21788020082348
30
0
40
8.0000000000004743
100
AcDbArc
50
77.372004618426928
51
89.580248465172801
0
ARC
5
260
100
AcDbEntity
8
0
100
AcDbCircle
10
23.224411890480837
20
-10.407102898326148
30
0
40
8.000000000000119
100
AcDbArc
50
180.35067045580712
51
192.46775593655818
0
ARC
5
261
100
AcDbEntity
8
0
100
AcDbCircle
10
12.727922061357855
20
-12.727922061357857
30
0
40
2.7500000149011621
100
AcDbArc
50
-102.62799538157336
51
12.467755936558463
0
ARC
5
262
100
AcDbEntity
8
0
100
AcDbCircle
10
-10.407102898326158
20
-23.224411890480638
30
0
40
7.9999999999999192
100
AcDbArc
50
90.350670455808128
51
102.46775593655846
0
ARC
5
263
100
AcDbEntity
8
0
100
AcDbCircle
10
-12.727922061357859
20
-12.727922061357852
30
0
40
2.7500000149011639
100
AcDbArc
50
167.3720046184267
51
282.46775593655843
0
LINE
5
264
100
AcDbEntity
8
0
100
AcDbLine
10
23.224441083607751
20
-2.5000000000000067
30
0
11
38.478281378196073
21
-2.5000000000000133
31
0
0
LINE
5
265
100
AcDbEntity
8
0
100
AcDbLine
10
23.217841785497235
20
2.5000000000000577
30
0
11
38.478281378196073
21
2.5000000000000955
31
0
0
LWPOLYLINE
5
266
100
AcDbEntity
8
0
100
AcDbPolyline
90
4
70
1
43
0.0
10
44.778750000000031
20
-0.71662293955749323
42
-0.26935393690361925
10
45.119318181818208
20
-1.0857923326629257
42
9.0999738356501503
10
45.119318181818187
20
1.08579233266284
42
-0.26935393690377873
10
44.778750000000016
20
0.71662293955747358
42
0.73783571640412149
0
ARC
5
267
100
AcDbEntity
8
0
100
AcDbCircle
10
50
20
-1.3322676295501878e-14
30
0
40
7.0000000000003002
100
AcDbArc
50
-132.66792549411085
51
132.66792549411022
0
ARC
5
268
100
AcDbEntity
8
0
100
AcDbCircle
10
38.478281378196073
20
-12.500000000000021
30
0
40
10.000000000000398
100
AcDbArc
50
47.332074505889103
51
90
0
ARC
5
269
100
AcDbEntity
8
0
100
AcDbCircle
10
38.478281378196044
20
12.500000000000103
30
0
40
10.000000000000004
100
AcDbArc
50
270.00000000000017
51
312.66792549411099
0
ARC
5
270
100
AcDbEntity
8
0
100
AcDbCircle
10
23.22444108360774
20
-10.500000000000004
30
0
40
7.9999999999999982
100
AcDbArc
50
89.999999999999929
51
179.68534020296121
0
ARC
5
271
100
AcDbEntity
8
0
100
AcDbCircle
10
23.21788020082348
20
10.377756417696951
30
0
40
8.0000000000004743
100
AcDbArc
50
167.37200461842698
51
179.58024846517611
0
ARC
5
272
100
AcDbEntity
8
0
100
AcDbCircle
10
10.407102898326151
20
23.224411890480834
30
0
40
8.0000000000001119
100
AcDbArc
50
270.01800532938256
51
282.46775593655815
0
ARC
5
273
100
AcDbEntity
8
0
100
AcDbCircle
10
12.727922061357857
20
12.727922061357855
30
0
40
2.7500000149011621
100
AcDbArc
50
-12.627995381573347
51
102.46775593655846
0
ARC
5
274
100
AcDbEntity
8
0
100
AcDbCircle
10
23.224411890480638
20
-10.407102898326162
30
0
40
7.9999999999999192
100
AcDbArc
50
180.35067045580712
51
192.46775593655838
0
ARC
5
275
100
AcDbEntity
8
0
100
AcDbCircle
10
12.72792206135785
20
-12.727922061357862
30
0
40
2.7500000149011639
100
AcDbArc
50
-102.62799538157336
51
12.467755936558463
0
ARC
5
276
100
AcDbEntity
8
0
100
AcDbCircle
10
18.028593591711001
20
7.4272505310047041
30
0
40
0.50000000000000711
100
AcDbArc
50
-44.999999999998728
51
44.999999999999858
0
ARC
5
277
100
AcDbEntity
8
0
100
AcDbCircle
10
20.149913935270654
20
5.3059301874450675
30
0
40
0.49999999999999822
100
AcDbArc
50
45
51
134.99999999999994
0
ARC
5
278
100
AcDbEntity
8
0
100
AcDbCircle
10
21.776259531999713
20
5.8009049342756533
30
0
40
0.20000000000000462
100
AcDbArc
50
-45.000000000000718
51
44.999999999998742
0
ARC
5
279
100
AcDbEntity
8
0
100
AcDbCircle
10
18.52356833854159
20
9.0535961277337602
30
0
40
0.20000000000000462
100
AcDbArc
50
45.00000000000108
51
135
0
ARC
5
280
100
AcDbEntity
8
0
100
AcDbCircle
10
19.518413171886671
20
4.6744294240610866
30
0
40
1.3930769442266517
100
AcDbArc
50
14.856140536810749
51
44.99999999999995
0
ARC
5
281
100
AcDbEntity
8
0
100
AcDbCircle
10
21.058237742499028
20
5.0828831447749607
30
0
40
0.19999999999999893
100
AcDbArc
50
194.85614053681104
51
315.00000000000034
0
ARC
5
282
100
AcDbEntity
8
0
100
AcDbCircle
10
17.397092828327029
20
6.7957497676207304
30
0
40
1.3930769442266389
100
AcDbArc
50
45
51
75.143859463189116
0
ARC
5
283
100
AcDbEntity
8
0
100
AcDbCircle
10
17.805546549040905
20
8.3355743382330836
30
0
40
0.20000000000000018
100
AcDbArc
50
135.00000000000253
51
255.14385946318913
0
LINE
5
284
100
AcDbEntity
8
0
100
AcDbLine
10
18.382146982304288
20
7.0736971404114328
30
0
11
17.316501869091052
21
6.0080520271981674
31
0
0
LINE
5
285
100
AcDbEntity
8
0
100
AcDbLine
10
19.79636054467738
20
5.6594835780383415
30
0
11
18.731699640384285
21
4.5948226737452451
31
0
0
LINE
5
286
100
AcDbEntity
8
0
100
AcDbLine
10
18.382146982304278
20
9.195017483971073
30
0
11
17.664125192803589
21
8.4769956944703875
31
0
0
LINE
5
287
100
AcDbEntity
8
0
100
AcDbLine
10
21.19965909873634
20
4.9414617885376497
30
0
11
21.917680888237022
21
5.6594835780383406
31
0
0
LINE
5
288
100
AcDbEntity
8
0
100
AcDbLine
10
20.291335291507963
20
7.5686718872420133
30
0
11
18.6649896947789
21
9.1950174839710748
31
0
0
LINE
5
289
100
AcDbEntity
8
0
100
AcDbLine
10
20.291335291507963
20
7.5686718872420133
30
0
11
21.91768088823703
21
5.9423262905129635
31
0
0
LINE
5
290
100
AcDbEntity
8
0
100
AcDbLine
10
-21.19965909873634
20
-4.9414617885376533
30
0
11
-21.917680888237022
21
-5.6594835780383423
31
0
0
LINE
5
291
100
AcDbEntity
8
0
100
AcDbLine
10
-18.382146982304278
20
-9.1950174839710748
30
0
11
-17.664125192803589
21
-8.4769956944703893
31
0
0
LINE
5
292
100
AcDbEntity
8
0
100
AcDbLine
10
-19.79636054467738
20
-5.6594835780383441
30
0
11
-18.731699640384281
21
-4.5948226737452424
31
0
0
LINE
5
293
100
AcDbEntity
8
0
100
AcDbLine
10
-18.382146982304288
20
-7.0736971404114346
30
0
11
-17.316501869091049
21
-6.0080520271981701
31
0
0
LINE
5
294
100
AcDbEntity
8
0
100
AcDbLine
10
-20.291335291507959
20
-7.5686718872420142
30
0
11
-18.6649896947789
21
-9.1950174839710783
31
0
0
LINE
5
295
100
AcDbEntity
8
0
100
AcDbLine
10
-20.291335291507959
20
-7.5686718872420142
30
0
11
-21.91768088823703
21
-5.9423262905129679
31
0
0
ARC
5
296
100
AcDbEntity
8
0
100
AcDbCircle
10
-17.805546549040905
20
-8.3355743382330836
30
0
40
0.20000000000000018
100
AcDbArc
50
-44.999999999997812
51
75.143859463188022
0
ARC
5
297
100
AcDbEntity
8
0
100
AcDbCircle
10
-18.52356833854159
20
-9.053596127733762
30
0
40
0.20000000000000462
100
AcDbArc
50
225.00000000000142
51
315
0
ARC
5
298
100
AcDbEntity
8
0
100
AcDbCircle
10
-21.77625953199971
20
-5.8009049342756551
30
0
40
0.20000000000000462
100
AcDbArc
50
135
51
224.99999999999855
0
ARC
5
299
100
AcDbEntity
8
0
100
AcDbCircle
10
-20.149913935270654
20
-5.3059301874450702
30
0
40
0.49999999999999822
100
AcDbArc
50
224.99999999999986
51
314.99999999999994
0
ARC
5
300
100
AcDbEntity
8
0
100
AcDbCircle
10
-17.397092828327029
20
-6.7957497676207321
30
0
40
1.3930769442266389
100
AcDbArc
50
225.00000000000003
51
255.14385946318924
0
ARC
5
301
100
AcDbEntity
8
0
100
AcDbCircle
10
-21.058237742499024
20
-5.0828831447749643
30
0
40
0.19999999999999893
100
AcDbArc
50
14.856140536811296
51
135.00000000000111
0
ARC
5
302
100
AcDbEntity
8
0
100
AcDbCircle
10
-18.028593591711001
20
-7.4272505310047068
30
0
40
0.50000000000000711
100
AcDbArc
50
135.00000000000125
51
224.99999999999986
0
ARC
5
303
100
AcDbEntity
8
0
100
AcDbCircle
10
-19.518413171886674
20
-4.6744294240610893
30
0
40
1.3930769442266517
100
AcDbArc
50
194.85614053681078
51
225
0
ARC
5
304
100
AcDbEntity
8
0
100
AcDbCircle
10
-23.217841785497214
20
-10.500000000000052
30
0
40
8.0000000000000036
100
AcDbArc
50
0.45576219359325015
51
33.489622686979153
0
ARC
5
305
100
AcDbEntity
8
0
100
AcDbCircle
10
-23.217841785497214
20
-10.500000000000052
30
0
40
8.0000000000000053
100
AcDbArc
50
56.563543270165546
51
90.000000000000142
0
ARC
5
306
100
AcDbEntity
8
0
100
AcDbCircle
10
-10.500000000000004
20
-23.224441083607744
30
0
40
7.9999999999999982
100
AcDbArc
50
0
51
33.472841656009571
0
ARC
5
307
100
AcDbEntity
8
0
100
AcDbCircle
10
-10.500000000000004
20
-23.224441083607744
30
0
40
7.9999999999999982
100
AcDbArc
50
56.546760063856276
51
89.685340202961001
0
ARC
5
308
100
AcDbEntity
8
0
100
AcDbCircle
10
23.217841785497214
20
10.500000000000052
30
0
40
7.9999999999999991
100
AcDbArc
50
180.45576219359324
51
213.48962268697917
0
ARC
5
309
100
AcDbEntity
8
0
100
AcDbCircle
10
23.217841785497214
20
10.500000000000052
30
0
40
8.0000000000000036
100
AcDbArc
50
236.56354327016555
51
270.00000000000017
0
ARC
5
310
100
AcDbEntity
8
0
100
AcDbCircle
10
10.499999999999998
20
23.224441083607744
30
0
40
7.9999999999999982
100
AcDbArc
50
180
51
213.47284165600965
0
ARC
5
311
100
AcDbEntity
8
0
100
AcDbCircle
10
10.499999999999998
20
23.224441083607744
30
0
40
7.9999999999999982
100
AcDbArc
50
236.54676006385628
51
270.01800532938267
0
ARC
5
312
100
AcDbEntity
8
0
100
AcDbCircle
10
16.962948478497772
20
6.3616054177914361
30
0
40
0.49999999999999989
100
AcDbArc
50
213.48962268697903
51
315.00000000000091
0
ARC
5
313
100
AcDbEntity
8
0
100
AcDbCircle
10
19.085253030977558
20
4.2412692831519685
30
0
40
0.50000000000000155
100
AcDbArc
50
134.99999999999972
51
236.56354327016521
0
ARC
5
314
100
AcDbEntity
8
0
100
AcDbCircle
10
6.3655781015737052
20
16.966921162280041
30
0
40
0.50000000000000155
100
AcDbArc
50
134.99999999999872
51
236.54676006385608
0
ARC
5
315
100
AcDbEntity
8
0
100
AcDbCircle
10
4.2438948907324097
20
19.087878638557996
30
0
40
0.49999999999999484
100
AcDbArc
50
213.47284165600945
51
315.00000000000017
0
ARC
5
316
100
AcDbEntity
8
0
100
AcDbCircle
10
-19.085253030977558
20
-4.2412692831519685
30
0
40
0.50000000000000377
100
AcDbArc
50
-44.999999999999794
51
56.56354327016507
0
ARC
5
317
100
AcDbEntity
8
0
100
AcDbCircle
10
-16.962948478497768
20
-6.361605417791437
30
0
40
0.50000000000000033
100
AcDbArc
50
33.489622686978798
51
135.00000000000111
0
ARC
5
318
100
AcDbEntity
8
0
100
AcDbCircle
10
-6.3655781015737052
20
-16.966921162280041
30
0
40
0.50000000000000044
100
AcDbArc
50
-45.000000000001066
51
56.546760063856567
0
ARC
5
319
100
AcDbEntity
8
0
100
AcDbCircle
10
-4.2438948907324123
20
-19.087878638557996
30
0
40
0.49999999999999356
100
AcDbArc
50
33.472841656008761
51
135.00000000000017
0
ARC
5
320
100
AcDbEntity
8
0
100
AcDbCircle
10
-2.5647696415992787
20
-2.3501234667021262
30
0
40
0.25000000000000122
100
AcDbArc
50
155.3394076359306
51
295.30888379697694
0
ARC
5
321
100
AcDbEntity
8
0
100
AcDbCircle
10
0.080091754567898354
20
3.9614350296094933
30
0
40
0.25000000000000022
100
AcDbArc
50
134.99999999999966
51
224.99999999999977
0
ARC
5
322
100
AcDbEntity
8
0
100
AcDbCircle
10
4.0926604964755526
20
7.9740037715171468
30
0
40
0.25000000000000006
100
AcDbArc
50
42.981040225296177
51
135.00000000000017
0
ARC
5
323
100
AcDbEntity
8
0
100
AcDbCircle
10
-6.4735561290119854
20
-2.5897690106810769
30
0
40
0.24999999999999911
100
AcDbArc
50
44.999999999999922
51
136.38317958004839
0
ARC
5
324
100
AcDbEntity
8
0
100
AcDbCircle
10
-2.6351014081283326
20
-6.4282237315647333
30
0
40
0.25000000000000189
100
AcDbArc
50
-44.999999999999794
51
44.999999999999638
0
ARC
5
325
100
AcDbEntity
8
0
100
AcDbCircle
10
-4.9469837258539551
20
7.4881084773859277
30
0
40
0.24999999999999689
100
AcDbArc
50
160.89007639450796
51
291.10206637250735
0
ARC
5
326
100
AcDbEntity
8
0
100
AcDbCircle
10
-7.384799053518333
20
5.0472602515616085
30
0
40
0.20000000000000051
100
AcDbArc
50
-27.134441731341393
51
111.18681007294944
0
LWPOLYLINE
5
327
100
AcDbEntity
8
0
100
AcDbPolyline
90
24
70
1
43
0.0
10
6.1770890722835814
20
-6.5306424628768642
10
6.5306424628768553
20
-6.1770890722835903
42
0.41421356237309209
10
6.5306424628768545
20
-5.8235356816903163
10
4.921974535677462
20
-4.2148677544909221
42
-0.41421356237309509
10
4.9219745356774611
20
-3.8613143638976495
10
5.4523046215673707
20
-3.3309842780077368
42
0.41421356237309176
10
5.4523046215673707
20
-2.9774308874144633
10
5.0987512309740968
20
-2.6238774968211898
42
0.4142135623730947
10
4.7451978403808228
20
-2.6238774968211898
10
4.2148677544909123
20
-3.1542075827111002
42
-0.41421356237309509
10
3.8613143638976384
20
-3.1542075827111002
10
3.3486619475373929
20
-2.6415551663508534
42
0.4142135623730942
10
2.9951085569441185
20
-2.6415551663508534
10
2.6415551663508454
20
-2.9951085569441274
42
0.4142135623730937
10
2.6415551663508445
20
-3.3486619475374013
10
3.1542075827110914
20
-3.8613143638976477
42
-0.41421356237309515
10
3.1542075827110909
20
-4.2148677544909221
10
2.6238774968211809
20
-4.7451978403808326
42
0.4142135623730947
10
2.6238774968211809
20
-5.0987512309741065
10
2.9774308874144544
20
-5.4523046215673805
42
0.41421356237309243
10
3.3309842780077279
20
-5.4523046215673805
10
3.8613143638976393
20
-4.9219745356774682
42
-0.41421356237309209
10
4.2148677544909132
20
-4.92197453567747
10
5.8235356816903083
20
-6.5306424628768642
42
0.41421356237309226
0
ARC
5
328
100
AcDbEntity
8
0
100
AcDbCircle
10
12.477922061357859
20
2.4453445286339481
30
0
40
0.99999999999999867
100
AcDbArc
50
-134.99999999999997
51
0
0
LINE
5
329
100
AcDbEntity
8
0
100
AcDbLine
10
3.4992085117258291
20
10.3600843995305
30
0
11
10.360084399530496
21
3.4992085117258345
31
0
0
LINE
5
330
100
AcDbEntity
8
0
100
AcDbLine
10
1.7382377474474153
20
11.770815280171297
30
0
11
3.3261318862910763
21
10.514175368735156
31
0
0
ARC
5
331
100
AcDbEntity
8
0
100
AcDbCircle
10
8.9458708371570843
20
2.0849949493524225
30
0
40
2.0000000000004499
100
AcDbArc
50
38.357658946048225
51
45
0
ARC
5
332
100
AcDbEntity
8
0
100
AcDbCircle
10
2.0849949493527347
20
8.9458708371574058
30
0
40
1.9999999999999996
100
AcDbArc
50
44.999999999999986
51
51.64234105395176
0
LINE
5
333
100
AcDbEntity
8
0
100
AcDbLine
10
10.514175368735188
20
3.3261318862910438
30
0
11
11.770815280171313
21
1.7382377474474009
31
0
0
ARC
5
334
100
AcDbEntity
8
0
100
AcDbCircle
10
2.4453445286339672
20
12.477922061357848
30
0
40
1.0000000000000051
100
AcDbArc
50
90
51
224.99999999999997
0
ENDSEC
0
SECTION
2
OBJECTS
0
DICTIONARY
5
C
100
AcDbDictionary
3
ACAD_GROUP
350
D
3
ACAD_MLINESTYLE
350
17
0
DICTIONARY
5
D
100
AcDbDictionary
0
DICTIONARY
5
1A
330
C
100
AcDbDictionary
0
DICTIONARY
5
17
100
AcDbDictionary
0
ENDSEC
0
EOF
