0
SECTION
2
HEADER
9
$INSUNITS
70
4
9
$ACADVER
1
AC1014
9
$HANDSEED
5
FFFF
0
ENDSEC
0
SECTION
2
TABLES
0
TABLE
2
VPORT
5
8
100
AcDbSymbolTable
0
ENDTAB
0
TABLE
2
LTYPE
5
5
100
AcDbSymbolTable
0
LTYPE
5
14
100
AcDbSymbolTableRecord
100
AcDbLinetypeTableRecord
2
BYBLOCK
70
0
0
LTYPE
5
15
100
AcDbSymbolTableRecord
100
AcDbLinetypeTableRecord
2
BYLAYER
70
0
0
ENDTAB
0
TABLE
2
LAYER
5
2
100
AcDbSymbolTable
70
2
0
LAYER
5
50
100
AcDbSymbolTableRecord
100
AcDbLayerTableRecord
2
0
70
0
6
CONTINUOUS
0
ENDTAB
0
TABLE
2
STYLE
5
3
100
AcDbSymbolTable
70
1
0
STYLE
5
11
100
AcDbSymbolTableRecord
100
AcDbTextStyleTableRecord
2
STANDARD
70
0
0
ENDTAB
0
TABLE
2
VIEW
5
6
100
AcDbSymbolTable
70
0
0
ENDTAB
0
TABLE
2
UCS
5
7
100
AcDbSymbolTable
70
0
0
ENDTAB
0
TABLE
2
APPID
5
9
100
AcDbSymbolTable
70
2
0
APPID
5
12
100
AcDbSymbolTableRecord
100
AcDbRegAppTableRecord
2
ACAD
70
0
0
ENDTAB
0
TABLE
2
DIMSTYLE
5
A
100
AcDbSymbolTable
70
1
0
ENDTAB
0
TABLE
2
BLOCK_RECORD
5
1
100
AcDbSymbolTable
70
1
0
BLOCK_RECORD
5
1F
100
AcDbSymbolTableRecord
100
AcDbBlockTableRecord
2
*MODEL_SPACE
0
BLOCK_RECORD
5
1B
100
AcDbSymbolTableRecord
100
AcDbBlockTableRecord
2
*PAPER_SPACE
0
ENDTAB
0
ENDSEC
0
SECTION
2
BLOCKS
0
BLOCK
5
20
100
AcDbEntity
100
AcDbBlockBegin
2
*MODEL_SPACE
0
ENDBLK
5
21
100
AcDbEntity
100
AcDbBlockEnd
0
BLOCK
5
1C
100
AcDbEntity
100
AcDbBlockBegin
2
*PAPER_SPACE
0
ENDBLK
5
1D
100
AcDbEntity
100
AcDbBlockEnd
0
ENDSEC
0
SECTION
2
ENTITIES
0
CIRCLE
5
100
100
AcDbEntity
8
0
100
AcDbCircle
10
13.00000000000118
20
-24.996620129738755
30
0
40
1.5
0
CIRCLE
5
101
100
AcDbEntity
8
0
100
AcDbCircle
10
15.249999999999932
20
-15.250000000000004
30
0
40
1.4999999999999991
0
LWPOLYLINE
5
102
100
AcDbEntity
8
0
100
AcDbPolyline
90
8
70
1
43
0.0
10
7.7499999999999494
20
-62.500000000001023
10
3.4999999999999911
20
-62.500000000001009
42
-0.41421356237309309
10
1.4999999999999942
20
-60.500000000001023
10
1.4999999999999678
20
-56.996097280099761
42
-0.41374075909372066
10
2.4983854795349991
20
-55.996098583438759
10
8.2483854795349671
20
-55.986815078665593
42
-0.41468652377406007
10
9.2499999999999467
20
-56.986813775326581
10
9.2499999999999467
20
-61.000000000001016
42
-0.41421356237309048
0
LWPOLYLINE
5
103
100
AcDbEntity
8
0
100
AcDbPolyline
90
8
70
1
43
0.0
10
1.4999999999999292
20
-48.495417088633403
42
-0.39451809697341783
10
3.3646843465993066
20
-46.50000000000049
10
7.5254230825850934
20
-46.500000000000526
42
-0.45639994351251989
10
9.2499999999999432
20
-47.970391988810093
10
9.2499999999999378
20
-51.986807258623017
42
-0.41374075909372249
10
8.2516145204649192
20
-52.986805955283998
10
2.5016145204649169
20
-52.996089460057163
42
-0.41468652377404719
10
1.4999999999999438
20
-51.996090763396182
0
LINE
5
104
100
AcDbEntity
8
0
100
AcDbLine
10
27.236152102773783
20
-36.177366582997116
30
7.4555520583349039e-67
11
19.915852288531138
21
-32.654344198414407
31
2.5982952458152033e-67
0
LINE
5
105
100
AcDbEntity
8
0
100
AcDbLine
10
16.000000000000053
20
-53.46074030444413
30
-5.3460897718415272e-67
11
16.000000000000068
21
-65.003379870261284
31
0
0
LINE
5
106
100
AcDbEntity
8
0
100
AcDbLine
10
26.160920682000569
20
-49.941326656701705
30
-5.1343548874515913e-67
11
29.573241786446513
21
-42.851047112545295
31
4.3918031159181009e-67
0
LINE
5
107
100
AcDbEntity
8
0
100
AcDbLine
10
-13.000000000001386
20
-68.003379870261298
30
0
11
13.000000000000071
21
-68.003379870261284
31
0
0
CIRCLE
5
108
100
AcDbEntity
8
0
100
AcDbCircle
10
13.000000000000068
20
-65.003379870261284
30
0
40
1.5000000000000009
0
CIRCLE
5
109
100
AcDbEntity
8
0
100
AcDbCircle
10
23.749999999999957
20
-42.268076189957995
30
0
40
2.2250000000000014
0
LINE
5
110
100
AcDbEntity
8
0
100
AcDbLine
10
24.538982043620805
20
-50.960740304444123
30
-6.5039899517262126e-67
11
18.500000000000053
21
-50.96074030444413
31
-6.5039899517262153e-67
0
CIRCLE
5
111
100
AcDbEntity
8
0
100
AcDbCircle
10
5.5000000000002185
20
-33.484944330585414
30
0
40
2.2250000000000005
0
ARC
5
112
100
AcDbEntity
8
0
100
AcDbCircle
10
18.50000000000006
20
-53.460740304444137
30
-5.3460897718415193e-67
40
2.5000000000000089
100
AcDbArc
50
90.000000000000171
51
180
0
ARC
5
113
100
AcDbEntity
8
0
100
AcDbCircle
10
13.000000000000068
20
-65.003379870261284
30
0
40
2.9999999999999982
100
AcDbArc
50
-89.999999999999943
51
0
0
ARC
5
114
100
AcDbEntity
8
0
100
AcDbCircle
10
24.538982043620813
20
-49.160740304444133
30
-4.0855966712811149e-67
40
1.7999999999999883
100
AcDbArc
50
269.99999999999983
51
334.30000000000018
0
ARC
5
115
100
AcDbEntity
8
0
100
AcDbCircle
10
25.067856679836066
20
-40.682751689607571
30
1.4023336874214086e-67
40
4.999999999999992
100
AcDbArc
50
-25.700000000000081
51
64.300000000000026
0
ARC
5
116
100
AcDbEntity
8
0
100
AcDbCircle
10
21.000000000000011
20
-30.401651645109173
30
3.3027679172913825e-67
40
2.5000000000000089
100
AcDbArc
50
180
51
244.29999999999978
0
LWPOLYLINE
5
117
100
AcDbEntity
8
0
100
AcDbPolyline
90
8
70
1
43
0.0
10
-7.7499999999999343
20
-62.500000000001023
42
-0.41421356237309309
10
-9.2499999999999343
20
-61.000000000001023
10
-9.249999999999952
20
-57.013453397719147
42
-0.41374075909371888
10
-8.2516145204649263
20
-56.013454701058158
10
-2.5016145204650075
20
-56.004171196284993
42
-0.41468652377404847
10
-1.50000000000003
20
-57.004169892945981
10
-1.5000000000000102
20
-60.500000000001023
42
-0.4142135623730947
10
-3.5000000000000098
20
-62.500000000001023
0
CIRCLE
5
118
100
AcDbEntity
8
0
100
AcDbCircle
10
-15.250000000000004
20
-15.250000000000004
30
0
40
1.5000000000000004
0
CIRCLE
5
119
100
AcDbEntity
8
0
100
AcDbCircle
10
-13.000000000001366
20
-65.003379870261298
30
0
40
1.5000000000000002
0
CIRCLE
5
120
100
AcDbEntity
8
0
100
AcDbCircle
10
-13.00000000000118
20
-24.996620129738755
30
0
40
1.4999999999999991
0
CIRCLE
5
121
100
AcDbEntity
8
0
100
AcDbCircle
10
-5.499999999999778
20
-33.484944330585492
30
0
40
2.2250000000000005
0
LWPOLYLINE
5
122
100
AcDbEntity
8
0
100
AcDbPolyline
90
8
70
1
43
0.0
10
-3.3652345334431173
20
-46.500000000000703
10
-7.5253806676681858
20
-46.500000000000909
42
0.45945254644044997
10
-9.2499999999999876
20
-47.985543294676191
10
-9.2499999999999698
20
-52.013446881015568
42
0.4146865237740584
10
-8.2483854795349956
20
-53.013445577676556
10
-2.4983854795350857
20
-53.004162072903391
42
0.41374075909372277
10
-1.5000000000000564
20
-52.004163376242396
10
-1.5000000000000817
20
-48.507393133429268
42
0.39632832340291635
0
LINE
5
123
100
AcDbEntity
8
0
100
AcDbLine
10
-24.538982043620816
20
-50.96074030444413
30
9.7881828976473648e-67
11
-18.50000000000135
21
-50.960740304444137
31
9.7881828976473648e-67
0
LINE
5
124
100
AcDbEntity
8
0
100
AcDbLine
10
-27.236152102773794
20
-36.177366582997124
30
4.9274672050152603e-67
11
-19.915852288531134
21
-32.654344198414407
31
1.7172456865062855e-67
0
LINE
5
125
100
AcDbEntity
8
0
100
AcDbLine
10
-16.000000000001357
20
-53.46074030444413
30
8.0456004487119946e-67
11
-16.000000000001368
21
-65.003379870261298
31
0
0
LINE
5
126
100
AcDbEntity
8
0
100
AcDbLine
10
-26.160920682000576
20
-49.941326656701712
30
9.5550535250048746e-67
11
-29.573241786446516
21
-42.851047112545302
31
7.9335798223036501e-67
0
CIRCLE
5
127
100
AcDbEntity
8
0
100
AcDbCircle
10
-23.749999999999403
20
-42.268076189958293
30
0
40
2.2250000000000014
0
CIRCLE
5
128
100
AcDbEntity
8
0
100
AcDbCircle
10
13.00000000000118
20
65.996620129738758
30
0
40
1.5000000000000036
0
CIRCLE
5
129
100
AcDbEntity
8
0
100
AcDbCircle
10
13.00000000000118
20
24.996620129738755
30
0
40
1.4999999999999982
0
LINE
5
130
100
AcDbEntity
8
0
100
AcDbLine
10
24.538982043620798
20
50.960740304444116
30
-3.372005591533965e-68
11
18.499999999999943
21
50.960740304444116
31
-3.3720055915339909e-68
0
LINE
5
131
100
AcDbEntity
8
0
100
AcDbLine
10
18.500000000000007
20
30.401651645109169
30
1.3239757022537413e-67
11
18.5
21
-30.401651645109176
31
1.6503958394804471e-67
0
ARC
5
132
100
AcDbEntity
8
0
100
AcDbCircle
10
-24.53898204362077
20
49.160740304444062
30
1.0099895080965752e-67
40
1.8000000000000504
100
AcDbArc
50
90.000000000000909
51
154.29999999999865
0
CIRCLE
5
133
100
AcDbEntity
8
0
100
AcDbCircle
10
15.24999999999995
20
15.249999999999995
30
0
40
1.5000000000000004
0
ARC
5
134
100
AcDbEntity
8
0
100
AcDbCircle
10
25.067856679836051
20
40.682751689607571
30
3.0822730483557657e-67
40
5.0000000000000036
100
AcDbArc
50
-64.29999999999977
51
25.700000000000017
0
ARC
5
135
100
AcDbEntity
8
0
100
AcDbCircle
10
-25.067856679836048
20
40.682751689607571
30
3.045318566086082e-67
40
5.0000000000000044
100
AcDbArc
50
154.29999999999998
51
244.2999999999999
0
CIRCLE
5
136
100
AcDbEntity
8
0
100
AcDbCircle
10
5.5000000000001856
20
33.484944330585421
30
0
40
2.2250000000000005
0
ARC
5
137
100
AcDbEntity
8
0
100
AcDbCircle
10
13.00000000000118
20
65.996620129738758
30
0
40
3.0000000000000004
100
AcDbArc
50
0
51
90
0
CIRCLE
5
138
100
AcDbEntity
8
0
100
AcDbCircle
10
23.749999999999915
20
42.268076189958009
30
0
40
2.2250000000000014
0
ARC
5
139
100
AcDbEntity
8
0
100
AcDbCircle
10
20.999999999999993
20
30.401651645109173
30
2.8009731191138156e-67
40
2.4999999999999871
100
AcDbArc
50
115.6999999999999
51
180
0
CIRCLE
5
140
100
AcDbEntity
8
0
100
AcDbCircle
10
-23.749999999999446
20
42.268076189958279
30
0
40
2.2250000000000014
0
LINE
5
141
100
AcDbEntity
8
0
100
AcDbLine
10
-13.00000000000118
20
68.996620129738758
30
0
11
13.00000000000118
21
68.996620129738758
31
0
0
LINE
5
142
100
AcDbEntity
8
0
100
AcDbLine
10
-16.00000000000118
20
66.250000000000014
30
0
11
-16.000000000001201
21
53.460740304444094
31
-2.8206372357930439e-68
0
LINE
5
143
100
AcDbEntity
8
0
100
AcDbLine
10
15.999999999999929
20
66.250000000000014
30
0
11
15.999999999999943
21
53.460740304444116
31
-2.820637235793046e-68
0
LINE
5
144
100
AcDbEntity
8
0
100
AcDbLine
10
27.236152102773794
20
36.177366582997116
30
6.4542786398898046e-67
11
19.915852288531141
21
32.654344198414393
31
2.1483662801947769e-67
0
LINE
5
145
100
AcDbEntity
8
0
100
AcDbLine
10
-27.236152102773779
20
36.177366582997116
30
6.4173241576201104e-67
11
-19.915852288531145
21
32.654344198414414
31
2.0513685644848827e-67
0
LINE
5
146
100
AcDbEntity
8
0
100
AcDbLine
10
-18.5
20
-30.401651645109173
30
1.0990595916856247e-67
11
-18.500000000000007
21
30.401651645109183
31
1.2042119856395942e-67
0
CIRCLE
5
147
100
AcDbEntity
8
0
100
AcDbCircle
10
-13.00000000000118
20
24.996620129738755
30
0
40
1.4999999999999982
0
ARC
5
148
100
AcDbEntity
8
0
100
AcDbCircle
10
18.49999999999995
20
53.460740304444123
30
-2.8206372357930419e-68
40
2.5000000000000089
100
AcDbArc
50
180
51
269.99999999999983
0
ARC
5
149
100
AcDbEntity
8
0
100
AcDbCircle
10
-13.00000000000118
20
65.996620129738758
30
0
40
2.9999999999999982
100
AcDbArc
50
90
51
180
0
CIRCLE
5
150
100
AcDbEntity
8
0
100
AcDbCircle
10
-13.00000000000118
20
65.996620129738758
30
0
40
1.4999999999999969
0
LINE
5
151
100
AcDbEntity
8
0
100
AcDbLine
10
-24.538982043620798
20
50.960740304444116
30
-3.3720055915339679e-68
11
-18.500000000001204
21
50.960740304444116
31
-3.3720055915339909e-68
0
ARC
5
152
100
AcDbEntity
8
0
100
AcDbCircle
10
-18.500000000001201
20
53.460740304444116
30
-2.8206372357930443e-68
40
2.5
100
AcDbArc
50
269.99999999999989
51
360
0
CIRCLE
5
153
100
AcDbEntity
8
0
100
AcDbCircle
10
-15.24999999999995
20
15.250000000000004
30
0
40
1.5000000000000002
0
LWPOLYLINE
5
154
100
AcDbEntity
8
0
100
AcDbPolyline
90
8
70
1
43
0.0
10
6.9999999999999272
20
48.499999999998991
10
-7.0000000000000373
20
48.499999999999005
42
-0.41421356237309404
10
-10.500000000000041
20
51.999999999998977
10
-10.50000000000006
20
57.999999999999083
42
-0.41421356237308521
10
-7.0000000000002167
20
61.499999999999098
10
6.9999999999997708
20
61.499999999999716
42
-0.41421356237310841
10
10.499999999999918
20
57.999999999999716
10
10.499999999999922
20
51.999999999998998
42
-0.4142135623730957
0
ARC
5
155
100
AcDbEntity
8
0
100
AcDbCircle
10
24.53898204362077
20
49.160740304444062
30
1.0099895080965748e-67
40
1.800000000000054
100
AcDbArc
50
25.700000000001353
51
89.999999999999091
0
ARC
5
156
100
AcDbEntity
8
0
100
AcDbCircle
10
-20.999999999999993
20
30.40165164510919
30
2.6931752239823794e-67
40
2.4999999999999867
100
AcDbArc
50
0
51
64.30000000000021
0
CIRCLE
5
157
100
AcDbEntity
8
0
100
AcDbCircle
10
-5.4999999999998108
20
33.484944330585485
30
0
40
2.2249999999999988
0
LINE
5
158
100
AcDbEntity
8
0
100
AcDbLine
10
-13.249999999999321
20
52.860740304444278
30
0
11
-13.134472827250825
21
52.774764195117505
31
0
0
LINE
5
159
100
AcDbEntity
8
0
100
AcDbLine
10
26.160920682000569
20
49.941326656701705
30
4.2576829676747926e-68
11
29.573241786446513
21
42.851047112545295
31
5.7324095056078339e-67
0
ARC
5
160
100
AcDbEntity
8
0
100
AcDbCircle
10
-24.538982043620827
20
-49.160740304444147
30
9.3765414882099028e-67
40
1.7999999999999794
100
AcDbArc
50
205.69999999999979
51
270.00000000000034
0
ARC
5
161
100
AcDbEntity
8
0
100
AcDbCircle
10
-21
20
-30.401651645109176
30
2.1974825615223465e-67
40
2.5000000000000018
100
AcDbArc
50
-64.299999999999912
51
0
0
LINE
5
162
100
AcDbEntity
8
0
100
AcDbLine
10
-26.160920682000569
20
49.941326656701705
30
4.2576829676747951e-68
11
-29.573241786446509
21
42.851047112545295
31
5.7324095056078326e-67
0
LINE
5
163
100
AcDbEntity
8
0
100
AcDbLine
10
13.13447282725142
20
52.774764195117356
30
0
11
13.249999999999918
21
52.860740304444121
31
0
0
ARC
5
164
100
AcDbEntity
8
0
100
AcDbCircle
10
-18.500000000001339
20
-53.460740304444123
30
8.0456004487120039e-67
40
2.4999999999999822
100
AcDbArc
50
0
51
90.000000000000242
0
ARC
5
165
100
AcDbEntity
8
0
100
AcDbCircle
10
-25.067856679836073
20
-40.682751689607571
30
5.9578022468728796e-67
40
4.9999999999999902
100
AcDbArc
50
115.70000000000006
51
205.70000000000019
0
ARC
5
166
100
AcDbEntity
8
0
100
AcDbCircle
10
-13.000000000001366
20
-65.003379870261298
30
0
40
3.0000000000000027
100
AcDbArc
50
180
51
269.9999999999996
0
LWPOLYLINE
5
167
100
AcDbEntity
8
0
100
AcDbPolyline
90
6
70
1
43
0.0
10
2.0000000000000386
20
-11.125657553356557
10
2.0000000000000693
20
-19.700000000001008
42
0.41421356237309337
10
3.8000000000000664
20
-21.500000000001002
10
7.9051791871976747
20
-21.500000000001013
42
0.56359220114704522
10
8.791212293300303
20
-20.036378025877546
10
3.8860331061026669
20
-10.662035579233091
42
0.78395167551229161
0
LWPOLYLINE
5
168
100
AcDbEntity
8
0
100
AcDbPolyline
90
6
70
1
43
0.0
10
1.9999999999999309
20
19.69999999999952
10
1.9999999999999614
20
11.125657553354667
42
0.78395167551229261
10
3.886033106102583
20
10.662035579231208
10
8.7912122933006067
20
20.036378025876456
42
0.56359220114707564
10
7.905179187197886
20
21.499999999999911
10
3.7999999999998302
20
21.499999999999527
42
0.41421356237307871
0
LWPOLYLINE
5
169
100
AcDbEntity
8
0
100
AcDbPolyline
90
6
70
1
43
0.0
10
-1.9999999999999609
20
-11.125657553354507
10
-1.9999999999999312
20
-19.700000000001008
42
-0.41421356237309759
10
-3.7999999999999328
20
-21.500000000001013
10
-7.9051791871986419
20
-21.500000000001009
42
-0.56359220114704511
10
-8.7912122933012622
20
-20.036378025877546
10
-3.8860331061025875
20
-10.66203557923105
42
-0.7839516755122905
0
LWPOLYLINE
5
170
100
AcDbEntity
8
0
100
AcDbPolyline
90
6
70
1
43
0.0
10
-2.0000000000000693
20
19.699999999999314
10
-2.0000000000000391
20
11.125657553352855
42
-0.7839516755122925
10
-3.8860331061026683
20
10.662035579229386
10
-8.7912122933010508
20
20.03637802587528
42
-0.56359220114700159
10
-7.9051791871985655
20
21.499999999998739
10
-3.8000000000001686
20
21.499999999999307
42
-0.41421356237311219
0
LWPOLYLINE
5
171
100
AcDbEntity
8
0
100
AcDbPolyline
90
6
70
1
43
0.0
10
4.3913324407090393
20
2.0000000000004712
10
9.44999999999993
20
2.000000000000997
42
0.41421356237306062
10
11.249999999999742
20
3.8000000000009737
10
11.24999999999984
20
14.196564668867682
42
0.7839516755122975
10
9.3639668938972136
20
14.660186642991151
10
3.505299334606311
20
3.4636219741239311
42
0.56359220114707775
0
LWPOLYLINE
5
172
100
AcDbEntity
8
0
100
AcDbPolyline
90
6
70
1
43
0.0
10
-9.4499999999999602
20
1.9999999999990212
10
-4.3913324407093697
20
1.9999999999995444
42
0.56359220114701092
10
-3.5052993346068506
20
3.4636219741230057
10
-9.3639668938974161
20
14.660186642989522
42
0.78395167551228728
10
-11.250000000000037
20
14.196564668866074
10
-11.250000000000146
20
3.7999999999990388
42
0.41421356237312845
0
LWPOLYLINE
5
173
100
AcDbEntity
8
0
100
AcDbPolyline
90
6
70
1
43
0.0
10
4.3913324407072993
20
-1.999999999999476
10
9.4499999999994309
20
-1.9999999999985796
42
-0.41421356237313406
10
11.249999999999647
20
-3.7999999999985956
10
11.249999999999536
20
-14.19656466886881
42
-0.78395167551228462
10
9.3639668938969063
20
-14.660186642992263
10
3.5052993346048753
20
-3.4636219741229377
42
-0.56359220114697872
0
LWPOLYLINE
5
174
100
AcDbEntity
8
0
100
AcDbPolyline
90
6
70
1
43
0.0
10
-9.4500000000004167
20
-2.0000000000009881
10
-4.3913324407091245
20
-2.0000000000004565
42
-0.56359220114707786
10
-3.5052993346063932
20
-3.463621974123916
10
-9.3639668938977092
20
-14.660186642991928
42
-0.78395167551229661
10
-11.250000000000336
20
-14.196564668868456
10
-11.250000000000227
20
-3.8000000000009679
42
-0.41421356237306128
0
ENDSEC
0
SECTION
2
OBJECTS
0
DICTIONARY
5
C
100
AcDbDictionary
3
ACAD_GROUP
350
D
3
ACAD_MLINESTYLE
350
17
0
DICTIONARY
5
D
100
AcDbDictionary
0
DICTIONARY
5
1A
330
C
100
AcDbDictionary
0
DICTIONARY
5
17
100
AcDbDictionary
0
ENDSEC
0
EOF
