0
SECTION
2
HEADER
9
$INSUNITS
70
4
9
$ACADVER
1
AC1014
9
$HANDSEED
5
FFFF
0
ENDSEC
0
SECTION
2
TABLES
0
TABLE
2
VPORT
5
8
100
AcDbSymbolTable
0
ENDTAB
0
TABLE
2
LTYPE
5
5
100
AcDbSymbolTable
0
LTYPE
5
14
100
AcDbSymbolTableRecord
100
AcDbLinetypeTableRecord
2
BYBLOCK
70
0
0
LTYPE
5
15
100
AcDbSymbolTableRecord
100
AcDbLinetypeTableRecord
2
BYLAYER
70
0
0
ENDTAB
0
TABLE
2
LAYER
5
2
100
AcDbSymbolTable
70
2
0
LAYER
5
50
100
AcDbSymbolTableRecord
100
AcDbLayerTableRecord
2
0
70
0
6
CONTINUOUS
0
ENDTAB
0
TABLE
2
STYLE
5
3
100
AcDbSymbolTable
70
1
0
STYLE
5
11
100
AcDbSymbolTableRecord
100
AcDbTextStyleTableRecord
2
STANDARD
70
0
0
ENDTAB
0
TABLE
2
VIEW
5
6
100
AcDbSymbolTable
70
0
0
ENDTAB
0
TABLE
2
UCS
5
7
100
AcDbSymbolTable
70
0
0
ENDTAB
0
TABLE
2
APPID
5
9
100
AcDbSymbolTable
70
2
0
APPID
5
12
100
AcDbSymbolTableRecord
100
AcDbRegAppTableRecord
2
ACAD
70
0
0
ENDTAB
0
TABLE
2
DIMSTYLE
5
A
100
AcDbSymbolTable
70
1
0
ENDTAB
0
TABLE
2
BLOCK_RECORD
5
1
100
AcDbSymbolTable
70
1
0
BLOCK_RECORD
5
1F
100
AcDbSymbolTableRecord
100
AcDbBlockTableRecord
2
*MODEL_SPACE
0
BLOCK_RECORD
5
1B
100
AcDbSymbolTableRecord
100
AcDbBlockTableRecord
2
*PAPER_SPACE
0
ENDTAB
0
ENDSEC
0
SECTION
2
BLOCKS
0
BLOCK
5
20
100
AcDbEntity
100
AcDbBlockBegin
2
*MODEL_SPACE
0
ENDBLK
5
21
100
AcDbEntity
100
AcDbBlockEnd
0
BLOCK
5
1C
100
AcDbEntity
100
AcDbBlockBegin
2
*PAPER_SPACE
0
ENDBLK
5
1D
100
AcDbEntity
100
AcDbBlockEnd
0
ENDSEC
0
SECTION
2
ENTITIES
0
CIRCLE
5
100
100
AcDbEntity
8
0
100
AcDbCircle
10
5.5000000000001856
20
33.484944330585421
30
0
40
1.4500000000000002
0
ARC
5
101
100
AcDbEntity
8
0
100
AcDbCircle
10
1.0000000000001967
20
37.977938851093683
30
0
40
0.99999999999998734
100
AcDbArc
50
115.69999999999942
51
180
0
LINE
5
102
100
AcDbEntity
8
0
100
AcDbLine
10
69.844732989640761
20
56.683491748482027
30
0
11
65.170386986835112
21
54.433880937579374
31
0
0
ARC
5
103
100
AcDbEntity
8
0
100
AcDbCircle
10
75.041512454122682
20
79.922657961995313
30
0
40
0.99999999999996747
100
AcDbArc
50
70.699999999998226
51
157.83928404910611
0
ARC
5
104
100
AcDbEntity
8
0
100
AcDbCircle
10
54.666665029076583
20
88.221187494755
30
0
40
20.999999999999851
100
AcDbArc
50
295.69999999999987
51
337.83928404910353
0
LINE
5
105
100
AcDbEntity
8
0
100
AcDbLine
10
63.773505805414914
20
69.298570046991188
30
0
11
59.099159802609471
21
67.048959236088621
31
0
0
LINE
5
106
100
AcDbEntity
8
0
100
AcDbLine
10
37.908354417847846
20
38.261647329311685
30
0
11
61.64555772296896
21
49.685591800633105
31
0
0
LINE
5
107
100
AcDbEntity
8
0
100
AcDbLine
10
25.92717300452459
20
51.084360108146186
30
0
11
0.56634091541266873
21
38.879015872415764
31
0
0
ARC
5
108
100
AcDbEntity
8
0
100
AcDbCircle
10
100.21949915483324
20
70.045906970708643
30
0
40
2.0000000000000178
100
AcDbArc
50
-19.29999999999956
51
70.700000000000315
0
ARC
5
109
100
AcDbEntity
8
0
100
AcDbCircle
10
85.177554639708021
20
58.86151794398085
30
0
40
1.0000000000000056
100
AcDbArc
50
253.56071595089853
51
340.70000000000005
0
ARC
5
110
100
AcDbEntity
8
0
100
AcDbCircle
10
88.447698969912082
20
86.353105393683904
30
0
40
2.0000000000000071
100
AcDbArc
50
70.69999999999979
51
160.70000000000033
0
ARC
5
111
100
AcDbEntity
8
0
100
AcDbCircle
10
98.566927191267141
20
65.326902212792518
30
0
40
2.0000000000000071
100
AcDbArc
50
250.69999999999993
51
340.69999999999993
0
ARC
5
112
100
AcDbEntity
8
0
100
AcDbCircle
10
78.951573765979234
20
37.760874300718207
30
0
40
20.999999999999925
100
AcDbArc
50
73.560715950897375
51
115.70000000000023
0
ARC
5
113
100
AcDbEntity
8
0
100
AcDbCircle
10
1.000000000000135
20
24.660542317783776
30
0
40
1.0000000000000022
100
AcDbArc
50
180
51
295.7000000000005
0
LINE
5
114
100
AcDbEntity
8
0
100
AcDbLine
10
29.452002268390736
20
55.832649245092448
30
0
11
53.189205573511835
21
67.25659371641386
31
0
0
ARC
5
115
100
AcDbEntity
8
0
100
AcDbCircle
10
93.166703727828235
20
84.700533430117787
30
0
40
1.9999999999999785
100
AcDbArc
50
-19.29999999999956
51
70.700000000000543
0
CIRCLE
5
116
100
AcDbEntity
8
0
100
AcDbCircle
10
23.749999999999915
20
42.268076189958009
30
0
40
1.4499999999999968
0
LINE
5
117
100
AcDbEntity
8
0
100
AcDbLine
10
31.998400188750225
20
38.469281809636904
30
0
11
1.4336590845876884
21
23.759465296461684
31
0
0
LINE
5
118
100
AcDbEntity
8
0
100
AcDbLine
10
93.630649039268036
20
79.974179576789723
30
0
11
95.054305630994676
21
84.039504644691363
31
0
0
LINE
5
119
100
AcDbEntity
8
0
100
AcDbLine
10
96.815202872358469
20
73.357165465601625
30
0
11
100.88052794025968
21
71.933508873875112
31
0
0
LINE
5
120
100
AcDbEntity
8
0
100
AcDbLine
10
86.121355591291262
20
58.531003551267624
30
0
11
87.223559226750865
21
61.678403068261964
31
0
0
LINE
5
121
100
AcDbEntity
8
0
100
AcDbLine
10
75.372026846835922
20
80.866458913578498
30
0
11
78.519426363830632
21
79.764255278118782
31
0
0
LINE
5
122
100
AcDbEntity
8
0
100
AcDbLine
10
93.840573337938821
20
64.862956901352788
30
0
11
97.905898405840688
21
63.439300309626049
31
0
0
LINE
5
123
100
AcDbEntity
8
0
100
AcDbLine
10
85.136440475018986
20
82.948809111208774
30
0
11
86.560097066745612
21
87.014134179110343
31
0
0
LINE
5
124
100
AcDbEntity
8
0
100
AcDbLine
10
74.48648501232428
20
81.280385247777431
30
0
11
74.45410129592932
21
81.187911869845308
31
0
0
LINE
5
125
100
AcDbEntity
8
0
100
AcDbLine
10
85.892376012956944
20
57.580694283965926
30
0
11
85.799902635024452
21
57.613078000361028
31
0
0
LINE
5
126
100
AcDbEntity
8
0
100
AcDbLine
10
89.108727755338535
20
88.24070729685036
30
0
11
93.827732513254659
21
86.588135333284242
31
0
0
LINE
5
127
100
AcDbEntity
8
0
100
AcDbLine
10
102.10710105799973
20
69.384878185282204
30
0
11
100.45452909443361
21
64.665873427366066
31
0
0
LINE
5
128
100
AcDbEntity
8
0
100
AcDbLine
10
1.3281042932078435e-13
20
24.660542317783779
30
0
11
2.095545958979983e-13
21
37.977938851093683
31
0
0
LWPOLYLINE
5
129
100
AcDbEntity
8
0
100
AcDbPolyline
90
4
70
1
43
0.0
10
78.133820649149357
20
73.542019804066626
10
76.718119221774472
20
74.037791393136445
42
-0.99999999999999989
10
77.709662399914208
20
76.869194247886142
10
79.12536382728905
20
76.373422658816338
42
-0.99999999999999989
0
LINE
5
130
100
AcDbEntity
8
0
100
AcDbLine
10
87.904185154285841
20
81.775486718846167
30
0
11
87.408413565215966
21
80.359785291471368
31
0
0
LWPOLYLINE
5
131
100
AcDbEntity
8
0
100
AcDbPolyline
90
4
70
1
43
0.0
10
82.120183281804401
20
65.258970066139696
10
81.624411692734569
20
63.843268638764826
42
0.99999999999999989
10
84.45581454748428
20
62.851725460625183
10
84.951586136554127
20
64.267426888000031
42
0.99999999999999989
0
LINE
5
132
100
AcDbEntity
8
0
100
AcDbLine
10
90.735588009035496
20
80.783943540706531
30
0
11
90.239816419965692
21
79.368242113331661
31
0
0
LINE
5
133
100
AcDbEntity
8
0
100
AcDbLine
10
94.650337301855885
20
67.758017931585258
30
0
11
93.234635874481029
21
68.253789520655047
31
0
0
LINE
5
134
100
AcDbEntity
8
0
100
AcDbLine
10
95.641880479995535
20
70.589420786334884
30
0
11
94.226179052620708
21
71.085192375404745
31
0
0
ARC
5
135
100
AcDbEntity
8
0
100
AcDbCircle
10
83.040113120109424
20
63.347497049695022
30
0
40
4.5000000000000258
100
AcDbArc
50
249.13975823875728
51
250.69999999999982
0
ARC
5
136
100
AcDbEntity
8
0
100
AcDbCircle
10
93.730407463550875
20
69.669490948029903
30
0
40
1.5000000000000009
100
AcDbArc
50
70.700000000000045
51
250.69999999999968
0
ARC
5
137
100
AcDbEntity
8
0
100
AcDbCircle
10
89.319886581660654
20
81.279715129776349
30
0
40
1.4999999999999867
100
AcDbArc
50
-19.299999999999461
51
160.70000000000022
0
ARC
5
138
100
AcDbEntity
8
0
100
AcDbCircle
10
79.881344857207012
20
85.401244471477398
30
0
40
5.7991783166792201
100
AcDbArc
50
254.98945689897135
51
336.41054310102828
0
CIRCLE
5
139
100
AcDbEntity
8
0
100
AcDbCircle
10
86.179999850885039
20
72.313606089735686
30
0
40
4.5
0
ARC
5
140
100
AcDbEntity
8
0
100
AcDbCircle
10
95.146108890925717
20
69.173719358960057
30
0
40
1.4999999999999589
100
AcDbArc
50
-109.30000000000052
51
70.700000000000387
0
ARC
5
141
100
AcDbEntity
8
0
100
AcDbCircle
10
92.478654844563124
20
59.22596770799403
30
0
40
5.799178316679189
100
AcDbArc
50
74.989456898971724
51
156.41054310102899
0
ARC
5
142
100
AcDbEntity
8
0
100
AcDbCircle
10
88.824114992590808
20
79.864013702401479
30
0
40
1.5000000000000298
100
AcDbArc
50
160.699999999998
51
340.70000000000107
0
ARC
5
143
100
AcDbEntity
8
0
100
AcDbCircle
10
99.267638232626723
20
78.612261083413728
30
0
40
5.7991783166791935
100
AcDbArc
50
164.98945689897147
51
246.41054310102871
0
LINE
5
144
100
AcDbEntity
8
0
100
AcDbLine
10
28.431718534399366
20
54.691523987874682
30
0
11
27.967740472507337
21
53.366610622581689
31
0
0
LINE
5
145
100
AcDbEntity
8
0
100
AcDbLine
10
54.71755252811338
20
67.342041576936126
30
0
11
56.042465893406366
21
66.87806351504409
31
0
0
LINE
5
146
100
AcDbEntity
8
0
100
AcDbLine
10
62.665841456960329
20
50.826717057850857
30
0
11
63.129819518852358
21
52.151630423143871
31
0
0
LINE
5
147
100
AcDbEntity
8
0
100
AcDbLine
10
36.380007463246315
20
38.176199468789406
30
0
11
35.055094097953294
21
38.640177530681456
31
0
0
ARC
5
148
100
AcDbEntity
8
0
100
AcDbCircle
10
30.319320437565853
20
54.03049520244825
30
0
40
2.0000000000000253
100
AcDbArc
50
115.7000000000006
51
160.70000000000067
0
ARC
5
149
100
AcDbEntity
8
0
100
AcDbCircle
10
54.05652374268692
20
65.454439673769627
30
0
40
2.0000000000000488
100
AcDbArc
50
70.700000000000003
51
115.69999999999931
0
ARC
5
150
100
AcDbEntity
8
0
100
AcDbCircle
10
60.778239553793902
20
51.487745843277253
30
0
40
1.9999999999999503
100
AcDbArc
50
295.69999999999965
51
340.70000000000107
0
ARC
5
151
100
AcDbEntity
8
0
100
AcDbCircle
10
37.041036248672761
20
40.063801371955833
30
0
40
1.9999999999999649
100
AcDbArc
50
250.69999999999968
51
295.70000000000033
0
ARC
5
152
100
AcDbEntity
8
0
100
AcDbCircle
10
24.192536666174476
20
54.688668193434495
30
0
40
3.9999999999999165
100
AcDbArc
50
295.69999999999953
51
340.7000000000009
0
ARC
5
153
100
AcDbEntity
8
0
100
AcDbCircle
10
33.733036527100403
20
34.864973724348538
30
0
40
3.9999999999999987
100
AcDbArc
50
70.700000000000017
51
115.70000000000003
0
ARC
5
154
100
AcDbEntity
8
0
100
AcDbCircle
10
57.364523464259285
20
70.653267321377058
30
0
40
4.0000000000000586
100
AcDbArc
50
250.69999999999987
51
295.69999999999965
0
ARC
5
155
100
AcDbEntity
8
0
100
AcDbCircle
10
66.905023325185383
20
50.829572852290909
30
0
40
4.0000000000001297
100
AcDbArc
50
115.7000000000006
51
160.69999999999956
0
ENDSEC
0
SECTION
2
OBJECTS
0
DICTIONARY
5
C
100
AcDbDictionary
3
ACAD_GROUP
350
D
3
ACAD_MLINESTYLE
350
17
0
DICTIONARY
5
D
100
AcDbDictionary
0
DICTIONARY
5
1A
330
C
100
AcDbDictionary
0
DICTIONARY
5
17
100
AcDbDictionary
0
ENDSEC
0
EOF
