0
SECTION
2
HEADER
9
$INSUNITS
70
4
9
$ACADVER
1
AC1014
9
$HANDSEED
5
FFFF
0
ENDSEC
0
SECTION
2
TABLES
0
TABLE
2
VPORT
5
8
100
AcDbSymbolTable
0
ENDTAB
0
TABLE
2
LTYPE
5
5
100
AcDbSymbolTable
0
LTYPE
5
14
100
AcDbSymbolTableRecord
100
AcDbLinetypeTableRecord
2
BYBLOCK
70
0
0
LTYPE
5
15
100
AcDbSymbolTableRecord
100
AcDbLinetypeTableRecord
2
BYLAYER
70
0
0
ENDTAB
0
TABLE
2
LAYER
5
2
100
AcDbSymbolTable
70
2
0
LAYER
5
50
100
AcDbSymbolTableRecord
100
AcDbLayerTableRecord
2
0
70
0
6
CONTINUOUS
0
ENDTAB
0
TABLE
2
STYLE
5
3
100
AcDbSymbolTable
70
1
0
STYLE
5
11
100
AcDbSymbolTableRecord
100
AcDbTextStyleTableRecord
2
STANDARD
70
0
0
ENDTAB
0
TABLE
2
VIEW
5
6
100
AcDbSymbolTable
70
0
0
ENDTAB
0
TABLE
2
UCS
5
7
100
AcDbSymbolTable
70
0
0
ENDTAB
0
TABLE
2
APPID
5
9
100
AcDbSymbolTable
70
2
0
APPID
5
12
100
AcDbSymbolTableRecord
100
AcDbRegAppTableRecord
2
ACAD
70
0
0
ENDTAB
0
TABLE
2
DIMSTYLE
5
A
100
AcDbSymbolTable
70
1
0
ENDTAB
0
TABLE
2
BLOCK_RECORD
5
1
100
AcDbSymbolTable
70
1
0
BLOCK_RECORD
5
1F
100
AcDbSymbolTableRecord
100
AcDbBlockTableRecord
2
*MODEL_SPACE
0
BLOCK_RECORD
5
1B
100
AcDbSymbolTableRecord
100
AcDbBlockTableRecord
2
*PAPER_SPACE
0
ENDTAB
0
ENDSEC
0
SECTION
2
BLOCKS
0
BLOCK
5
20
100
AcDbEntity
100
AcDbBlockBegin
2
*MODEL_SPACE
0
ENDBLK
5
21
100
AcDbEntity
100
AcDbBlockEnd
0
BLOCK
5
1C
100
AcDbEntity
100
AcDbBlockBegin
2
*PAPER_SPACE
0
ENDBLK
5
1D
100
AcDbEntity
100
AcDbBlockEnd
0
ENDSEC
0
SECTION
2
ENTITIES
0
CIRCLE
5
100
100
AcDbEntity
8
0
100
AcDbCircle
10
13.00000000000118
20
24.996620129738755
30
0
40
1.4999999999999982
0
CIRCLE
5
101
100
AcDbEntity
8
0
100
AcDbCircle
10
-13.000000000001366
20
-65.003379870261298
30
0
40
1.5000000000000002
0
CIRCLE
5
102
100
AcDbEntity
8
0
100
AcDbCircle
10
13.000000000000068
20
-65.003379870261284
30
0
40
1.5000000000000009
0
CIRCLE
5
103
100
AcDbEntity
8
0
100
AcDbCircle
10
-13.00000000000118
20
-24.996620129738755
30
0
40
1.4999999999999991
0
CIRCLE
5
104
100
AcDbEntity
8
0
100
AcDbCircle
10
13.00000000000118
20
-24.996620129738755
30
0
40
1.5
0
CIRCLE
5
105
100
AcDbEntity
8
0
100
AcDbCircle
10
13.00000000000118
20
65.996620129738758
30
0
40
1.5000000000000036
0
CIRCLE
5
106
100
AcDbEntity
8
0
100
AcDbCircle
10
-13.00000000000118
20
24.996620129738755
30
0
40
1.4999999999999982
0
LINE
5
107
100
AcDbEntity
8
0
100
AcDbLine
10
-13.000000000001386
20
-68.003379870261298
30
0
11
13.000000000000069
21
-68.003379870261284
31
0
0
CIRCLE
5
108
100
AcDbEntity
8
0
100
AcDbCircle
10
-13.00000000000118
20
65.996620129738758
30
0
40
1.4999999999999969
0
LWPOLYLINE
5
109
100
AcDbEntity
8
0
100
AcDbPolyline
90
8
70
1
43
0.0
10
7.4999999999999876
20
20.746999999999293
10
4.4999999999999885
20
20.746999999999289
42
0.41421356237309015
10
3.4999999999999885
20
19.7469999999993
10
3.4999999999995515
20
-19.746734986956223
42
0.41421356237309437
10
4.4999999999995399
20
-20.746734986956245
10
7.4999999999995399
20
-20.746734986956277
42
0.41421356237309859
10
8.4999999999995506
20
-19.746734986956287
10
8.4999999999999893
20
19.746999999999279
42
0.41421356237309992
0
LWPOLYLINE
5
110
100
AcDbEntity
8
0
100
AcDbPolyline
90
8
70
1
43
0.0
10
-3.4999999999999973
20
-19.746734986956127
10
-3.5
20
19.746999999999343
42
0.41421356237309243
10
-4.5000000000000009
20
20.746999999999343
10
-7.5000000000000107
20
20.746999999999343
42
0.41421356237309015
10
-8.5000000000000107
20
19.746999999999353
10
-8.5000000000004512
20
-19.746734986956113
42
0.41421356237309992
10
-7.5000000000004512
20
-20.746734986956127
10
-4.4999999999999973
20
-20.746734986956127
42
0.41421356237309276
0
LWPOLYLINE
5
111
100
AcDbEntity
8
0
100
AcDbPolyline
90
8
70
1
43
0.0
10
-7.9999999999999893
20
-30.24700000000065
42
-0.41421356237308982
10
-6.9999999999999885
20
-29.247000000000657
10
-3.9999999999999778
20
-29.247000000000657
42
-0.41421356237309276
10
-2.999999999999976
20
-30.247000000000661
10
-2.9999999999999503
20
-59.753379870261305
42
-0.41421356237309731
10
-3.9999999999999547
20
-60.753379870261305
10
-7.0000000000002949
20
-60.753379870261305
42
-0.41421356237310347
10
-8.0000000000002931
20
-59.753379870261298
0
LWPOLYLINE
5
112
100
AcDbEntity
8
0
100
AcDbPolyline
90
8
70
1
43
0.0
10
8.0000000000000497
20
-59.753379870261305
42
-0.41421356237309731
10
7.0000000000000462
20
-60.753379870261305
10
3.999999999999706
20
-60.753379870261305
42
-0.41421356237310347
10
2.9999999999997073
20
-59.753379870261298
10
3.0000000000000115
20
-30.24700000000065
42
-0.41421356237308982
10
4.0000000000000124
20
-29.247000000000657
10
7.0000000000000231
20
-29.247000000000657
42
-0.41421356237309276
10
8.0000000000000249
20
-30.247000000000661
0
LINE
5
113
100
AcDbEntity
8
0
100
AcDbLine
10
15.999999999999929
20
66.250000000000014
30
0
11
16.00000000000118
21
65.996620129738758
31
0
0
LINE
5
114
100
AcDbEntity
8
0
100
AcDbLine
10
14.49999999999979
20
20.322133084365809
30
0
11
14.500000000000025
21
-21.254962742964043
31
0
0
LINE
5
115
100
AcDbEntity
8
0
100
AcDbLine
10
16.000000000001162
20
63.93506731692991
30
0
11
16.000000000000853
21
27.033775008485733
31
0
0
LINE
5
116
100
AcDbEntity
8
0
100
AcDbLine
10
14.50000000000038
20
-28.738277516513225
30
0
11
14.500000000000096
21
-61.880880871062104
31
0
0
ARC
5
117
100
AcDbEntity
8
0
100
AcDbCircle
10
13.00000000000118
20
-24.996620129738755
30
0
40
3.4999999999999987
100
AcDbArc
50
-56.25101140412368
51
56.251011404129052
0
ARC
5
118
100
AcDbEntity
8
0
100
AcDbCircle
10
15.500000000000394
20
-28.738277516513236
30
0
40
1.000000000000014
100
AcDbArc
50
123.74898859587699
51
180
0
ARC
5
119
100
AcDbEntity
8
0
100
AcDbCircle
10
15.500000000000039
20
-21.25496274296404
30
0
40
1.0000000000000142
100
AcDbArc
50
180
51
236.2510114041286
0
ARC
5
120
100
AcDbEntity
8
0
100
AcDbCircle
10
17.462707284336545
20
20.322133084365817
30
0
40
2.962707284336755
100
AcDbArc
50
133.67224949916579
51
180
0
ARC
5
121
100
AcDbEntity
8
0
100
AcDbCircle
10
13.00000000000118
20
24.996620129738755
30
0
40
3.5000000000000018
100
AcDbArc
50
-46.327750500834135
51
27.580199203597186
0
ARC
5
122
100
AcDbEntity
8
0
100
AcDbCircle
10
16.900000000000858
20
27.033775008485726
30
0
40
0.90000000000000746
100
AcDbArc
50
180
51
207.58019920359718
0
ARC
5
123
100
AcDbEntity
8
0
100
AcDbCircle
10
13.000000000000068
20
-65.003379870261284
30
0
40
2.9999999999999982
100
AcDbArc
50
-90
51
51.317812546510034
0
ARC
5
124
100
AcDbEntity
8
0
100
AcDbCircle
10
15.500000000000112
20
-61.880880871062097
30
0
40
1.0000000000000164
100
AcDbArc
50
180
51
231.31781254650974
0
ARC
5
125
100
AcDbEntity
8
0
100
AcDbCircle
10
-13.000000000007883
20
-65.003379870259721
30
0
40
2.999999999999996
100
AcDbArc
50
128.68218745348321
51
269.99999999999295
0
ARC
5
126
100
AcDbEntity
8
0
100
AcDbCircle
10
-15.500000000007555
20
-61.880880871060235
30
0
40
1.000000000000024
100
AcDbArc
50
308.68218745348327
51
360
0
LINE
5
127
100
AcDbEntity
8
0
100
AcDbLine
10
-14.500000000003833
20
-28.738277516511481
30
0
11
-14.500000000007539
21
-61.88088087106037
31
0
0
ARC
5
128
100
AcDbEntity
8
0
100
AcDbCircle
10
-15.500000000003848
20
-28.738277516511374
30
0
40
1.0000000000000142
100
AcDbArc
50
0
51
56.251011404116504
0
ARC
5
129
100
AcDbEntity
8
0
100
AcDbCircle
10
-13.000000000004185
20
-24.996620129737192
30
0
40
3.4999999999999942
100
AcDbArc
50
123.74898859586408
51
236.25101140411678
0
ARC
5
130
100
AcDbEntity
8
0
100
AcDbCircle
10
-15.500000000002597
20
-21.254962742962174
30
0
40
1.0000000000000189
100
AcDbArc
50
303.74898859586449
51
360
0
LINE
5
131
100
AcDbEntity
8
0
100
AcDbLine
10
-14.499999999997348
20
20.322133084367554
30
0
11
-14.500000000002583
21
-21.254962742962299
31
0
0
ARC
5
132
100
AcDbEntity
8
0
100
AcDbCircle
10
-17.462707284334105
20
20.322133084367916
30
0
40
2.9627072843367563
100
AcDbArc
50
0
51
46.327750500827371
0
ARC
5
133
100
AcDbEntity
8
0
100
AcDbCircle
10
-12.999999999998174
20
24.996620129740318
30
0
40
3.5000000000000013
100
AcDbArc
50
152.41980079639595
51
226.32775050082716
0
ARC
5
134
100
AcDbEntity
8
0
100
AcDbCircle
10
-16.899999999997608
20
27.033775008487758
30
0
40
0.90000000000000868
100
AcDbArc
50
332.41980079639592
51
360
0
LINE
5
135
100
AcDbEntity
8
0
100
AcDbLine
10
-16.000000000000988
20
63.935067316929647
30
0
11
-15.9999999999976
21
27.033775008487659
31
0
0
LINE
5
136
100
AcDbEntity
8
0
100
AcDbLine
10
9.5000000000011795
20
65.996620129738758
30
0
11
9.5000000000011777
21
54.996620129738496
31
0
0
ARC
5
137
100
AcDbEntity
8
0
100
AcDbCircle
10
-13.00000000000118
20
65.996620129738758
30
0
40
3.5000000000000009
100
AcDbArc
50
0
51
207.26604445073824
0
ARC
5
138
100
AcDbEntity
8
0
100
AcDbCircle
10
13.00000000000118
20
65.996620129738758
30
0
40
3.4999999999999964
100
AcDbArc
50
-27.266044450733261
51
180
0
ARC
5
139
100
AcDbEntity
8
0
100
AcDbCircle
10
17.000000000001201
20
63.935067316929889
30
0
40
1.000000000000038
100
AcDbArc
50
152.73395554926734
51
180
0
ARC
5
140
100
AcDbEntity
8
0
100
AcDbCircle
10
-17.000000000001062
20
63.935067316929533
30
0
40
1.0000000000000719
100
AcDbArc
50
0
51
27.266044450737077
0
LWPOLYLINE
5
141
100
AcDbEntity
8
0
100
AcDbPolyline
90
8
70
1
43
0.0
10
6.5000000000010472
20
45.304999999999687
10
-6.5000000000013047
20
45.304999999999126
42
0.41421356237308116
10
-9.5000000000011795
20
42.304999999999133
10
-9.5000000000011795
20
35.304999999998984
42
0.41421356237309531
10
-6.5000000000011777
20
32.304999999998991
10
6.5000000000011777
20
32.304999999998991
42
0.41421356237309531
10
9.5000000000011795
20
35.304999999998984
10
9.5000000000011777
20
42.304999999999694
42
0.41421356237310969
0
LINE
5
142
100
AcDbEntity
8
0
100
AcDbLine
10
-9.5000000000011795
20
65.996620129738758
30
0
11
-9.5000000000011795
21
54.996620129738588
31
0
0
LINE
5
143
100
AcDbEntity
8
0
100
AcDbLine
10
-5.5000000000012133
20
50.996620129738588
30
0
11
5.500000000001144
21
50.996620129738503
31
0
0
ARC
5
144
100
AcDbEntity
8
0
100
AcDbCircle
10
-5.5000000000011751
20
54.996620129738588
30
0
40
4.0000000000000036
100
AcDbArc
50
180
51
269.99999999999943
0
ARC
5
145
100
AcDbEntity
8
0
100
AcDbCircle
10
5.5000000000011893
20
54.996620129738488
30
0
40
3.9999999999999858
100
AcDbArc
50
-90.000000000000654
51
0
0
ENDSEC
0
SECTION
2
OBJECTS
0
DICTIONARY
5
C
100
AcDbDictionary
3
ACAD_GROUP
350
D
3
ACAD_MLINESTYLE
350
17
0
DICTIONARY
5
D
100
AcDbDictionary
0
DICTIONARY
5
1A
330
C
100
AcDbDictionary
0
DICTIONARY
5
17
100
AcDbDictionary
0
ENDSEC
0
EOF
