 0
SECTION
 2
ENTITIES
  0
LINE
 8
Group#46
10
702.1419843262526
20
167.63716628294645
30
2.0000000000018536
11
702.6596224135508
21
167.56901793231074
31
2.0000000000018248
  0
LINE
 8
Group#46
10
700.9275716183996
20
168.56901793661234
30
2.000000000001824
11
701.2454088608107
21
168.15480437520597
31
2.0000000000018536
  0
LINE
 8
Group#46
10
703.1772605018648
20
167.63716627523308
30
2.000000000001838
11
703.6596224112457
21
167.83696711480775
31
2.000000000001838
  0
LINE
 8
Group#46
10
701.2454088608107
20
168.15480437520597
30
2.0000000000018536
11
701.659622419849
21
167.836967129709
31
2.0000000000018248
  0
LINE
 8
Group#46
10
703.6596224112457
20
167.83696711480775
30
2.000000000001838
11
704.0738359750201
21
168.15480435413266
31
2.0000000000018368
  0
LINE
 8
Group#46
10
736.3916732385045
20
210.56901792800926
30
2.0000000000014357
11
736.0738359960936
21
210.98323148941563
31
2.0000000000014135
  0
LINE
 8
Group#46
10
734.6596224433533
20
211.56901793231094
30
2.0000000000014286
11
734.1419843550394
21
211.50086958938846
31
2.0000000000014206
  0
LINE
 8
Group#46
10
701.659622419849
20
211.3010687349127
30
2.0000000000014513
11
702.1419843262526
21
211.50086958167512
31
2.000000000001444
  0
LINE
 8
Group#46
10
733.2454088818841
20
210.98323151048902
30
2.000000000001436
11
732.9275716333009
21
210.5690179538189
31
2.000000000001436
  0
LINE
 8
Group#46
10
732.9275716333009
20
210.5690179538189
30
2.000000000001436
11
732.7277707829446
21
210.0866560489039
31
2.00000000000143
  0
LINE
 8
Group#46
10
702.1419843262526
20
211.50086958167512
30
2.000000000001444
11
702.6596224135508
21
211.56901793231094
31
2.000000000001444
  0
LINE
 8
Group#46
10
733.6596224456583
20
167.83696711480775
30
2.000000000001932
11
733.245408881884
21
168.15480435413266
31
2.000000000001917
  0
LINE
 8
Group#46
10
703.4161145458891
20
211.40193300753216
30
2.000000000001436
11
703.6596224112457
21
211.3010687498139
31
2.0000000000014277
  0
LINE
 8
Group#46
10
736.0738359960936
20
168.15480437520597
30
2.0000000000019162
11
735.6596224370553
21
167.836967129709
31
2.0000000000019025
  0
LINE
 8
Group#46
10
703.6596224112457
20
211.3010687498139
30
2.0000000000014277
11
704.0738359750201
21
210.98323151048902
31
2.000000000001437
  0
LINE
 8
Group#46
10
701.659622419849
20
167.836967129709
30
2.0000000000018248
11
702.1419843262526
21
167.63716628294645
31
2.0000000000018536
  0
LINE
 8
Group#46
10
704.3916732236032
20
210.5690179538189
30
2.000000000001437
11
704.5914740739596
21
210.0866560489039
31
2.0000000000014286
  0
LINE
 8
Group#46
10
736.591474081673
20
210.08665602011698
30
2.0000000000014135
11
736.3916732385045
21
210.56901792800926
31
2.0000000000014357
  0
LINE
 8
Group#46
10
768.6596224284523
20
247.04036615653425
30
2.0000000000018527
11
752.6596224284523
21
274.75317907763616
31
2.0000000000019558
  0
LINE
 8
Group#46
10
736.0738359960936
20
210.98323148941563
30
2.0000000000014135
11
735.6596224370553
21
211.30106873491275
31
2.0000000000014357
  0
LINE
 8
Group#46
10
702.6596224135508
20
211.56901793231094
30
2.000000000001444
11
703.1772605018648
21
211.50086958938843
31
2.0000000000014495
  0
LINE
 8
Group#46
10
700.9275716183996
20
210.56901792800926
30
2.0000000000014375
11
701.2454088608107
21
210.98323148941557
31
2.0000000000014446
  0
LINE
 8
Group#46
10
736.659622428452
20
169.5690179323108
30
2.0000000000019007
11
736.6596224284522
21
209.5690179323109
31
2.0000000000014215
  0
LINE
 8
Group#46
10
762.6523899771447
20
235.90850887205693
30
2.0000000000019114
11
768.6596224284523
21
247.04036615653425
31
2.0000000000018527
  0
LINE
 8
Group#46
10
701.2454088608107
20
210.98323148941557
30
2.0000000000014446
11
701.659622419849
21
211.3010687349127
31
2.0000000000014513
  0
LINE
 8
Group#46
10
700.7277707752312
20
169.0513798445046
30
2.0000000000018527
11
700.9275716183996
21
168.56901793661234
31
2.000000000001824
  0
LINE
 8
Group#46
10
736.6596224284522
20
209.5690179323109
30
2.0000000000014215
11
736.591474081673
21
210.08665602011698
31
2.0000000000014135
  0
LINE
 8
Group#46
10
704.3916732236032
20
168.56901791080278
30
2.0000000000018376
11
704.5914740739596
21
169.05137981571778
31
2.0000000000018234
  0
LINE
 8
Group#46
10
700.3960880433242
20
140.44638023164006
30
2.000000000002145
11
700.7859025884248
21
140.82866166954003
31
2.0000000000020997
  0
LINE
 8
Group#46
10
707.7241701845123
20
144.42264845756787
30
2.00000000000201
11
708.1837849732215
21
145.53225671393625
31
2.000000000001994
  0
LINE
 8
Group#46
10
702.2630186514253
20
154.18591964948243
30
2.000000000001948
11
702.2282949603941
21
154.65855620676174
31
2.0000000000019043
  0
LINE
 8
Group#46
10
706.040186429442
20
150.70736139061162
30
2.0000000000019784
11
704.9305781730736
21
151.16697617932064
31
2.0000000000019926
  0
LINE
 8
Group#46
10
694.7284173004524
20
122.82884238097883
30
2.00000000000181
11
694.8728582377317
21
123.52840116402275
31
2.0000000000017946
  0
LINE
 8
Group#46
10
701.2131865481216
20
141.1685482610982
30
2.0000000000021005
11
701.6733512577126
21
141.4623899146841
31
2.0000000000020854
  0
LINE
 8
Group#46
10
702.2551670094541
20
155.13170411489912
30
2.0000000000018896
11
702.3431808155696
21
155.5973698962581
31
2.0000000000018607
  0
LINE
 8
Group#46
10
694.7419733941208
20
122.11465619543576
30
2.0000000000018545
11
694.7284173004524
21
122.82884238097883
31
2.00000000000181
  0
LINE
 8
Group#46
10
697.5935034578509
20
119.3343868283483
30
2.000000000001971
11
696.895828173971
21
119.48766720399794
31
2.0000000000019416
  0
LINE
 8
Group#46
10
705.026010074584
20
160.20417328142165
30
2.000000000001944
11
704.659622428452
21
160.03480563005206
31
2.0000000000019282
  0
LINE
 8
Group#46
10
705.0339170659679
20
121.55264217799984
30
2.0000000000020526
11
706.2398218404553
21
121.0531400654766
31
2.000000000002068
  0
LINE
 8
Group#46
10
704.9305781730736
20
151.16697617932064
30
2.0000000000019926
11
704.4817549624249
21
151.31912339611586
31
2.0000000000019784
  0
LINE
 8
Group#46
10
703.7398218404554
20
142.12228386858123
30
2.000000000001998
11
704.9305781730736
21
142.27904991378844
31
2.0000000000019833
  0
LINE
 8
Group#46
10
708.1837849732215
20
147.91376937917283
30
2.0000000000019926
11
707.7241701845123
21
149.02337763554107
31
2.0000000000019793
  0
LINE
 8
Group#46
10
701.6733512577126
20
141.4623899146841
30
2.0000000000020854
11
702.1614549413325
21
141.70703102196515
31
2.0000000000020566
  0
LINE
 8
Group#46
10
699.1391128518046
20
138.05608508723816
30
2.0000000000025495
11
699.2883036329429
21
138.5812865611112
31
2.000000000002276
  0
LINE
 8
Group#46
10
704.4865085940442
20
159.9547814156366
30
2.0000000000019282
11
703.9917393065464
21
159.62544647613976
31
2.000000000001887
  0
LINE
 8
Group#46
10
694.8728582377317
20
123.52840116402275
30
2.0000000000017946
11
698.0389494343727
21
133.24782564987672
31
2.000000000003088
  0
LINE
 8
Group#46
10
704.659622428452
20
160.03480563005206
30
2.0000000000019282
11
704.4865085940442
21
159.9547814156366
31
2.0000000000019282
  0
LINE
 8
Group#46
10
700.2042879345225
20
120.25854695248718
30
2.000000000001998
11
701.2398218404554
21
121.0531400654766
31
2.0000000000020117
  0
LINE
 8
Group#46
10
702.4457266149428
20
121.55264217799984
30
2.000000000002053
11
703.7398218404554
21
121.72301304655451
31
2.000000000002054
  0
LINE
 8
Group#46
10
702.2282949603941
20
154.65855620676174
30
2.0000000000019043
11
702.2551670094541
21
155.13170411489912
31
2.0000000000018896
  0
LINE
 8
Group#46
10
701.2398218404554
20
121.0531400654766
30
2.0000000000020117
11
702.4457266149428
21
121.55264217799984
31
2.000000000002053
  0
LINE
 8
Group#46
10
702.3431808155696
20
155.5973698962581
30
2.0000000000018607
11
702.5483602592813
21
157.10841496745456
31
2.0000000000018887
  0
LINE
 8
Group#46
10
700.2042879345225
20
120.25854695248718
30
2.000000000001998
11
699.6462168450915
21
119.81267439845713
31
2.0000000000020273
  0
LINE
 8
Group#46
10
703.2002682162648
20
142.0387592377358
30
2.0000000000020117
11
703.7398218404554
21
142.12228386858123
31
2.000000000001998
  0
LINE
 8
Group#46
10
703.1820696493578
20
158.75995483377855
30
2.0000000000019016
11
702.8864034792125
21
158.24435841597094
31
2.0000000000019007
  0
LINE
 8
Group#46
10
706.040186429442
20
142.73866470249726
30
2.0000000000019833
11
706.9930286406031
21
143.4698062464068
31
2.0000000000019966
  0
LINE
 8
Group#46
10
698.0389494343727
20
133.24782564987672
30
2.000000000003088
11
699.1391128518046
21
138.05608508723816
31
2.0000000000025495
  0
LINE
 8
Group#46
10
699.7451649511813
20
139.57146551726552
30
2.0000000000021743
11
700.0479291880176
21
140.0258093234609
31
2.0000000000021587
  0
LINE
 8
Group#46
10
702.7257716677282
20
152.85007631376297
30
2.000000000001962
11
702.5138760283382
21
153.27397640576953
31
2.0000000000019487
  0
LINE
 8
Group#46
10
699.49104676207
20
139.08822807738977
30
2.0000000000022173
11
699.7451649511813
21
139.57146551726552
31
2.0000000000021743
  0
LINE
 8
Group#46
10
702.8864034792125
20
158.24435841597094
30
2.0000000000019007
11
702.6734809809865
21
157.6894510723778
31
2.0000000000019016
  0
LINE
 8
Group#46
10
702.6734809809865
20
157.6894510723778
30
2.0000000000019016
11
702.5483602592813
21
157.10841496745456
31
2.0000000000018887
  0
LINE
 8
Group#46
10
694.9128576211956
20
121.4210826548266
30
2.0000000000018257
11
694.7419733941208
21
122.11465619543576
31
2.0000000000018545
  0
LINE
 8
Group#46
10
699.6462168450915
20
119.81267439845713
30
2.0000000000020273
11
699.0034840895811
21
119.50100104333994
31
2.000000000001999
  0
LINE
 8
Group#46
10
703.9917393065464
20
159.62544647613976
30
2.000000000001887
11
703.5534557601209
21
159.22399201650933
31
2.0000000000019003
  0
LINE
 8
Group#46
10
699.0034840895811
20
119.50100104333994
30
2.000000000001999
11
698.3078039929802
21
119.33890576737764
31
2.0000000000019846
  0
LINE
 8
Group#46
10
698.3078039929802
20
119.33890576737764
30
2.0000000000019846
11
697.5935034578509
21
119.3343868283483
31
2.000000000001971
  0
LINE
 8
Group#46
10
702.5138760283382
20
153.27397640576953
30
2.0000000000019487
11
702.358751451933
21
153.72177928181065
31
2.000000000001934
  0
LINE
 8
Group#46
10
702.358751451933
20
153.72177928181065
30
2.000000000001934
11
702.2630186514253
21
154.18591964948243
31
2.000000000001948
  0
LINE
 8
Group#46
10
708.3405510184286
20
146.72301304655454
30
2.000000000001993
11
708.1837849732215
21
147.91376937917283
31
2.0000000000019926
  0
LINE
 8
Group#46
10
703.3046582403205
20
152.10210556608803
30
2.0000000000019638
11
702.9908585528283
21
152.457240478657
31
2.0000000000019775
  0
LINE
 8
Group#46
10
699.2883036329429
20
138.5812865611112
30
2.000000000002276
11
699.49104676207
21
139.08822807738977
31
2.0000000000022173
  0
LINE
 8
Group#46
10
708.1837849732215
20
145.53225671393625
30
2.000000000001994
11
708.3405510184286
21
146.72301304655454
31
2.000000000001993
  0
LINE
 8
Group#46
10
707.7241701845123
20
149.02337763554107
30
2.0000000000019793
11
706.9930286406031
21
149.97621984670226
31
2.0000000000019926
  0
LINE
 8
Group#46
10
702.6722557824032
20
141.89984434644433
30
2.000000000002013
11
703.2002682162648
21
142.0387592377358
31
2.0000000000020117
  0
LINE
 8
Group#46
10
695.6855357769508
20
120.22995959396755
30
2.000000000001898
11
695.2326380511943
21
120.78234471804369
31
2.000000000001884
  0
LINE
 8
Group#46
10
706.9930286406031
20
149.97621984670226
30
2.0000000000019926
11
706.040186429442
21
150.70736139061162
31
2.0000000000019784
  0
LINE
 8
Group#46
10
704.4817549624249
20
151.31912339611586
30
2.0000000000019784
11
704.0564569819437
21
151.52819916657765
31
2.0000000000019784
  0
LINE
 8
Group#46
10
695.2326380511943
20
120.78234471804369
30
2.000000000001884
11
694.9128576211956
21
121.4210826548266
31
2.0000000000018257
  0
LINE
 8
Group#46
10
696.249203492313
20
119.79118358966181
30
2.000000000001927
11
695.6855357769508
21
120.22995959396755
31
2.000000000001898
  0
LINE
 8
Group#46
10
700.0479291880176
20
140.0258093234609
30
2.0000000000021587
11
700.3960880433242
21
140.44638023164006
31
2.000000000002145
  0
LINE
 8
Group#46
10
703.5534557601209
20
159.22399201650933
30
2.0000000000019003
11
703.1820696493578
21
158.75995483377855
31
2.0000000000019016
  0
LINE
 8
Group#46
10
702.1614549413325
20
141.70703102196515
30
2.0000000000020566
11
702.6722557824032
21
141.89984434644433
31
2.000000000002013
  0
LINE
 8
Group#46
10
696.895828173971
20
119.48766720399794
30
2.0000000000019416
11
696.249203492313
21
119.79118358966181
31
2.000000000001927
  0
LINE
 8
Group#46
10
702.9908585528283
20
152.457240478657
30
2.0000000000019775
11
702.7257716677282
21
152.85007631376297
31
2.000000000001962
  0
LINE
 8
Group#46
10
703.6618693207694
20
151.7906713129942
30
2.0000000000019926
11
703.3046582403205
21
152.10210556608803
31
2.0000000000019638
  0
LINE
 8
Group#46
10
706.2398218404553
20
121.0531400654766
30
2.000000000002068
11
707.2753557463881
21
120.25854695248727
31
2.000000000002083
  0
LINE
 8
Group#46
10
704.9305781730736
20
142.27904991378844
30
2.0000000000019833
11
706.040186429442
21
142.73866470249726
31
2.0000000000019833
  0
LINE
 8
Group#46
10
704.0564569819437
20
151.52819916657765
30
2.0000000000019784
11
703.6618693207694
21
151.7906713129942
31
2.0000000000019926
  0
LINE
 8
Group#46
10
706.9930286406031
20
143.4698062464068
30
2.0000000000019966
11
707.7241701845123
21
144.42264845756787
31
2.00000000000201
  0
LINE
 8
Group#46
10
700.7859025884248
20
140.82866166954003
30
2.0000000000020997
11
701.2131865481216
21
141.1685482610982
31
2.0000000000021005
  0
LINE
 8
Group#46
10
736.8568353971252
20
101.96006182740533
30
2.000000000001753
11
735.8949761886226
21
100.46515877951441
31
2.000000000001712
  0
LINE
 8
Group#46
10
706.2398218404553
20
112.39288602763222
30
2.0000000000020157
11
705.0339170659679
21
111.8933839151091
31
2.0000000000020304
  0
LINE
 8
Group#46
10
731.0794230164488
20
112.39288602763226
30
2.0000000000020948
11
732.2853277909362
21
111.8933839151091
31
2.000000000002066
  0
LINE
 8
Group#46
10
711.4457467547418
20
98.45582383838239
30
2.0000000000020086
11
707.7904669316104
21
97.98022693684217
31
2.0000000000015623
  0
LINE
 8
Group#46
10
739.2802954225315
20
133.24782564987666
30
2.0000000000027023
11
738.1801320050995
21
138.05608508723816
31
2.0000000000021942
  0
LINE
 8
Group#46
10
708.7398218404554
20
116.72301304655447
30
2.000000000001998
11
708.5694509719008
21
115.42891782104181
31
2.000000000002013
  0
LINE
 8
Group#46
10
700.4624094597791
20
101.96006182740533
30
2.000000000001778
11
701.4242686682815
21
100.46515877951441
31
2.000000000001706
  0
LINE
 8
Group#46
10
706.0128680945675
20
97.9731111712978
30
2.000000000001591
11
707.7904669316104
21
97.98022693684217
31
2.0000000000015623
  0
LINE
 8
Group#46
10
733.0301432059033
20
98.40732023109217
30
2.0000000000016134
11
731.3063767623365
21
97.9731111712978
31
2.0000000000015703
  0
LINE
 8
Group#46
10
708.0699488593774
20
119.22301304655448
30
2.0000000000020686
11
708.5694509719008
21
118.01710827206715
31
2.000000000002054
  0
LINE
 8
Group#46
10
733.9313562965868
20
111.22219212570745
30
2.000000000002066
11
735.3593489183027
21
110.16353952362333
31
2.000000000002096
  0
LINE
 8
Group#46
10
708.0699488593774
20
114.22301304655446
30
2.000000000002013
11
707.2753557463881
21
113.18747914062178
31
2.0000000000020153
  0
LINE
 8
Group#46
10
730.0438891105161
20
120.25854695248727
30
2.000000000002408
11
729.2492959975267
21
119.22301304655444
31
2.0000000000024083
  0
LINE
 8
Group#46
10
734.8735182419615
20
121.55264217799984
30
2.0000000000020304
11
733.5794230164488
21
121.72301304655441
31
2.000000000001989
  0
LINE
 8
Group#46
10
737.1149569223816
20
120.25854695248718
30
2.0000000000020015
11
736.0794230164488
21
121.0531400654766
31
2.0000000000020157
  0
LINE
 8
Group#46
10
707.2753557463881
20
120.25854695248727
30
2.000000000002083
11
708.0699488593774
21
119.22301304655448
31
2.0000000000020686
  0
LINE
 8
Group#46
10
739.011440863924
20
119.33890576737774
30
2.00000000000196
11
739.7257413990533
21
119.3343868283483
31
2.0000000000019726
  0
LINE
 8
Group#46
10
718.6596224284519
20
98.76714039253098
30
2.000000000002007
11
711.4457467547418
21
98.45582383838239
31
2.0000000000020086
  0
LINE
 8
Group#46
10
732.2853277909362
20
111.8933839151091
30
2.000000000002066
11
733.9313562965868
21
111.22219212570745
31
2.000000000002066
  0
LINE
 8
Group#46
10
700.0960992471362
20
107.16883930438065
30
2.0000000000019185
11
699.7768834853149
21
105.42012275874521
31
2.000000000001892
  0
LINE
 8
Group#46
10
703.3878885603173
20
111.22219212570745
30
2.0000000000020033
11
701.9598959386014
21
110.16353952362333
31
2.000000000001989
  0
LINE
 8
Group#46
10
735.3593489183027
20
110.16353952362333
30
2.000000000002096
11
736.479978722378
21
108.7836492737149
31
2.000000000002053
  0
LINE
 8
Group#46
10
741.0700413645914
20
119.79118358966181
30
2.0000000000019296
11
741.6337090799534
21
120.22995959396755
31
2.0000000000019007
  0
LINE
 8
Group#46
10
701.4242686682815
20
100.46515877951441
30
2.000000000001706
11
702.7269964289355
21
99.25569251657224
31
2.0000000000016627
  0
LINE
 8
Group#46
10
729.2492959975267
20
114.22301304655441
30
2.0000000000020517
11
730.0438891105161
21
113.18747914062168
31
2.0000000000020512
  0
LINE
 8
Group#46
10
742.4063872357085
20
121.4210826548266
30
2.0000000000018274
11
742.5772714627833
21
122.1146561954358
31
2.000000000001827
  0
LINE
 8
Group#46
10
742.5772714627833
20
122.1146561954358
30
2.000000000001827
11
742.5908275564518
21
122.82884238097873
31
2.0000000000017972
  0
LINE
 8
Group#46
10
742.5908275564518
20
122.82884238097873
30
2.0000000000017972
11
742.4463866191725
21
123.52840116402275
31
2.0000000000017684
  0
LINE
 8
Group#46
10
733.5794230164488
20
121.72301304655441
30
2.000000000001989
11
732.2853277909362
21
121.55264217799984
31
2.0000000000020313
  0
LINE
 8
Group#46
10
728.7497938850034
20
115.42891782104189
30
2.000000000002066
11
729.2492959975267
21
114.22301304655441
31
2.0000000000020517
  0
LINE
 8
Group#46
10
701.9598959386014
20
110.16353952362333
30
2.000000000001989
11
700.8392661345262
21
108.78364927371481
31
2.0000000000019473
  0
LINE
 8
Group#46
10
728.5794230164488
20
116.72301304655447
30
2.000000000002065
11
728.7497938850034
21
115.42891782104189
31
2.000000000002066
  0
LINE
 8
Group#46
10
728.7497938850034
20
118.01710827206715
30
2.0000000000024105
11
728.5794230164488
21
116.72301304655447
31
2.000000000002065
  0
LINE
 8
Group#46
10
742.4463866191725
20
123.52840116402275
30
2.0000000000017684
11
739.2802954225315
21
133.24782564987666
31
2.0000000000027023
  0
LINE
 8
Group#46
10
707.2753557463881
20
113.18747914062178
30
2.0000000000020153
11
706.2398218404553
21
112.39288602763222
31
2.0000000000020157
  0
LINE
 8
Group#46
10
702.7269964289355
20
99.25569251657224
30
2.0000000000016627
11
704.2891016510009
21
98.40732023109217
31
2.000000000001605
  0
LINE
 8
Group#46
10
731.3063767623365
20
97.9731111712978
30
2.0000000000015703
11
729.5287779252939
21
97.98022693684217
31
2.0000000000015694
  0
LINE
 8
Group#46
10
699.7768834853149
20
105.42012275874521
30
2.000000000001892
11
699.9015871351448
21
103.64688919846792
31
2.0000000000018203
  0
LINE
 8
Group#46
10
732.2853277909362
20
121.55264217799984
30
2.0000000000020313
11
731.0794230164488
21
121.05314006547668
31
2.000000000002379
  0
LINE
 8
Group#46
10
708.5694509719008
20
118.01710827206715
30
2.000000000002054
11
708.7398218404554
21
116.72301304655447
31
2.000000000001998
  0
LINE
 8
Group#46
10
741.6337090799534
20
120.22995959396755
30
2.0000000000019007
11
742.0866068057097
21
120.78234471804369
31
2.0000000000018563
  0
LINE
 8
Group#46
10
737.223145609768
20
107.16883930438061
30
2.000000000001953
11
737.5423613715893
21
105.42012275874521
31
2.0000000000019242
  0
LINE
 8
Group#46
10
718.6596224284519
20
98.76714039253098
30
2.000000000002007
11
725.8734981021624
21
98.45582383838239
31
2.000000000002018
  0
LINE
 8
Group#46
10
737.1149569223816
20
120.25854695248718
30
2.0000000000020015
11
737.6730280118127
21
119.81267439845713
31
2.0000000000020033
  0
LINE
 8
Group#46
10
737.5423613715893
20
105.42012275874521
30
2.0000000000019242
11
737.4176577217594
21
103.64688919846787
31
2.0000000000018545
  0
LINE
 8
Group#46
10
739.7257413990533
20
119.3343868283483
30
2.0000000000019726
11
740.4234166829331
21
119.48766720399794
31
2.0000000000019447
  0
LINE
 8
Group#46
10
699.9015871351448
20
103.64688919846792
30
2.0000000000018203
11
700.4624094597791
21
101.96006182740533
31
2.000000000001778
  0
LINE
 8
Group#46
10
725.8734981021624
20
98.45582383838239
30
2.000000000002018
11
729.5287779252939
21
97.98022693684217
31
2.0000000000015694
  0
LINE
 8
Group#46
10
736.479978722378
20
108.7836492737149
30
2.000000000002053
11
737.223145609768
21
107.16883930438061
31
2.000000000001953
  0
LINE
 8
Group#46
10
737.6730280118127
20
119.81267439845713
30
2.0000000000020033
11
738.315760767323
21
119.50100104333994
31
2.0000000000020033
  0
LINE
 8
Group#46
10
705.0339170659679
20
111.8933839151091
30
2.0000000000020304
11
703.3878885603173
21
111.22219212570745
31
2.0000000000020033
  0
LINE
 8
Group#46
10
734.5922484279686
20
99.25569251657224
30
2.0000000000016698
11
733.0301432059033
21
98.40732023109217
31
2.0000000000016134
  0
LINE
 8
Group#46
10
704.2891016510009
20
98.40732023109217
30
2.000000000001605
11
706.0128680945675
21
97.9731111712978
31
2.000000000001591
  0
LINE
 8
Group#46
10
740.4234166829331
20
119.48766720399794
30
2.0000000000019447
11
741.0700413645914
21
119.79118358966181
31
2.0000000000019296
  0
LINE
 8
Group#46
10
737.4176577217594
20
103.64688919846787
30
2.0000000000018545
11
736.8568353971252
21
101.96006182740533
31
2.000000000001753
  0
LINE
 8
Group#46
10
736.0794230164488
20
121.0531400654766
30
2.0000000000020157
11
734.8735182419615
21
121.55264217799984
31
2.0000000000020304
  0
LINE
 8
Group#46
10
729.2492959975267
20
119.22301304655444
30
2.0000000000024083
11
728.7497938850034
21
118.01710827206715
31
2.0000000000024105
  0
LINE
 8
Group#46
10
703.7398218404554
20
121.72301304655451
30
2.000000000002054
11
705.0339170659679
21
121.55264217799984
31
2.0000000000020526
  0
LINE
 8
Group#46
10
731.0794230164488
20
121.05314006547668
30
2.000000000002379
11
730.0438891105161
21
120.25854695248727
31
2.000000000002408
  0
LINE
 8
Group#46
10
738.315760767323
20
119.50100104333994
30
2.0000000000020033
11
739.011440863924
21
119.33890576737774
31
2.00000000000196
  0
LINE
 8
Group#46
10
735.8949761886226
20
100.46515877951441
30
2.000000000001712
11
734.5922484279686
21
99.25569251657224
31
2.0000000000016698
  0
LINE
 8
Group#46
10
700.8392661345262
20
108.78364927371481
30
2.0000000000019473
11
700.0960992471362
21
107.16883930438065
31
2.0000000000019185
  0
LINE
 8
Group#46
10
730.0438891105161
20
113.18747914062168
30
2.0000000000020512
11
731.0794230164488
21
112.39288602763226
31
2.0000000000020948
  0
LINE
 8
Group#46
10
742.0866068057097
20
120.78234471804369
30
2.0000000000018563
11
742.4063872357085
21
121.4210826548266
31
2.0000000000018274
  0
LINE
 8
Group#46
10
698.0452630745073
20
173.95317907763595
30
2.0000000000019518
11
697.7909932783506
21
173.62180822773755
31
2.0000000000019376
  0
LINE
 8
Group#46
10
696.2455119562882
20
176.2986603996985
30
2.0000000000019496
11
696.6596224284522
21
176.353179077636
31
2.0000000000019504
  0
LINE
 8
Group#46
10
691.5949757461336
20
214.8229899443571
30
2.0000000000019353
11
692.0090862182977
21
214.76847126641957
31
2.0000000000019145
  0
LINE
 8
Group#46
10
691.1808652739696
20
134.73788688885242
30
2.000000000002048
11
690.7949757461334
21
134.89772756485985
31
2.0000000000020193
  0
LINE
 8
Group#46
10
697.4596224284522
20
176.13881972369117
30
2.000000000001965
11
697.7909932783506
21
175.8845499275345
31
2.0000000000019504
  0
LINE
 8
Group#46
10
690.4636048962351
20
214.35436079425563
30
2.000000000001944
11
690.7949757461337
21
214.60863059041222
31
2.000000000001928
  0
LINE
 8
Group#46
10
695.1141411063896
20
175.1672895498
30
2.0000000000019664
11
695.2739817823972
21
175.5531790776361
31
2.0000000000019655
  0
LINE
 8
Group#46
10
696.6596224284522
20
176.353179077636
30
2.0000000000019504
11
697.073732900616
21
176.2986603996985
31
2.0000000000019504
  0
LINE
 8
Group#46
10
690.049494424071
20
135.8692577387508
30
2.0000000000020335
11
689.9949757461336
21
136.28336821091486
31
2.000000000002034
  0
LINE
 8
Group#46
10
695.2739817823972
20
173.95317907763604
30
2.000000000001952
11
695.1141411063896
21
174.33906860547205
31
2.000000000001951
  0
LINE
 8
Group#46
10
697.7909932783506
20
173.62180822773755
30
2.0000000000019376
11
697.4596224284522
21
173.367538431581
31
2.000000000001951
  0
LINE
 8
Group#46
10
691.5949757461336
20
211.6229899443571
30
2.0000000000019376
11
691.1808652739696
21
211.67750862229462
31
2.000000000001945
  0
LINE
 8
Group#46
10
692.9806163921887
20
135.48336821091496
30
2.0000000000020193
11
692.726346596032
21
135.15199736101644
31
2.000000000002034
  0
LINE
 8
Group#46
10
696.2455119562882
20
173.2076977555735
30
2.0000000000019673
11
695.8596224284521
21
173.36753843158087
31
2.000000000001952
  0
LINE
 8
Group#46
10
689.9949757461336
20
213.2229899443571
30
2.0000000000019447
11
690.0494944240712
21
213.6371004165212
31
2.0000000000019504
  0
LINE
 8
Group#46
10
690.7949757461334
20
134.89772756485985
30
2.0000000000020193
11
690.4636048962351
21
135.15199736101647
31
2.000000000002035
  0
LINE
 8
Group#46
10
695.8596224284521
20
173.36753843158087
30
2.000000000001952
11
695.5282515785539
21
173.62180822773755
31
2.0000000000019384
  0
LINE
 8
Group#46
10
690.2093351000784
20
212.4229899443572
30
2.000000000001951
11
690.0494944240712
21
212.8088794721931
31
2.0000000000019518
  0
LINE
 8
Group#46
10
690.049494424071
20
136.6974786830789
30
2.000000000002034
11
690.2093351000783
21
137.08336821091495
31
2.000000000002018
  0
LINE
 8
Group#46
10
696.6596224284522
20
173.15317907763605
30
2.000000000001952
11
696.2455119562882
21
173.2076977555735
31
2.0000000000019673
  0
LINE
 8
Group#46
10
692.3949757461335
20
134.89772756485985
30
2.0000000000020184
11
692.0090862182975
21
134.73788688885247
31
2.00000000000202
  0
LINE
 8
Group#46
10
695.1141411063896
20
174.33906860547205
30
2.000000000001951
11
695.0596224284521
21
174.753179077636
31
2.0000000000019664
  0
LINE
 8
Group#46
10
692.3949757461335
20
137.66900885696998
30
2.0000000000028124
11
692.726346596032
21
137.41473906081333
31
2.0000000000028413
  0
LINE
 8
Group#46
10
695.5282515785539
20
173.62180822773755
30
2.0000000000019384
11
695.2739817823972
21
173.95317907763604
31
2.000000000001952
  0
LINE
 8
Group#46
10
690.2093351000783
20
135.48336821091496
30
2.00000000000202
11
690.049494424071
21
135.8692577387508
31
2.0000000000020335
  0
LINE
 8
Group#46
10
698.2596224284521
20
174.753179077636
30
2.0000000000019655
11
698.2051037505147
21
174.33906860547205
31
2.0000000000019504
  0
LINE
 8
Group#46
10
697.4596224284522
20
173.367538431581
30
2.000000000001951
11
697.073732900616
21
173.2076977555735
31
2.0000000000019673
  0
LINE
 8
Group#46
10
690.4636048962351
20
137.41473906081333
30
2.000000000002842
11
690.7949757461334
21
137.66900885696998
31
2.0000000000028133
  0
LINE
 8
Group#46
10
691.1808652739696
20
211.67750862229462
30
2.000000000001945
11
690.7949757461337
21
211.83734929830206
31
2.000000000001945
  0
LINE
 8
Group#46
10
695.5282515785539
20
175.8845499275345
30
2.000000000001951
11
695.8596224284521
21
176.13881972369103
31
2.0000000000019367
  0
LINE
 8
Group#46
10
698.2051037505147
20
175.1672895498
30
2.0000000000019655
11
698.2596224284521
21
174.753179077636
31
2.0000000000019655
  0
LINE
 8
Group#46
10
690.7949757461337
20
214.60863059041222
30
2.000000000001928
11
691.1808652739696
21
214.76847126641957
31
2.0000000000019145
  0
LINE
 8
Group#46
10
703.3255226431446
20
148.2691987004535
30
2.000000000001995
11
702.9394572514686
21
148.10928517925836
31
2.000000000002008
  0
LINE
 8
Group#46
10
690.2093351000784
20
214.0229899443572
30
2.000000000001958
11
690.4636048962351
21
214.35436079425563
31
2.000000000001944
  0
LINE
 8
Group#46
10
690.0494944240712
20
212.8088794721931
30
2.0000000000019518
11
689.9949757461336
21
213.2229899443571
31
2.0000000000019447
  0
LINE
 8
Group#46
10
698.2051037505147
20
174.33906860547205
30
2.0000000000019504
11
698.0452630745073
21
173.95317907763595
31
2.0000000000019518
  0
LINE
 8
Group#46
10
693.1949757461334
20
136.28336821091486
30
2.0000000000028133
11
693.1404570681959
21
135.8692577387508
31
2.0000000000027844
  0
LINE
 8
Group#46
10
695.8596224284521
20
176.13881972369103
30
2.0000000000019367
11
696.2455119562882
21
176.2986603996985
31
2.0000000000019496
  0
LINE
 8
Group#46
10
695.0596224284521
20
174.753179077636
30
2.0000000000019664
11
695.1141411063896
21
175.1672895498
31
2.0000000000019664
  0
LINE
 8
Group#46
10
691.1808652739696
20
214.76847126641957
30
2.0000000000019145
11
691.5949757461336
21
214.8229899443571
31
2.0000000000019353
  0
LINE
 8
Group#46
10
697.7909932783506
20
175.8845499275345
30
2.0000000000019504
11
698.0452630745073
21
175.5531790776361
31
2.000000000001965
  0
LINE
 8
Group#46
10
693.1404570681959
20
135.8692577387508
30
2.0000000000027844
11
692.9806163921887
21
135.48336821091496
31
2.0000000000020193
  0
LINE
 8
Group#46
10
689.9949757461336
20
136.28336821091486
30
2.000000000002034
11
690.049494424071
21
136.6974786830789
31
2.000000000002034
  0
LINE
 8
Group#46
10
690.4636048962351
20
135.15199736101647
30
2.000000000002035
11
690.2093351000783
21
135.48336821091496
31
2.00000000000202
  0
LINE
 8
Group#46
10
692.0090862182975
20
134.73788688885247
30
2.00000000000202
11
691.5949757461335
21
134.68336821091486
31
2.00000000000202
  0
LINE
 8
Group#46
10
692.0090862182975
20
137.8288495329774
30
2.0000000000028266
11
692.3949757461335
21
137.66900885696998
31
2.0000000000028124
  0
LINE
 8
Group#46
10
703.7398218404554
20
148.32374222452785
30
2.0000000000019806
11
703.3255226431446
21
148.2691987004535
31
2.000000000001995
  0
LINE
 8
Group#46
10
692.726346596032
20
135.15199736101644
30
2.000000000002034
11
692.3949757461335
21
134.89772756485985
31
2.0000000000020184
  0
LINE
 8
Group#46
10
693.1404570681959
20
136.697478683079
30
2.000000000002798
11
693.1949757461334
21
136.28336821091486
31
2.0000000000028133
  0
LINE
 8
Group#46
10
697.073732900616
20
173.2076977555735
30
2.0000000000019673
11
696.6596224284522
21
173.15317907763605
31
2.000000000001952
  0
LINE
 8
Group#46
10
697.073732900616
20
176.2986603996985
30
2.0000000000019504
11
697.4596224284522
21
176.13881972369117
31
2.000000000001965
  0
LINE
 8
Group#46
10
695.2739817823972
20
175.5531790776361
30
2.0000000000019655
11
695.5282515785539
21
175.8845499275345
31
2.000000000001951
  0
LINE
 8
Group#46
10
691.5949757461335
20
134.68336821091486
30
2.00000000000202
11
691.1808652739696
21
134.73788688885242
31
2.000000000002048
  0
LINE
 8
Group#46
10
690.4636048962351
20
212.09161909445876
30
2.0000000000019593
11
690.2093351000784
21
212.4229899443572
31
2.000000000001951
  0
LINE
 8
Group#46
10
690.7949757461337
20
211.83734929830206
30
2.000000000001945
11
690.4636048962351
21
212.09161909445876
31
2.0000000000019593
  0
LINE
 8
Group#46
10
690.2093351000783
20
137.08336821091495
30
2.000000000002018
11
690.4636048962351
21
137.41473906081333
31
2.000000000002842
  0
LINE
 8
Group#46
10
690.0494944240712
20
213.6371004165212
30
2.0000000000019504
11
690.2093351000784
21
214.0229899443572
31
2.000000000001958
  0
LINE
 8
Group#46
10
692.726346596032
20
137.41473906081333
30
2.0000000000028413
11
692.9806163921887
21
137.08336821091484
31
2.0000000000028124
  0
LINE
 8
Group#46
10
691.1808652739696
20
137.8288495329774
30
2.0000000000028257
11
691.5949757461335
21
137.8833682109149
31
2.0000000000028257
  0
LINE
 8
Group#46
10
692.9806163921887
20
137.08336821091484
30
2.0000000000028124
11
693.1404570681959
21
136.697478683079
31
2.000000000002798
  0
LINE
 8
Group#46
10
708.5694509719008
20
115.42891782104181
30
2.000000000002013
11
708.0699488593774
21
114.22301304655446
31
2.000000000002013
  0
LINE
 8
Group#46
10
702.9394572514686
20
148.10928517925836
30
2.000000000002008
11
702.6079353838672
21
147.8548995031426
31
2.000000000001994
  0
LINE
 8
Group#46
10
690.7949757461334
20
137.66900885696998
30
2.0000000000028133
11
691.1808652739696
21
137.8288495329774
31
2.0000000000028257
  0
LINE
 8
Group#46
10
698.0452630745073
20
175.5531790776361
30
2.000000000001965
11
698.2051037505147
21
175.1672895498
31
2.0000000000019655
  0
LINE
 8
Group#46
10
704.9592956287396
20
95.71080517131723
30
2.0000000000019975
11
704.5251699099243
21
95.8906259318256
31
2.0000000000019833
  0
LINE
 8
Group#46
10
702.786503422604
20
95.42475165064108
30
2.000000000002013
11
702.5004499019278
21
95.0519594445053
31
2.000000000001998
  0
LINE
 8
Group#46
10
704.0592956287396
20
257.1543987107668
30
2.0000000000019065
11
704.5251699099241
21
257.0930651980871
31
2.0000000000018994
  0
LINE
 8
Group#46
10
693.6004499019276
20
110.46721163186832
30
2.000000000001977
11
693.4206291414193
21
110.03308591305291
31
2.000000000002006
  0
LINE
 8
Group#46
10
693.4206291414193
20
109.10133735068383
30
2.0000000000019913
11
693.6004499019276
21
108.66721163186833
31
2.0000000000019784
  0
LINE
 8
Group#46
10
704.5251699099243
20
95.8906259318256
30
2.0000000000019833
11
704.0592956287397
21
95.95195944450532
31
2.0000000000019833
  0
LINE
 8
Group#46
10
693.8865034226039
20
108.29441942573254
30
2.0000000000019926
11
694.2592956287398
21
108.00836590505635
31
2.0000000000019926
  0
LINE
 8
Group#46
10
696.4320878348755
20
110.84000383800415
30
2.000000000001976
11
696.0592956287397
21
111.1260573586804
31
2.0000000000019904
  0
LINE
 8
Group#46
10
702.5004499019277
20
254.45439871076684
30
2.0000000000019234
11
702.3206291414193
21
254.88852442958225
31
2.000000000001923
  0
LINE
 8
Group#46
10
703.1592956287398
20
92.59311371769337
30
2.0000000000019855
11
703.5934213475551
21
92.413292957185
31
2.0000000000019997
  0
LINE
 8
Group#46
10
688.1216491323431
20
269.6813337883052
30
2.000000000001903
11
688.5557748511586
21
269.5015130277969
31
2.0000000000018887
  0
LINE
 8
Group#46
10
704.9592956287396
20
92.59311371769337
30
2.0000000000019846
11
705.3320878348756
21
92.87916723836956
31
2.0000000000019846
  0
LINE
 8
Group#46
10
704.5251699099243
20
92.413292957185
30
2.0000000000019997
11
704.9592956287396
21
92.59311371769337
31
2.0000000000019846
  0
LINE
 8
Group#46
10
695.1592956287396
20
111.3672116318683
30
2.000000000001976
11
694.6934213475552
21
111.30587811918858
31
2.000000000001976
  0
LINE
 8
Group#46
10
702.3206291414194
20
93.68608516332067
30
2.000000000001998
11
702.5004499019278
21
93.25195944450535
31
2.0000000000019855
  0
LINE
 8
Group#46
10
695.6251699099244
20
111.30587811918858
30
2.000000000001976
11
695.1592956287396
21
111.3672116318683
31
2.000000000001976
  0
LINE
 8
Group#46
10
694.2592956287398
20
111.1260573586804
30
2.0000000000019895
11
693.8865034226039
21
110.84000383800415
31
2.000000000001977
  0
LINE
 8
Group#46
10
676.9557748511587
20
103.21432594889849
30
2.000000000001999
11
677.3285670572945
21
102.92827242822216
31
2.000000000001986
  0
LINE
 8
Group#46
10
705.3320878348756
20
92.87916723836956
30
2.0000000000019846
11
705.6181413555518
21
93.25195944450535
31
2.000000000001984
  0
LINE
 8
Group#46
10
693.6004499019276
20
108.66721163186833
30
2.0000000000019784
11
693.8865034226039
21
108.29441942573254
31
2.0000000000019926
  0
LINE
 8
Group#46
10
703.1592956287396
20
253.79555298395476
30
2.0000000000019305
11
702.7865034226039
21
254.08160650463105
31
2.0000000000019162
  0
LINE
 8
Group#46
10
702.3206291414193
20
255.82027299195138
30
2.0000000000019296
11
702.5004499019277
21
256.2543987107668
31
2.0000000000019065
  0
LINE
 8
Group#46
10
705.6181413555518
20
93.25195944450535
30
2.000000000001984
11
705.79796211606
21
93.68608516332067
31
2.000000000001998
  0
LINE
 8
Group#46
10
703.5934213475551
20
92.413292957185
30
2.0000000000019997
11
704.0592956287397
21
92.35195944450528
31
2.0000000000020144
  0
LINE
 8
Group#46
10
704.0592956287397
20
95.95195944450532
30
2.0000000000019833
11
703.5934213475551
21
95.8906259318256
31
2.0000000000019833
  0
LINE
 8
Group#46
10
696.7181413555518
20
110.46721163186832
30
2.000000000001976
11
696.4320878348755
21
110.84000383800415
31
2.000000000001976
  0
LINE
 8
Group#46
10
705.79796211606
20
93.68608516332067
30
2.000000000001998
11
705.8592956287398
21
94.15195944450532
31
2.000000000002013
  0
LINE
 8
Group#46
10
702.5004499019278
20
95.0519594445053
30
2.000000000001998
11
702.3206291414194
21
94.61783372568979
31
2.000000000001984
  0
LINE
 8
Group#46
10
696.9592956287397
20
109.56721163186839
30
2.0000000000019913
11
696.8979621160601
21
110.03308591305291
31
2.000000000002005
  0
LINE
 8
Group#46
10
693.4206291414193
20
110.03308591305291
30
2.000000000002006
11
693.3592956287398
21
109.56721163186839
31
2.0000000000020206
  0
LINE
 8
Group#46
10
696.0592956287397
20
108.00836590505635
30
2.0000000000019913
11
696.4320878348755
21
108.29441942573254
31
2.0000000000019917
  0
LINE
 8
Group#46
10
695.6251699099244
20
107.82854514454799
30
2.0000000000019784
11
696.0592956287397
21
108.00836590505635
31
2.0000000000019913
  0
LINE
 8
Group#46
10
702.2592956287398
20
255.35439871076682
30
2.000000000001923
11
702.3206291414193
21
255.82027299195138
31
2.0000000000019296
  0
LINE
 8
Group#46
10
702.2592956287398
20
94.15195944450532
30
2.0000000000020135
11
702.3206291414194
21
93.68608516332067
31
2.000000000001998
  0
LINE
 8
Group#46
10
693.3592956287398
20
109.56721163186839
30
2.0000000000020206
11
693.4206291414193
21
109.10133735068383
31
2.0000000000019913
  0
LINE
 8
Group#46
10
702.7865034226039
20
256.6271909169025
30
2.000000000001893
11
703.1592956287396
21
256.9132444375788
31
2.000000000001899
  0
LINE
 8
Group#46
10
696.8979621160601
20
109.10133735068383
30
2.0000000000019913
11
696.9592956287397
21
109.56721163186839
31
2.0000000000019913
  0
LINE
 8
Group#46
10
696.0592956287397
20
111.1260573586804
30
2.0000000000019904
11
695.6251699099244
21
111.30587811918858
31
2.000000000001976
  0
LINE
 8
Group#46
10
702.7865034226039
20
254.08160650463105
30
2.0000000000019162
11
702.5004499019277
21
254.45439871076684
31
2.0000000000019234
  0
LINE
 8
Group#46
10
705.8592956287398
20
94.15195944450532
30
2.000000000002013
11
705.79796211606
21
94.61783372568979
31
2.0000000000019833
  0
LINE
 8
Group#46
10
704.5251699099241
20
257.0930651980871
30
2.0000000000018994
11
704.9592956287396
21
256.9132444375788
31
2.0000000000018994
  0
LINE
 8
Group#46
10
686.0969291243468
20
80.66369085428714
30
2.000000000002068
11
685.9171083638383
21
81.09781657310278
31
2.0000000000020255
  0
LINE
 8
Group#46
10
677.3285670572945
20
102.92827242822216
30
2.000000000001986
11
677.6146205779709
21
102.5554802220861
31
2.000000000002
  0
LINE
 8
Group#46
10
696.4320878348755
20
108.29441942573254
30
2.0000000000019917
11
696.7181413555518
21
108.66721163186833
31
2.000000000001977
  0
LINE
 8
Group#46
10
696.7181413555518
20
108.66721163186833
30
2.000000000001977
11
696.8979621160601
21
109.10133735068383
31
2.0000000000019913
  0
LINE
 8
Group#46
10
703.1592956287398
20
95.71080517131723
30
2.0000000000019966
11
702.786503422604
21
95.42475165064108
31
2.000000000002013
  0
LINE
 8
Group#46
10
696.8979621160601
20
110.03308591305291
30
2.000000000002005
11
696.7181413555518
21
110.46721163186832
31
2.000000000001976
  0
LINE
 8
Group#46
10
705.6181413555518
20
95.0519594445053
30
2.0000000000019975
11
705.3320878348756
21
95.42475165064108
31
2.000000000002012
  0
LINE
 8
Group#46
10
695.1592956287396
20
107.76721163186826
30
2.0000000000020073
11
695.6251699099244
21
107.82854514454799
31
2.0000000000019784
  0
LINE
 8
Group#46
10
704.0592956287397
20
92.35195944450528
30
2.0000000000020144
11
704.5251699099243
21
92.413292957185
31
2.0000000000019997
  0
LINE
 8
Group#46
10
702.5004499019278
20
93.25195944450535
30
2.0000000000019855
11
702.786503422604
21
92.87916723836956
31
2.0000000000019855
  0
LINE
 8
Group#46
10
705.3320878348756
20
95.42475165064108
30
2.000000000002012
11
704.9592956287396
21
95.71080517131723
31
2.0000000000019975
  0
LINE
 8
Group#46
10
694.6934213475552
20
107.82854514454799
30
2.0000000000019784
11
695.1592956287396
21
107.76721163186826
31
2.0000000000020073
  0
LINE
 8
Group#46
10
693.8865034226039
20
110.84000383800415
30
2.000000000001977
11
693.6004499019276
21
110.46721163186832
31
2.000000000001977
  0
LINE
 8
Group#46
10
694.6934213475552
20
111.30587811918858
30
2.000000000001976
11
694.2592956287398
21
111.1260573586804
31
2.0000000000019895
  0
LINE
 8
Group#46
10
703.1592956287396
20
256.9132444375788
30
2.000000000001899
11
703.5934213475551
21
257.0930651980871
31
2.0000000000018994
  0
LINE
 8
Group#46
10
702.3206291414194
20
94.61783372568979
30
2.000000000001984
11
702.2592956287398
21
94.15195944450532
31
2.0000000000020135
  0
LINE
 8
Group#46
10
702.786503422604
20
92.87916723836956
30
2.0000000000019855
11
703.1592956287398
21
92.59311371769337
31
2.0000000000019855
  0
LINE
 8
Group#46
10
703.5934213475551
20
95.8906259318256
30
2.0000000000019833
11
703.1592956287398
21
95.71080517131723
31
2.0000000000019966
  0
LINE
 8
Group#46
10
694.2592956287398
20
108.00836590505635
30
2.0000000000019926
11
694.6934213475552
21
107.82854514454799
31
2.0000000000019784
  0
LINE
 8
Group#46
10
676.5216491323432
20
103.39414670940654
30
2.0000000000020277
11
676.9557748511587
21
103.21432594889849
31
2.000000000001999
  0
LINE
 8
Group#46
10
675.5899005699742
20
103.39414670940654
30
2.000000000002029
11
676.0557748511587
21
103.45548022208622
31
2.000000000001986
  0
LINE
 8
Group#46
10
702.5004499019277
20
256.2543987107668
30
2.0000000000019065
11
702.7865034226039
21
256.6271909169025
31
2.000000000001893
  0
LINE
 8
Group#46
10
677.6146205779709
20
102.5554802220861
30
2.000000000002
11
677.7944413384791
21
102.12135450327065
31
2.000000000002029
  0
LINE
 8
Group#46
10
740.6011035013526
20
239.03914652340376
30
2.000000000001908
11
740.8871570220288
21
238.66635431726797
31
2.000000000001908
  0
LINE
 8
Group#46
10
740.421282740844
20
240.4050208045883
30
2.0000000000019074
11
740.3599492281644
21
239.93914652340374
31
2.000000000001893
  0
LINE
 8
Group#46
10
740.421282740844
20
239.47327224221928
30
2.0000000000019007
11
740.6011035013526
21
239.03914652340376
31
2.000000000001908
  0
LINE
 8
Group#46
10
705.3320878348754
20
256.6271909169025
30
2.0000000000018923
11
705.6181413555518
21
256.2543987107668
31
2.0000000000019065
  0
LINE
 8
Group#46
10
742.1599492281646
20
241.73914652340383
30
2.0000000000019056
11
741.69407494698
21
241.67781301072412
31
2.0000000000019136
  0
LINE
 8
Group#46
10
703.5934213475551
20
257.0930651980871
30
2.0000000000018994
11
704.0592956287396
21
257.1543987107668
31
2.0000000000019065
  0
LINE
 8
Group#46
10
702.3206291414193
20
254.88852442958225
30
2.000000000001923
11
702.2592956287398
21
255.35439871076682
31
2.000000000001923
  0
LINE
 8
Group#46
10
695.6251699099244
20
238.20048003608346
30
2.0000000000019775
11
695.1592956287396
21
238.13914652340375
31
2.000000000001964
  0
LINE
 8
Group#46
10
743.4327414343003
20
238.66635431726797
30
2.0000000000019074
11
743.7187949549765
21
239.03914652340376
31
2.0000000000019074
  0
LINE
 8
Group#46
10
741.2599492281644
20
241.4979922502158
30
2.0000000000018994
11
740.8871570220288
21
241.21193872953958
31
2.0000000000018994
  0
LINE
 8
Group#46
10
732.79407494698
20
257.0930651980871
30
2.000000000001899
11
732.3599492281645
21
256.9132444375788
31
2.0000000000018994
  0
LINE
 8
Group#46
10
740.6011035013526
20
240.8391465234038
30
2.0000000000019056
11
740.421282740844
21
240.4050208045883
31
2.0000000000019074
  0
LINE
 8
Group#46
10
740.8871570220288
20
238.66635431726797
30
2.000000000001908
11
741.2599492281644
21
238.3803007965918
31
2.0000000000019074
  0
LINE
 8
Group#46
10
731.9871570220287
20
256.6271909169025
30
2.0000000000018923
11
731.7011035013525
21
256.2543987107668
31
2.0000000000019074
  0
LINE
 8
Group#46
10
694.6934213475552
20
241.67781301072412
30
2.000000000001976
11
695.1592956287396
21
241.73914652340383
31
2.0000000000019615
  0
LINE
 8
Group#46
10
741.69407494698
20
241.67781301072412
30
2.0000000000019136
11
741.2599492281644
21
241.4979922502158
31
2.0000000000018994
  0
LINE
 8
Group#46
10
740.8871570220288
20
241.21193872953958
30
2.0000000000018994
11
740.6011035013526
21
240.8391465234038
31
2.0000000000019056
  0
LINE
 8
Group#46
10
705.6181413555518
20
254.45439871076684
30
2.000000000001908
11
705.3320878348754
21
254.08160650463105
31
2.000000000001916
  0
LINE
 8
Group#46
10
704.5251699099241
20
253.61573222344646
30
2.0000000000019162
11
704.0592956287396
21
253.55439871076678
31
2.0000000000019162
  0
LINE
 8
Group#46
10
743.0599492281644
20
238.3803007965918
30
2.000000000001908
11
743.4327414343003
21
238.66635431726797
31
2.0000000000019074
  0
LINE
 8
Group#46
10
696.9592956287397
20
239.93914652340374
30
2.000000000001983
11
696.8979621160601
21
239.4732722422192
31
2.000000000001977
  0
LINE
 8
Group#46
10
705.8592956287398
20
255.35439871076682
30
2.0000000000019074
11
705.79796211606
21
254.88852442958225
31
2.000000000001893
  0
LINE
 8
Group#46
10
705.3320878348754
20
254.08160650463105
30
2.000000000001916
11
704.9592956287396
21
253.79555298395476
31
2.000000000001929
  0
LINE
 8
Group#46
10
696.4320878348753
20
241.21193872953958
30
2.000000000001975
11
696.7181413555518
21
240.8391465234038
31
2.000000000001969
  0
LINE
 8
Group#46
10
696.0592956287397
20
241.4979922502158
30
2.000000000001975
11
696.4320878348753
21
241.21193872953958
31
2.000000000001975
  0
LINE
 8
Group#46
10
693.8865034226038
20
238.66635431726797
30
2.0000000000019713
11
693.6004499019276
21
239.03914652340376
31
2.000000000001984
  0
LINE
 8
Group#46
10
695.1592956287396
20
238.13914652340375
30
2.000000000001964
11
694.6934213475552
21
238.20048003608343
31
2.0000000000019855
  0
LINE
 8
Group#46
10
704.0592956287396
20
253.55439871076678
30
2.0000000000019162
11
703.5934213475551
21
253.61573222344646
31
2.0000000000019162
  0
LINE
 8
Group#46
10
704.9592956287396
20
253.79555298395476
30
2.000000000001929
11
704.5251699099241
21
253.61573222344646
31
2.0000000000019162
  0
LINE
 8
Group#46
10
741.69407494698
20
238.20048003608352
30
2.000000000001887
11
742.1599492281646
21
238.1391465234037
31
2.000000000001916
  0
LINE
 8
Group#46
10
693.4206291414193
20
240.4050208045883
30
2.000000000001998
11
693.6004499019276
21
240.8391465234038
31
2.00000000000197
  0
LINE
 8
Group#46
10
705.79796211606
20
255.8202729919514
30
2.000000000001899
11
705.8592956287398
21
255.35439871076682
31
2.0000000000019074
  0
LINE
 8
Group#46
10
694.6934213475552
20
238.20048003608343
30
2.0000000000019855
11
694.2592956287397
21
238.3803007965918
31
2.0000000000019713
  0
LINE
 8
Group#46
10
696.7181413555518
20
239.03914652340376
30
2.0000000000019833
11
696.4320878348753
21
238.66635431726797
31
2.000000000001971
  0
LINE
 8
Group#46
10
695.1592956287396
20
241.73914652340383
30
2.0000000000019615
11
695.6251699099244
21
241.67781301072412
31
2.000000000001975
  0
LINE
 8
Group#46
10
696.8979621160601
20
239.4732722422192
30
2.000000000001977
11
696.7181413555518
21
239.03914652340376
31
2.0000000000019833
  0
LINE
 8
Group#46
10
743.4327414343003
20
241.21193872953958
30
2.000000000001899
11
743.0599492281644
21
241.4979922502158
31
2.000000000001899
  0
LINE
 8
Group#46
10
743.8986157154848
20
240.4050208045883
30
2.0000000000019065
11
743.7187949549765
21
240.8391465234038
31
2.0000000000019056
  0
LINE
 8
Group#46
10
695.6251699099244
20
241.67781301072412
30
2.000000000001975
11
696.0592956287397
21
241.4979922502158
31
2.000000000001975
  0
LINE
 8
Group#46
10
696.7181413555518
20
240.8391465234038
30
2.000000000001969
11
696.8979621160601
21
240.4050208045883
31
2.000000000001998
  0
LINE
 8
Group#46
10
693.6004499019276
20
239.03914652340376
30
2.000000000001984
11
693.4206291414193
21
239.4732722422192
31
2.0000000000019775
  0
LINE
 8
Group#46
10
693.4206291414193
20
239.4732722422192
30
2.0000000000019775
11
693.3592956287398
21
239.93914652340374
31
2.0000000000019846
  0
LINE
 8
Group#46
10
742.1599492281646
20
238.1391465234037
30
2.000000000001916
11
742.6258235093491
21
238.20048003608343
31
2.000000000001894
  0
LINE
 8
Group#46
10
743.9599492281646
20
239.93914652340374
30
2.0000000000018923
11
743.8986157154848
21
240.4050208045883
31
2.0000000000019065
  0
LINE
 8
Group#46
10
742.6258235093491
20
238.20048003608343
30
2.000000000001894
11
743.0599492281644
21
238.3803007965918
31
2.000000000001908
  0
LINE
 8
Group#46
10
732.3599492281645
20
256.9132444375788
30
2.0000000000018994
11
731.9871570220287
21
256.6271909169025
31
2.0000000000018923
  0
LINE
 8
Group#46
10
743.0599492281644
20
241.4979922502158
30
2.000000000001899
11
742.6258235093491
21
241.67781301072412
31
2.0000000000019136
  0
LINE
 8
Group#46
10
705.6181413555518
20
256.2543987107668
30
2.0000000000019065
11
705.79796211606
21
255.8202729919514
31
2.000000000001899
  0
LINE
 8
Group#46
10
742.6258235093491
20
241.67781301072412
30
2.0000000000019136
11
742.1599492281646
21
241.73914652340383
31
2.0000000000019056
  0
LINE
 8
Group#46
10
704.9592956287396
20
256.9132444375788
30
2.0000000000018994
11
705.3320878348754
21
256.6271909169025
31
2.0000000000018923
  0
LINE
 8
Group#46
10
705.79796211606
20
254.88852442958225
30
2.000000000001893
11
705.6181413555518
21
254.45439871076684
31
2.000000000001908
  0
LINE
 8
Group#46
10
743.8986157154848
20
239.47327224221928
30
2.000000000001899
11
743.9599492281646
21
239.93914652340374
31
2.0000000000018923
  0
LINE
 8
Group#46
10
705.79796211606
20
94.61783372568979
30
2.0000000000019833
11
705.6181413555518
21
95.0519594445053
31
2.0000000000019975
  0
LINE
 8
Group#46
10
741.2599492281644
20
238.3803007965918
30
2.0000000000019074
11
741.69407494698
21
238.20048003608352
31
2.000000000001887
  0
LINE
 8
Group#46
10
694.2592956287397
20
241.4979922502158
30
2.000000000001976
11
694.6934213475552
21
241.67781301072412
31
2.000000000001976
  0
LINE
 8
Group#46
10
743.7187949549765
20
239.03914652340376
30
2.0000000000019074
11
743.8986157154848
21
239.47327224221928
31
2.000000000001899
  0
LINE
 8
Group#46
10
693.3592956287398
20
239.93914652340374
30
2.0000000000019846
11
693.4206291414193
21
240.4050208045883
31
2.000000000001998
  0
LINE
 8
Group#46
10
696.0592956287397
20
238.3803007965918
30
2.000000000001971
11
695.6251699099244
21
238.20048003608346
31
2.0000000000019775
  0
LINE
 8
Group#46
10
693.8865034226038
20
241.21193872953958
30
2.0000000000019758
11
694.2592956287397
21
241.4979922502158
31
2.000000000001976
  0
LINE
 8
Group#46
10
740.3599492281644
20
239.93914652340374
30
2.000000000001893
11
740.421282740844
21
239.47327224221928
31
2.0000000000019007
  0
LINE
 8
Group#46
10
693.6004499019276
20
240.8391465234038
30
2.00000000000197
11
693.8865034226038
21
241.21193872953958
31
2.0000000000019758
  0
LINE
 8
Group#46
10
694.2592956287397
20
238.3803007965918
30
2.0000000000019713
11
693.8865034226038
21
238.66635431726797
31
2.0000000000019713
  0
LINE
 8
Group#46
10
731.7011035013525
20
256.2543987107668
30
2.0000000000019074
11
731.5212827408442
21
255.8202729919514
31
2.0000000000019003
  0
LINE
 8
Group#46
10
696.8979621160601
20
240.4050208045883
30
2.000000000001998
11
696.9592956287397
21
239.93914652340374
31
2.000000000001983
  0
LINE
 8
Group#46
10
740.3599492281644
20
109.5672116318683
30
2.0000000000020792
11
740.421282740844
21
110.03308591305282
31
2.000000000002066
  0
LINE
 8
Group#46
10
740.6011035013523
20
108.66721163186833
30
2.00000000000208
11
740.421282740844
21
109.10133735068375
31
2.0000000000020517
  0
LINE
 8
Group#46
10
734.8187949549765
20
254.45439871076684
30
2.000000000001922
11
734.9986157154848
21
254.88852442958225
31
2.0000000000019207
  0
LINE
 8
Group#46
10
741.6940749469799
20
111.30587811918858
30
2.0000000000024114
11
742.1599492281644
21
111.3672116318683
31
2.00000000000241
  0
LINE
 8
Group#46
10
733.725823509349
20
253.61573222344646
30
2.000000000001916
11
734.1599492281645
21
253.79555298395476
31
2.0000000000019296
  0
LINE
 8
Group#46
10
735.0599492281646
20
255.35439871076682
30
2.000000000001921
11
734.9986157154848
21
255.82027299195138
31
2.0000000000019282
  0
LINE
 8
Group#46
10
734.1599492281645
20
253.79555298395476
30
2.0000000000019296
11
734.5327414343002
21
254.08160650463105
31
2.000000000001915
  0
LINE
 8
Group#46
10
740.6011035013523
20
110.46721163186842
30
2.0000000000020512
11
740.8871570220288
21
110.84000383800415
31
2.000000000002065
  0
LINE
 8
Group#46
10
733.725823509349
20
257.0930651980871
30
2.000000000001899
11
733.2599492281645
21
257.1543987107668
31
2.0000000000019065
  0
LINE
 8
Group#46
10
734.8187949549764
20
93.25195944450535
30
2.0000000000019913
11
734.5327414343002
21
92.87916723836956
31
2.0000000000019913
  0
LINE
 8
Group#46
10
734.8187949549764
20
95.0519594445053
30
2.000000000001947
11
734.9986157154848
21
94.61783372568979
31
2.000000000001989
  0
LINE
 8
Group#46
10
734.9986157154848
20
254.88852442958225
30
2.0000000000019207
11
735.0599492281646
21
255.35439871076682
31
2.000000000001921
  0
LINE
 8
Group#46
10
732.79407494698
20
95.8906259318256
30
2.0000000000019607
11
733.2599492281645
21
95.95195944450532
31
2.0000000000019895
  0
LINE
 8
Group#46
10
734.9986157154848
20
255.82027299195138
30
2.0000000000019282
11
734.8187949549765
21
256.2543987107668
31
2.0000000000019065
  0
LINE
 8
Group#46
10
741.2599492281644
20
111.1260573586804
30
2.0000000000024114
11
741.6940749469799
21
111.30587811918858
31
2.0000000000024114
  0
LINE
 8
Group#46
10
743.4327414343003
20
108.29441942573254
30
2.0000000000020504
11
743.0599492281644
21
108.00836590505627
31
2.0000000000020517
  0
LINE
 8
Group#46
10
734.1599492281645
20
95.71080517131723
30
2.0000000000019758
11
734.5327414343002
21
95.424751650641
31
2.000000000001947
  0
LINE
 8
Group#46
10
743.7187949549765
20
108.66721163186833
30
2.00000000000208
11
743.4327414343003
21
108.29441942573254
31
2.0000000000020504
  0
LINE
 8
Group#46
10
732.3599492281645
20
95.71080517131723
30
2.0000000000019758
11
732.79407494698
21
95.8906259318256
31
2.0000000000019607
  0
LINE
 8
Group#46
10
743.0599492281644
20
111.1260573586804
30
2.00000000000241
11
743.4327414343003
21
110.84000383800421
31
2.000000000002439
  0
LINE
 8
Group#46
10
734.5327414343002
20
92.87916723836956
30
2.0000000000019913
11
734.1599492281645
21
92.59311371769337
31
2.0000000000019904
  0
LINE
 8
Group#46
10
741.2599492281644
20
108.00836590505627
30
2.0000000000020526
11
740.8871570220288
21
108.29441942573254
31
2.0000000000020512
  0
LINE
 8
Group#46
10
742.625823509349
20
111.30587811918858
30
2.00000000000241
11
743.0599492281644
21
111.1260573586804
31
2.00000000000241
  0
LINE
 8
Group#46
10
734.5327414343002
20
256.6271909169025
30
2.000000000001892
11
734.1599492281645
21
256.9132444375788
31
2.000000000001899
  0
LINE
 8
Group#46
10
734.9986157154848
20
94.61783372568979
30
2.000000000001989
11
735.0599492281644
21
94.15195944450532
31
2.0000000000019904
  0
LINE
 8
Group#46
10
731.5212827408441
20
94.61783372568979
30
2.0000000000019913
11
731.7011035013525
21
95.0519594445053
31
2.000000000002005
  0
LINE
 8
Group#46
10
731.7011035013525
20
93.25195944450535
30
2.0000000000019917
11
731.5212827408441
21
93.68608516332067
31
2.000000000002006
  0
LINE
 8
Group#46
10
743.7187949549765
20
240.8391465234038
30
2.0000000000019056
11
743.4327414343003
21
241.21193872953958
31
2.000000000001899
  0
LINE
 8
Group#46
10
740.8871570220288
20
108.29441942573254
30
2.0000000000020512
11
740.6011035013523
21
108.66721163186833
31
2.00000000000208
  0
LINE
 8
Group#46
10
732.3599492281645
20
92.59311371769337
30
2.0000000000019917
11
731.9871570220287
21
92.87916723836956
31
2.0000000000019917
  0
LINE
 8
Group#46
10
731.9871570220287
20
95.424751650641
30
2.000000000002005
11
732.3599492281645
21
95.71080517131723
31
2.0000000000019758
  0
LINE
 8
Group#46
10
743.8986157154848
20
110.03308591305282
30
2.000000000002426
11
743.9599492281644
21
109.5672116318683
31
2.0000000000020792
  0
LINE
 8
Group#46
10
731.5212827408441
20
93.68608516332067
30
2.000000000002006
11
731.4599492281644
21
94.15195944450532
31
2.0000000000019913
  0
LINE
 8
Group#46
10
731.4599492281644
20
94.15195944450532
30
2.0000000000019913
11
731.5212827408441
21
94.61783372568979
31
2.0000000000019913
  0
LINE
 8
Group#46
10
734.8187949549765
20
256.2543987107668
30
2.0000000000019065
11
734.5327414343002
21
256.6271909169025
31
2.000000000001892
  0
LINE
 8
Group#46
10
743.4327414343003
20
110.84000383800421
30
2.000000000002439
11
743.7187949549765
21
110.46721163186842
31
2.00000000000241
  0
LINE
 8
Group#46
10
740.421282740844
20
109.10133735068375
30
2.0000000000020517
11
740.3599492281644
21
109.5672116318683
31
2.0000000000020792
  0
LINE
 8
Group#46
10
731.4599492281645
20
255.35439871076682
30
2.000000000001908
11
731.5212827408442
21
254.88852442958225
31
2.000000000001894
  0
LINE
 8
Group#46
10
743.7187949549765
20
110.46721163186842
30
2.00000000000241
11
743.8986157154848
21
110.03308591305282
31
2.000000000002426
  0
LINE
 8
Group#46
10
732.3599492281645
20
253.79555298395476
30
2.000000000001929
11
732.79407494698
21
253.61573222344646
31
2.000000000001916
  0
LINE
 8
Group#46
10
734.1599492281645
20
92.59311371769337
30
2.0000000000019904
11
733.7258235093489
21
92.413292957185
31
2.000000000002007
  0
LINE
 8
Group#46
10
733.2599492281645
20
253.55439871076678
30
2.000000000001916
11
733.725823509349
21
253.61573222344646
31
2.000000000001916
  0
LINE
 8
Group#46
10
734.1599492281645
20
256.9132444375788
30
2.000000000001899
11
733.725823509349
21
257.0930651980871
31
2.000000000001899
  0
LINE
 8
Group#46
10
743.8986157154848
20
109.10133735068375
30
2.0000000000020512
11
743.7187949549765
21
108.66721163186833
31
2.00000000000208
  0
LINE
 8
Group#46
10
733.7258235093489
20
95.8906259318256
30
2.0000000000019607
11
734.1599492281645
21
95.71080517131723
31
2.0000000000019758
  0
LINE
 8
Group#46
10
734.5327414343002
20
95.424751650641
30
2.000000000001947
11
734.8187949549764
21
95.0519594445053
31
2.000000000001947
  0
LINE
 8
Group#46
10
703.5934213475551
20
253.61573222344646
30
2.0000000000019162
11
703.1592956287396
21
253.79555298395476
31
2.0000000000019305
  0
LINE
 8
Group#46
10
734.9986157154848
20
93.68608516332067
30
2.000000000002005
11
734.8187949549764
21
93.25195944450535
31
2.0000000000019913
  0
LINE
 8
Group#46
10
696.4320878348753
20
238.66635431726797
30
2.000000000001971
11
696.0592956287397
21
238.3803007965918
31
2.000000000001971
  0
LINE
 8
Group#46
10
740.421282740844
20
110.03308591305282
30
2.000000000002066
11
740.6011035013523
21
110.46721163186842
31
2.0000000000020512
  0
LINE
 8
Group#46
10
732.79407494698
20
253.61573222344646
30
2.000000000001916
11
733.2599492281645
21
253.55439871076678
31
2.000000000001916
  0
LINE
 8
Group#46
10
731.7011035013525
20
254.45439871076684
30
2.0000000000019087
11
731.9871570220287
21
254.08160650463105
31
2.000000000001916
  0
LINE
 8
Group#46
10
742.625823509349
20
107.82854514454789
30
2.00000000000208
11
742.1599492281644
21
107.76721163186826
31
2.00000000000208
  0
LINE
 8
Group#46
10
733.2599492281645
20
95.95195944450532
30
2.0000000000019895
11
733.7258235093489
21
95.8906259318256
31
2.0000000000019607
  0
LINE
 8
Group#46
10
743.0599492281644
20
108.00836590505627
30
2.0000000000020517
11
742.625823509349
21
107.82854514454789
31
2.00000000000208
  0
LINE
 8
Group#46
10
740.8871570220288
20
110.84000383800415
30
2.000000000002065
11
741.2599492281644
21
111.1260573586804
31
2.0000000000024114
  0
LINE
 8
Group#46
10
735.0599492281644
20
94.15195944450532
30
2.0000000000019904
11
734.9986157154848
21
93.68608516332067
31
2.000000000002005
  0
LINE
 8
Group#46
10
743.9599492281644
20
109.5672116318683
30
2.0000000000020792
11
743.8986157154848
21
109.10133735068375
31
2.0000000000020512
  0
LINE
 8
Group#46
10
742.1599492281644
20
107.76721163186826
30
2.00000000000208
11
741.6940749469799
21
107.82854514454789
31
2.00000000000208
  0
LINE
 8
Group#46
10
731.9871570220287
20
254.08160650463105
30
2.000000000001916
11
732.3599492281645
21
253.79555298395476
31
2.000000000001929
  0
LINE
 8
Group#46
10
731.7011035013525
20
95.0519594445053
30
2.000000000002005
11
731.9871570220287
21
95.424751650641
31
2.000000000002005
  0
LINE
 8
Group#46
10
731.5212827408442
20
254.88852442958225
30
2.000000000001894
11
731.7011035013525
21
254.45439871076684
31
2.0000000000019087
  0
LINE
 8
Group#46
10
731.9871570220287
20
92.87916723836956
30
2.0000000000019917
11
731.7011035013525
21
93.25195944450535
31
2.0000000000019917
  0
LINE
 8
Group#46
10
741.6940749469799
20
107.82854514454789
30
2.00000000000208
11
741.2599492281644
21
108.00836590505627
31
2.0000000000020526
  0
LINE
 8
Group#46
10
748.3906777996095
20
82.83648306042305
30
2.000000000002384
11
748.1046242789332
21
82.46369085428726
31
2.000000000002398
  0
LINE
 8
Group#46
10
762.1634700057456
20
103.21432594889818
30
2.0000000000023963
11
761.7293442869301
21
103.39414670940654
31
2.0000000000023817
  0
LINE
 8
Group#46
10
749.197595724561
20
83.30235734160766
30
2.000000000002397
11
748.7634700057455
21
83.12253658109924
31
2.0000000000023825
  0
LINE
 8
Group#46
10
759.4634700057455
20
101.65548022208631
30
2.0000000000020215
11
759.5248035184253
21
101.18960594090174
31
2.0000000000020375
  0
LINE
 8
Group#46
10
749.6634700057455
20
83.36369085428733
30
2.000000000002397
11
749.197595724561
21
83.30235734160766
31
2.000000000002397
  0
LINE
 8
Group#46
10
747.9248035184252
20
267.4767930198003
30
2.0000000000018967
11
748.1046242789334
21
267.0426673009849
31
2.000000000001839
  0
LINE
 8
Group#46
10
747.924803518425
20
82.02956513547171
30
2.000000000002397
11
747.8634700057454
21
81.56369085428739
31
2.000000000002413
  0
LINE
 8
Group#46
10
760.3634700057456
20
103.21432594889849
30
2.0000000000023825
11
759.9906777996098
21
102.92827242822207
31
2.0000000000023683
  0
LINE
 8
Group#46
10
759.5248035184253
20
101.18960594090174
30
2.0000000000020375
11
759.7046242789336
21
100.75548022208633
31
2.0000000000020375
  0
LINE
 8
Group#46
10
751.4021364930658
20
82.02956513547176
30
2.0000000000019504
11
751.2223157325574
21
82.46369085428731
31
2.0000000000019793
  0
LINE
 8
Group#46
10
751.2223157325574
20
82.46369085428731
30
2.0000000000019793
11
750.9362622118813
21
82.83648306042305
31
2.000000000002383
  0
LINE
 8
Group#46
10
750.9362622118812
20
80.2908986481514
30
2.0000000000019806
11
751.2223157325573
21
80.66369085428708
31
2.000000000001964
  0
LINE
 8
Group#46
10
751.4021364930658
20
81.09781657310278
30
2.000000000001965
11
751.4634700057454
21
81.56369085428739
31
2.0000000000019797
  0
LINE
 8
Group#46
10
749.6634700057455
20
269.74266730098475
30
2.000000000001886
11
749.197595724561
21
269.6813337883052
31
2.0000000000019016
  0
LINE
 8
Group#46
10
751.2223157325573
20
80.66369085428708
30
2.000000000001964
11
751.4021364930658
21
81.09781657310278
31
2.000000000001965
  0
LINE
 8
Group#46
10
748.3906777996098
20
266.66987509484903
30
2.0000000000018523
11
748.7634700057455
21
266.3838215741728
31
2.0000000000018305
  0
LINE
 8
Group#46
10
761.7293442869301
20
103.39414670940654
30
2.0000000000023817
11
761.2634700057456
21
103.45548022208631
31
2.0000000000023808
  0
LINE
 8
Group#46
10
762.5362622118813
20
100.38268801595068
30
2.000000000002397
11
762.8223157325575
21
100.75548022208633
31
2.000000000002383
  0
LINE
 8
Group#46
10
732.79407494698
20
92.413292957185
30
2.000000000002007
11
732.3599492281645
21
92.59311371769337
31
2.0000000000019917
  0
LINE
 8
Group#46
10
747.8634700057454
20
267.9426673009848
30
2.0000000000019025
11
747.9248035184252
21
267.4767930198003
31
2.0000000000018967
  0
LINE
 8
Group#46
10
761.7293442869302
20
99.91681373476608
30
2.0000000000020517
11
762.1634700057457
21
100.09663449527432
31
2.0000000000020517
  0
LINE
 8
Group#46
10
759.9906777996098
20
102.92827242822207
30
2.0000000000023683
11
759.7046242789335
21
102.5554802220861
31
2.0000000000023817
  0
LINE
 8
Group#46
10
763.0634700057454
20
101.65548022208623
30
2.0000000000023683
11
763.0021364930659
21
102.12135450327092
31
2.0000000000023825
  0
LINE
 8
Group#46
10
759.7046242789335
20
102.5554802220861
30
2.0000000000023817
11
759.5248035184252
21
102.1213545032707
31
2.000000000002383
  0
LINE
 8
Group#46
10
748.3906777996095
20
269.21545950712067
30
2.0000000000019025
11
748.1046242789334
21
268.8426673009849
31
2.0000000000018954
  0
LINE
 8
Group#46
10
748.7634700057455
20
266.3838215741728
30
2.0000000000018305
11
749.197595724561
21
266.2040008136645
31
2.0000000000018305
  0
LINE
 8
Group#46
10
750.9362622118813
20
82.83648306042305
30
2.000000000002383
11
750.5634700057454
21
83.12253658109942
31
2.0000000000024105
  0
LINE
 8
Group#46
10
750.1293442869301
20
79.82502436696697
30
2.000000000001994
11
750.5634700057454
21
80.00484512747529
31
2.0000000000020095
  0
LINE
 8
Group#46
10
747.9248035184252
20
268.40854158216945
30
2.000000000001896
11
747.8634700057454
21
267.9426673009848
31
2.0000000000019025
  0
LINE
 8
Group#46
10
748.7634700057455
20
80.00484512747529
30
2.000000000001952
11
749.197595724561
21
79.82502436696697
31
2.0000000000019664
  0
LINE
 8
Group#46
10
734.5327414343002
20
254.08160650463105
30
2.000000000001915
11
734.8187949549765
21
254.45439871076684
31
2.000000000001922
  0
LINE
 8
Group#46
10
750.5634700057454
20
83.12253658109942
30
2.0000000000024105
11
750.1293442869301
21
83.3023573416077
31
2.000000000002396
  0
LINE
 8
Group#46
10
748.7634700057455
20
83.12253658109924
30
2.0000000000023825
11
748.3906777996095
21
82.83648306042305
31
2.000000000002384
  0
LINE
 8
Group#46
10
762.1634700057457
20
100.09663449527432
30
2.0000000000020517
11
762.5362622118813
21
100.38268801595068
31
2.000000000002397
  0
LINE
 8
Group#46
10
760.797595724561
20
103.39414670940654
30
2.0000000000023808
11
760.3634700057456
21
103.21432594889849
31
2.0000000000023825
  0
LINE
 8
Group#46
10
750.1293442869301
20
83.3023573416077
30
2.000000000002396
11
749.6634700057455
21
83.36369085428733
31
2.000000000002397
  0
LINE
 8
Group#46
10
759.7046242789336
20
100.75548022208633
30
2.0000000000020375
11
759.9906777996099
21
100.38268801595055
31
2.0000000000020517
  0
LINE
 8
Group#46
10
750.1293442869301
20
269.6813337883052
30
2.0000000000019016
11
749.6634700057455
21
269.74266730098475
31
2.000000000001886
  0
LINE
 8
Group#46
10
748.1046242789334
20
268.8426673009849
30
2.0000000000018954
11
747.9248035184252
21
268.40854158216945
31
2.000000000001896
  0
LINE
 8
Group#46
10
733.2599492281645
20
92.35195944450528
30
2.0000000000019917
11
732.79407494698
21
92.413292957185
31
2.000000000002007
  0
LINE
 8
Group#46
10
760.3634700057456
20
100.0966344952744
30
2.000000000002022
11
760.797595724561
21
99.91681373476608
31
2.0000000000020512
  0
LINE
 8
Group#46
10
761.2634700057456
20
103.45548022208631
30
2.0000000000023808
11
760.797595724561
21
103.39414670940654
31
2.0000000000023808
  0
LINE
 8
Group#46
10
761.2634700057455
20
99.8554802220864
30
2.000000000002023
11
761.7293442869302
21
99.91681373476608
31
2.0000000000020517
  0
LINE
 8
Group#46
10
749.197595724561
20
269.6813337883052
30
2.0000000000019016
11
748.7634700057455
21
269.5015130277969
31
2.0000000000018874
  0
LINE
 8
Group#46
10
763.0021364930659
20
102.12135450327092
30
2.0000000000023825
11
762.8223157325575
21
102.5554802220861
31
2.0000000000023808
  0
LINE
 8
Group#46
10
748.1046242789332
20
82.46369085428726
30
2.000000000002398
11
747.924803518425
21
82.02956513547171
31
2.000000000002397
  0
LINE
 8
Group#46
10
733.2599492281645
20
257.1543987107668
30
2.0000000000019065
11
732.79407494698
21
257.0930651980871
31
2.000000000001899
  0
LINE
 8
Group#46
10
749.197595724561
20
79.82502436696697
30
2.0000000000019664
11
749.6634700057455
21
79.76369085428729
31
2.0000000000019664
  0
LINE
 8
Group#46
10
742.1599492281644
20
111.3672116318683
30
2.00000000000241
11
742.625823509349
21
111.30587811918858
31
2.00000000000241
  0
LINE
 8
Group#46
10
749.6634700057455
20
79.76369085428729
30
2.0000000000019664
11
750.1293442869301
21
79.82502436696697
31
2.000000000001994
  0
LINE
 8
Group#46
10
748.1046242789334
20
80.66369085428731
30
2.000000000001981
11
748.3906777996098
21
80.2908986481514
31
2.0000000000019664
  0
LINE
 8
Group#46
10
747.924803518425
20
81.09781657310273
30
2.000000000002413
11
748.1046242789334
21
80.66369085428731
31
2.000000000001981
  0
LINE
 8
Group#46
10
762.8223157325575
20
100.75548022208633
30
2.000000000002383
11
763.0021364930659
21
101.1896059409018
31
2.0000000000023963
  0
LINE
 8
Group#46
10
748.3906777996098
20
80.2908986481514
30
2.0000000000019664
11
748.7634700057455
21
80.00484512747529
31
2.000000000001952
  0
LINE
 8
Group#46
10
751.4634700057454
20
81.56369085428739
30
2.0000000000019797
11
751.4021364930658
21
82.02956513547176
31
2.0000000000019504
  0
LINE
 8
Group#46
10
759.9906777996099
20
100.38268801595055
30
2.0000000000020517
11
760.3634700057456
21
100.0966344952744
31
2.000000000002022
  0
LINE
 8
Group#46
10
747.8634700057454
20
81.56369085428739
30
2.000000000002413
11
747.924803518425
21
81.09781657310273
31
2.000000000002413
  0
LINE
 8
Group#46
10
733.7258235093489
20
92.413292957185
30
2.000000000002007
11
733.2599492281645
21
92.35195944450528
31
2.0000000000019917
  0
LINE
 8
Group#46
10
748.7634700057455
20
269.5015130277969
30
2.0000000000018874
11
748.3906777996095
21
269.21545950712067
31
2.0000000000019025
  0
LINE
 8
Group#46
10
748.1046242789334
20
267.0426673009849
30
2.000000000001839
11
748.3906777996098
21
266.66987509484903
31
2.0000000000018523
  0
LINE
 8
Group#46
10
762.5362622118814
20
102.92827242822207
30
2.0000000000023674
11
762.1634700057456
21
103.21432594889818
31
2.0000000000023963
  0
LINE
 8
Group#46
10
749.197595724561
20
266.2040008136645
30
2.0000000000018305
11
749.6634700057455
21
266.1426673009848
31
2.000000000001846
  0
LINE
 8
Group#46
10
750.5634700057454
20
80.00484512747529
30
2.0000000000020095
11
750.9362622118812
21
80.2908986481514
31
2.0000000000019806
  0
LINE
 8
Group#46
10
760.797595724561
20
99.91681373476608
30
2.0000000000020512
11
761.2634700057455
21
99.8554802220864
31
2.000000000002023
  0
LINE
 8
Group#46
10
762.1634700057457
20
249.40972365999784
30
2.000000000001896
11
761.7293442869303
21
249.5895444205062
31
2.000000000001911
  0
LINE
 8
Group#46
10
759.5248035184253
20
247.38500365200113
30
2.0000000000019127
11
759.7046242789336
21
246.95087793318575
31
2.000000000001898
  0
LINE
 8
Group#46
10
735.1249043385114
20
116.30890257439042
30
2.00000000000241
11
734.9650636625039
21
115.92301304655447
31
2.0000000000024247
  0
LINE
 8
Group#46
10
735.1249043385114
20
117.13712351871852
30
2.000000000002409
11
735.1794230164489
21
116.72301304655447
31
2.000000000002437
  0
LINE
 8
Group#46
10
760.7975957245612
20
249.5895444205062
30
2.000000000001911
11
760.3634700057456
21
249.40972365999784
31
2.0000000000018967
  0
LINE
 8
Group#46
10
735.1794230164489
20
116.72301304655447
30
2.000000000002437
11
735.1249043385114
21
116.30890257439042
31
2.00000000000241
  0
LINE
 8
Group#46
10
732.0339416943863
20
116.30890257439042
30
2.0000000000024105
11
731.9794230164488
21
116.72301304655447
31
2.000000000002438
  0
LINE
 8
Group#46
10
732.1937823703938
20
115.92301304655447
30
2.000000000002425
11
732.0339416943863
21
116.30890257439042
31
2.0000000000024105
  0
LINE
 8
Group#46
10
751.2223157325575
20
267.0426673009849
30
2.00000000000191
11
751.4021364930659
21
267.4767930198003
31
2.0000000000018954
  0
LINE
 8
Group#46
10
733.9935334886129
20
115.177531724492
30
2.000000000002425
11
733.5794230164488
21
115.12301304655443
31
2.00000000000241
  0
LINE
 8
Group#46
10
732.4480521665504
20
115.59164219665595
30
2.000000000002439
11
732.1937823703938
21
115.92301304655447
31
2.000000000002425
  0
LINE
 8
Group#46
10
761.7293442869303
20
249.5895444205062
30
2.000000000001911
11
761.2634700057456
21
249.65087793318582
31
2.0000000000018887
  0
LINE
 8
Group#46
10
731.9794230164488
20
116.72301304655447
30
2.000000000002438
11
732.0339416943863
21
117.13712351871852
31
2.000000000002409
  0
LINE
 8
Group#46
10
759.7046242789336
20
246.95087793318575
30
2.000000000001898
11
759.9906777996098
21
246.57808572705002
31
2.000000000001897
  0
LINE
 8
Group#46
10
760.3634700057456
20
249.40972365999784
30
2.0000000000018967
11
759.9906777996098
21
249.12367013932163
31
2.0000000000018967
  0
LINE
 8
Group#46
10
744.9242691107706
20
214.60863059041222
30
2.000000000001929
11
744.5928982608721
21
214.35436079425563
31
2.000000000001944
  0
LINE
 8
Group#46
10
750.1293442869301
20
266.2040008136645
30
2.0000000000018967
11
750.5634700057454
21
266.3838215741728
31
2.0000000000018967
  0
LINE
 8
Group#46
10
750.5634700057456
20
269.50151302779676
30
2.0000000000018945
11
750.1293442869301
21
269.6813337883052
31
2.0000000000019016
  0
LINE
 8
Group#46
10
749.6634700057455
20
266.1426673009848
30
2.000000000001846
11
750.1293442869301
21
266.2040008136645
31
2.0000000000018967
  0
LINE
 8
Group#46
10
762.5362622118815
20
246.57808572705002
30
2.0000000000018967
11
762.8223157325576
21
246.9508779331859
31
2.000000000001897
  0
LINE
 8
Group#46
10
759.4634700057455
20
247.85087793318579
30
2.0000000000018834
11
759.5248035184253
21
247.38500365200113
31
2.0000000000019127
  0
LINE
 8
Group#46
10
734.9650636625039
20
115.92301304655447
30
2.0000000000024247
11
734.7107938663474
21
115.59164219665595
31
2.000000000002438
  0
LINE
 8
Group#46
10
763.0021364930659
20
247.38500365200122
30
2.0000000000019043
11
763.0634700057457
21
247.85087793318579
31
2.0000000000018825
  0
LINE
 8
Group#46
10
751.4021364930659
20
268.40854158216945
30
2.0000000000018954
11
751.2223157325575
21
268.8426673009848
31
2.0000000000019016
  0
LINE
 8
Group#46
10
761.2634700057456
20
246.0508779331859
30
2.000000000001884
11
761.7293442869303
21
246.11221144586546
31
2.000000000001891
  0
LINE
 8
Group#46
10
762.5362622118813
20
249.12367013932163
30
2.000000000001896
11
762.1634700057457
21
249.40972365999784
31
2.000000000001896
  0
LINE
 8
Group#46
10
734.3794230164489
20
118.10865369260955
30
2.000000000002408
11
734.7107938663474
21
117.85438389645294
31
2.0000000000024225
  0
LINE
 8
Group#46
10
734.9650636625039
20
117.52301304655447
30
2.000000000002395
11
735.1249043385114
21
117.13712351871852
31
2.000000000002409
  0
LINE
 8
Group#46
10
732.7794230164488
20
118.10865369260955
30
2.000000000002409
11
733.1653125442848
21
118.26849436861708
31
2.000000000002409
  0
LINE
 8
Group#46
10
762.1634700057456
20
246.2920322063738
30
2.000000000001891
11
762.5362622118815
21
246.57808572705002
31
2.0000000000018967
  0
LINE
 8
Group#46
10
732.1937823703938
20
117.52301304655447
30
2.000000000002396
11
732.4480521665504
21
117.85438389645294
31
2.000000000002424
  0
LINE
 8
Group#46
10
733.9935334886129
20
118.26849436861708
30
2.000000000002408
11
734.3794230164489
21
118.10865369260955
31
2.000000000002408
  0
LINE
 8
Group#46
10
761.7293442869303
20
246.11221144586546
30
2.000000000001891
11
762.1634700057456
21
246.2920322063738
31
2.000000000001891
  0
LINE
 8
Group#46
10
759.5248035184252
20
248.3167522143703
30
2.000000000001905
11
759.4634700057455
21
247.85087793318579
31
2.0000000000018834
  0
LINE
 8
Group#46
10
734.7107938663474
20
117.85438389645294
30
2.0000000000024225
11
734.9650636625039
21
117.52301304655447
31
2.000000000002395
  0
LINE
 8
Group#46
10
732.7794230164488
20
115.33737240049925
30
2.000000000002049
11
732.4480521665504
21
115.59164219665595
31
2.000000000002439
  0
LINE
 8
Group#46
10
762.8223157325576
20
246.9508779331859
30
2.000000000001897
11
763.0021364930659
21
247.38500365200122
31
2.0000000000019043
  0
LINE
 8
Group#46
10
760.7975957245612
20
246.11221144586546
30
2.0000000000018905
11
761.2634700057456
21
246.0508779331859
31
2.000000000001884
  0
LINE
 8
Group#46
10
732.0339416943863
20
117.13712351871852
30
2.000000000002409
11
732.1937823703938
21
117.52301304655447
31
2.000000000002396
  0
LINE
 8
Group#46
10
750.5634700057454
20
266.3838215741728
30
2.0000000000018967
11
750.9362622118813
21
266.66987509484915
31
2.0000000000018883
  0
LINE
 8
Group#46
10
763.0021364930659
20
248.3167522143703
30
2.0000000000019043
11
762.8223157325576
21
248.75087793318585
31
2.000000000001875
  0
LINE
 8
Group#46
10
751.4021364930659
20
267.4767930198003
30
2.0000000000018954
11
751.4634700057454
21
267.9426673009848
31
2.0000000000019025
  0
LINE
 8
Group#46
10
745.7242691107706
20
214.8229899443571
30
2.0000000000019504
11
745.3101586386067
21
214.76847126641957
31
2.0000000000019424
  0
LINE
 8
Group#46
10
745.3101586386067
20
214.76847126641957
30
2.0000000000019424
11
744.9242691107706
21
214.60863059041222
31
2.000000000001929
  0
LINE
 8
Group#46
10
761.2634700057456
20
249.65087793318582
30
2.0000000000018887
11
760.7975957245612
21
249.5895444205062
31
2.000000000001911
  0
LINE
 8
Group#46
10
734.7107938663474
20
115.59164219665595
30
2.000000000002438
11
734.3794230164489
21
115.33737240049935
31
2.0000000000024105
  0
LINE
 8
Group#46
10
744.3386284647156
20
214.0229899443572
30
2.0000000000019296
11
744.1787877887081
21
213.63710041652124
31
2.000000000001921
  0
LINE
 8
Group#46
10
760.3634700057456
20
246.29203220637393
30
2.0000000000019056
11
760.7975957245612
21
246.11221144586546
31
2.0000000000018905
  0
LINE
 8
Group#46
10
733.1653125442848
20
115.177531724492
30
2.0000000000020637
11
732.7794230164488
21
115.33737240049925
31
2.000000000002049
  0
LINE
 8
Group#46
10
744.5928982608721
20
214.35436079425563
30
2.000000000001944
11
744.3386284647156
21
214.0229899443572
31
2.0000000000019296
  0
LINE
 8
Group#46
10
762.8223157325575
20
102.5554802220861
30
2.0000000000023808
11
762.5362622118814
21
102.92827242822207
31
2.0000000000023674
  0
LINE
 8
Group#46
10
762.8223157325576
20
248.75087793318585
30
2.000000000001875
11
762.5362622118813
21
249.12367013932163
31
2.000000000001896
  0
LINE
 8
Group#46
10
759.5248035184252
20
102.1213545032707
30
2.000000000002383
11
759.4634700057455
21
101.65548022208631
31
2.0000000000020215
  0
LINE
 8
Group#46
10
733.5794230164488
20
118.32301304655446
30
2.000000000002408
11
733.9935334886129
21
118.26849436861708
31
2.000000000002408
  0
LINE
 8
Group#46
10
763.0634700057457
20
247.85087793318579
30
2.0000000000018825
11
763.0021364930659
21
248.3167522143703
31
2.0000000000019043
  0
LINE
 8
Group#46
10
733.1653125442848
20
118.26849436861708
30
2.000000000002409
11
733.5794230164488
21
118.32301304655446
31
2.000000000002408
  0
LINE
 8
Group#46
10
732.4480521665504
20
117.85438389645294
30
2.000000000002424
11
732.7794230164488
21
118.10865369260955
31
2.000000000002409
  0
LINE
 8
Group#46
10
734.3794230164489
20
115.33737240049935
30
2.0000000000024105
11
733.9935334886129
21
115.177531724492
31
2.000000000002425
  0
LINE
 8
Group#46
10
751.2223157325575
20
268.8426673009848
30
2.0000000000019016
11
750.9362622118815
21
269.21545950712056
31
2.0000000000018945
  0
LINE
 8
Group#46
10
763.0021364930659
20
101.1896059409018
30
2.0000000000023963
11
763.0634700057454
21
101.65548022208623
31
2.0000000000023683
  0
LINE
 8
Group#46
10
759.9906777996098
20
249.12367013932163
30
2.0000000000018967
11
759.7046242789336
21
248.75087793318585
31
2.000000000001875
  0
LINE
 8
Group#46
10
733.5794230164488
20
115.12301304655443
30
2.00000000000241
11
733.1653125442848
21
115.177531724492
31
2.0000000000020637
  0
LINE
 8
Group#46
10
750.9362622118813
20
266.66987509484915
30
2.0000000000018883
11
751.2223157325575
21
267.0426673009849
31
2.00000000000191
  0
LINE
 8
Group#46
10
759.9906777996098
20
246.57808572705002
30
2.000000000001897
11
760.3634700057456
21
246.29203220637393
31
2.0000000000019056
  0
LINE
 8
Group#46
10
739.8596224284519
20
173.367538431581
30
2.000000000002317
11
740.245511956288
21
173.2076977555735
31
2.000000000002302
  0
LINE
 8
Group#46
10
745.7242691107706
20
134.68336821091486
30
2.0000000000019775
11
746.1383795829346
21
134.73788688885242
31
2.0000000000019487
  0
LINE
 8
Group#46
10
739.1141411063895
20
174.33906860547205
30
2.0000000000019686
11
739.2739817823968
21
173.9531790776359
31
2.0000000000023004
  0
LINE
 8
Group#46
10
741.0737329006159
20
176.2986603996985
30
2.0000000000019535
11
740.659622428452
21
176.353179077636
31
2.0000000000019535
  0
LINE
 8
Group#46
10
744.5928982608721
20
135.15199736101644
30
2.000000000001963
11
744.9242691107708
21
134.89772756485985
31
2.0000000000019487
  0
LINE
 8
Group#46
10
759.7046242789336
20
248.75087793318585
30
2.000000000001875
11
759.5248035184252
21
248.3167522143703
31
2.000000000001905
  0
LINE
 8
Group#46
10
746.5242691107707
20
211.83734929830206
30
2.0000000000019664
11
746.855639960669
21
212.09161909445868
31
2.0000000000019806
  0
LINE
 8
Group#46
10
742.045263074507
20
173.95317907763604
30
2.000000000001939
11
742.2051037505145
21
174.33906860547205
31
2.0000000000019544
  0
LINE
 8
Group#46
10
740.245511956288
20
173.2076977555735
30
2.000000000002302
11
740.659622428452
21
173.15317907763605
31
2.000000000002302
  0
LINE
 8
Group#46
10
739.2739817823968
20
173.9531790776359
30
2.0000000000023004
11
739.5282515785535
21
173.6218082277375
31
2.000000000002331
  0
LINE
 8
Group#46
10
747.1099097568258
20
137.08336821091495
30
2.00000000000196
11
746.8556399606691
21
137.41473906081333
31
2.000000000002364
  0
LINE
 8
Group#46
10
746.1383795829348
20
211.67750862229462
30
2.0000000000019305
11
746.5242691107707
21
211.83734929830206
31
2.0000000000019664
  0
LINE
 8
Group#46
10
747.1099097568257
20
212.4229899443572
30
2.000000000001972
11
747.2697504328331
21
212.80887947219313
31
2.0000000000019726
  0
LINE
 8
Group#46
10
744.1787877887082
20
136.697478683079
30
2.00000000000241
11
744.1242691107707
21
136.28336821091486
31
2.000000000002395
  0
LINE
 8
Group#46
10
747.1099097568258
20
135.48336821091496
30
2.000000000001962
11
747.2697504328331
21
135.8692577387509
31
2.000000000001976
  0
LINE
 8
Group#46
10
746.8556399606691
20
135.15199736101647
30
2.000000000001977
11
747.1099097568258
21
135.48336821091496
31
2.000000000001962
  0
LINE
 8
Group#46
10
742.259622428452
20
174.753179077636
30
2.0000000000019544
11
742.2051037505145
21
175.1672895498
31
2.0000000000019384
  0
LINE
 8
Group#46
10
746.855639960669
20
214.35436079425563
30
2.000000000001965
11
746.5242691107707
21
214.60863059041222
31
2.000000000001929
  0
LINE
 8
Group#46
10
746.1383795829346
20
137.82884953297733
30
2.0000000000023794
11
745.7242691107706
21
137.88336821091485
31
2.0000000000023794
  0
LINE
 8
Group#46
10
745.3101586386067
20
137.82884953297733
30
2.000000000002379
11
744.9242691107708
21
137.66900885696998
31
2.0000000000023945
  0
LINE
 8
Group#46
10
747.3242691107705
20
213.2229899443571
30
2.0000000000019655
11
747.2697504328331
21
213.63710041652124
31
2.000000000001972
  0
LINE
 8
Group#46
10
744.1787877887082
20
135.8692577387509
30
2.0000000000023945
11
744.3386284647155
21
135.48336821091496
31
2.000000000001963
  0
LINE
 8
Group#46
10
744.1787877887081
20
213.63710041652124
30
2.000000000001921
11
744.1242691107707
21
213.2229899443571
31
2.0000000000019447
  0
LINE
 8
Group#46
10
747.2697504328331
20
213.63710041652124
30
2.000000000001972
11
747.1099097568257
21
214.0229899443572
31
2.000000000001965
  0
LINE
 8
Group#46
10
739.5282515785535
20
175.8845499275345
30
2.0000000000019544
11
739.2739817823968
21
175.5531790776361
31
2.0000000000019686
  0
LINE
 8
Group#46
10
746.855639960669
20
212.09161909445868
30
2.0000000000019806
11
747.1099097568257
21
212.4229899443572
31
2.000000000001972
  0
LINE
 8
Group#46
10
742.045263074507
20
175.5531790776361
30
2.0000000000019678
11
741.7909932783504
21
175.8845499275345
31
2.0000000000019535
  0
LINE
 8
Group#46
10
739.8596224284519
20
176.1388197236911
30
2.0000000000019247
11
739.5282515785535
21
175.8845499275345
31
2.0000000000019544
  0
LINE
 8
Group#46
10
741.4596224284519
20
176.13881972369103
30
2.000000000001939
11
741.0737329006159
21
176.2986603996985
31
2.0000000000019535
  0
LINE
 8
Group#46
10
740.659622428452
20
176.353179077636
30
2.0000000000019535
11
740.245511956288
21
176.2986603996985
31
2.0000000000019535
  0
LINE
 8
Group#46
10
746.1383795829346
20
134.73788688885242
30
2.0000000000019487
11
746.5242691107707
21
134.89772756485985
31
2.000000000001948
  0
LINE
 8
Group#46
10
741.0737329006159
20
173.2076977555735
30
2.0000000000019553
11
741.4596224284519
21
173.36753843158087
31
2.0000000000019686
  0
LINE
 8
Group#46
10
739.2739817823968
20
175.5531790776361
30
2.0000000000019686
11
739.1141411063895
21
175.1672895498
31
2.000000000001939
  0
LINE
 8
Group#46
10
746.5242691107707
20
134.89772756485985
30
2.000000000001948
11
746.8556399606691
21
135.15199736101647
31
2.000000000001977
  0
LINE
 8
Group#46
10
744.1242691107707
20
213.2229899443571
30
2.0000000000019447
11
744.1787877887081
21
212.80887947219313
31
2.0000000000019735
  0
LINE
 8
Group#46
10
739.5282515785535
20
173.6218082277375
30
2.000000000002331
11
739.8596224284519
21
173.367538431581
31
2.000000000002317
  0
LINE
 8
Group#46
10
746.5242691107707
20
137.66900885696998
30
2.0000000000023928
11
746.1383795829346
21
137.82884953297733
31
2.0000000000023794
  0
LINE
 8
Group#46
10
746.8556399606691
20
137.41473906081333
30
2.000000000002364
11
746.5242691107707
21
137.66900885696998
31
2.0000000000023928
  0
LINE
 8
Group#46
10
740.659622428452
20
173.15317907763605
30
2.000000000002302
11
741.0737329006159
21
173.2076977555735
31
2.0000000000019553
  0
LINE
 8
Group#46
10
745.7242691107706
20
137.88336821091485
30
2.0000000000023794
11
745.3101586386067
21
137.82884953297733
31
2.000000000002379
  0
LINE
 8
Group#46
10
747.1099097568257
20
214.0229899443572
30
2.000000000001965
11
746.855639960669
21
214.35436079425563
31
2.000000000001965
  0
LINE
 8
Group#46
10
739.059622428452
20
174.753179077636
30
2.000000000001969
11
739.1141411063895
21
174.33906860547205
31
2.0000000000019686
  0
LINE
 8
Group#46
10
744.9242691107706
20
211.83734929830206
30
2.0000000000019025
11
745.3101586386067
21
211.67750862229462
31
2.0000000000019313
  0
LINE
 8
Group#46
10
747.2697504328331
20
136.6974786830789
30
2.0000000000019615
11
747.1099097568258
21
137.08336821091495
31
2.00000000000196
  0
LINE
 8
Group#46
10
745.3101586386067
20
134.73788688885247
30
2.000000000001963
11
745.7242691107706
21
134.68336821091486
31
2.0000000000019775
  0
LINE
 8
Group#46
10
744.1242691107707
20
136.28336821091486
30
2.000000000002395
11
744.1787877887082
21
135.8692577387509
31
2.0000000000023945
  0
LINE
 8
Group#46
10
745.3101586386067
20
211.67750862229462
30
2.0000000000019313
11
745.7242691107706
21
211.6229899443571
31
2.000000000001909
  0
LINE
 8
Group#46
10
744.3386284647155
20
135.48336821091496
30
2.000000000001963
11
744.5928982608721
21
135.15199736101644
31
2.000000000001963
  0
LINE
 8
Group#46
10
746.5242691107707
20
214.60863059041222
30
2.000000000001929
11
746.1383795829348
21
214.76847126641957
31
2.0000000000019433
  0
LINE
 8
Group#46
10
747.2697504328331
20
212.80887947219313
30
2.0000000000019726
11
747.3242691107705
21
213.2229899443571
31
2.0000000000019655
  0
LINE
 8
Group#46
10
741.7909932783504
20
173.6218082277375
30
2.000000000001969
11
742.045263074507
21
173.95317907763604
31
2.000000000001939
  0
LINE
 8
Group#46
10
742.2051037505145
20
175.1672895498
30
2.0000000000019384
11
742.045263074507
21
175.5531790776361
31
2.0000000000019678
  0
LINE
 8
Group#46
10
751.4634700057454
20
267.9426673009848
30
2.0000000000019025
11
751.4021364930659
21
268.40854158216945
31
2.0000000000018954
  0
LINE
 8
Group#46
10
744.5928982608721
20
212.09161909445876
30
2.0000000000019162
11
744.9242691107706
21
211.83734929830206
31
2.0000000000019025
  0
LINE
 8
Group#46
10
740.245511956288
20
176.2986603996985
30
2.0000000000019535
11
739.8596224284519
21
176.1388197236911
31
2.0000000000019247
  0
LINE
 8
Group#46
10
745.7242691107706
20
211.6229899443571
30
2.000000000001909
11
746.1383795829348
21
211.67750862229462
31
2.0000000000019305
  0
LINE
 8
Group#46
10
744.3386284647156
20
212.4229899443572
30
2.0000000000019367
11
744.5928982608721
21
212.09161909445876
31
2.0000000000019162
  0
LINE
 8
Group#46
10
747.3242691107706
20
136.28336821091486
30
2.0000000000019615
11
747.2697504328331
21
136.6974786830789
31
2.0000000000019615
  0
LINE
 8
Group#46
10
747.2697504328331
20
135.8692577387509
30
2.000000000001976
11
747.3242691107706
21
136.28336821091486
31
2.0000000000019615
  0
LINE
 8
Group#46
10
742.2051037505145
20
174.33906860547205
30
2.0000000000019544
11
742.259622428452
21
174.753179077636
31
2.0000000000019544
  0
LINE
 8
Group#46
10
750.9362622118815
20
269.21545950712056
30
2.0000000000018945
11
750.5634700057456
21
269.50151302779676
31
2.0000000000018945
  0
LINE
 8
Group#46
10
744.9242691107708
20
134.89772756485985
30
2.0000000000019487
11
745.3101586386067
21
134.73788688885247
31
2.000000000001963
  0
LINE
 8
Group#46
10
741.4596224284519
20
173.36753843158087
30
2.0000000000019686
11
741.7909932783504
21
173.6218082277375
31
2.000000000001969
  0
LINE
 8
Group#46
10
739.1141411063895
20
175.1672895498
30
2.000000000001939
11
739.059622428452
21
174.753179077636
31
2.000000000001969
  0
LINE
 8
Group#46
10
732.1931508837449
20
145.92264845756793
30
2.0000000000020015
11
732.0332373625499
21
146.30871384924382
31
2.0000000000020024
  0
LINE
 8
Group#46
10
744.1787877887081
20
212.80887947219313
30
2.0000000000019735
11
744.3386284647156
21
212.4229899443572
31
2.0000000000019367
  0
LINE
 8
Group#46
10
746.1383795829348
20
214.76847126641957
30
2.0000000000019433
11
745.7242691107706
21
214.8229899443571
31
2.0000000000019504
  0
LINE
 8
Group#46
10
734.7113094730369
20
145.59112658996642
30
2.000000000001988
11
734.3797876054355
21
145.3367409138507
31
2.000000000001988
  0
LINE
 8
Group#46
10
733.165123819138
20
145.17682739265567
30
2.000000000001974
11
732.7790584274622
21
145.3367409138507
31
2.0000000000019877
  0
LINE
 8
Group#46
10
706.7812773334277
20
160.4237373293886
30
2.0000000000019433
11
706.1871866756218
21
160.44146980050925
31
2.000000000001928
  0
LINE
 8
Group#46
10
734.3797876054355
20
148.10928517925836
30
2.000000000001987
11
734.7113094730369
21
147.8548995031426
31
2.000000000002001
  0
LINE
 8
Group#46
10
732.4475365598606
20
145.59112658996642
30
2.0000000000019877
11
732.1931508837449
21
145.92264845756793
31
2.0000000000020015
  0
LINE
 8
Group#46
10
731.9786938384756
20
146.72301304655454
30
2.0000000000020024
11
732.0332373625499
21
147.13731224386532
31
2.0000000000019735
  0
LINE
 8
Group#46
10
734.3797876054355
20
145.3367409138507
30
2.000000000001988
11
733.9937222137596
21
145.17682739265567
31
2.000000000001974
  0
LINE
 8
Group#46
10
733.165123819138
20
148.2691987004535
30
2.000000000002001
11
733.5794230164488
21
148.32374222452785
31
2.000000000001987
  0
LINE
 8
Group#46
10
708.659622428452
20
159.83853902365414
30
2.000000000001611
11
710.5066468185765
21
159.13571172179874
31
2.0000000000019433
  0
LINE
 8
Group#46
10
733.5794230164488
20
145.12228386858123
30
2.0000000000019877
11
733.165123819138
21
145.17682739265567
31
2.000000000001974
  0
LINE
 8
Group#46
10
732.7790584274622
20
148.10928517925836
30
2.000000000001986
11
733.165123819138
21
148.2691987004535
31
2.000000000002001
  0
LINE
 8
Group#46
10
735.1256086703478
20
147.13731224386532
30
2.0000000000019726
11
735.1801521944221
21
146.72301304655454
31
2.000000000002
  0
LINE
 8
Group#46
10
734.0145866165836
20
152.10210556608803
30
2.0000000000019256
11
734.3283863040758
21
152.457240478657
31
2.0000000000019265
  0
LINE
 8
Group#46
10
712.659622428452
20
158.56363216175475
30
2.0000000000019145
11
713.1749698137087
21
158.42669623731828
31
2.0000000000019424
  0
LINE
 8
Group#46
10
733.9937222137596
20
148.2691987004535
30
2.000000000002001
11
734.3797876054355
21
148.10928517925836
31
2.000000000001987
  0
LINE
 8
Group#46
10
728.659622428452
20
220.1130336032873
30
2.000000000001309
11
729.268724119085
21
219.99068037721474
31
2.000000000001136
  0
LINE
 8
Group#46
10
733.9937222137596
20
145.17682739265567
30
2.000000000001974
11
733.5794230164488
21
145.12228386858123
31
2.0000000000019877
  0
LINE
 8
Group#46
10
735.1801521944221
20
146.72301304655454
30
2.000000000002
11
735.1256086703478
21
146.30871384924382
31
2.0000000000020015
  0
LINE
 8
Group#46
10
736.1060583087825
20
141.1685482610982
30
2.000000000002106
11
735.6458935991916
21
141.4623899146841
31
2.000000000002091
  0
LINE
 8
Group#46
10
732.0332373625499
20
146.30871384924382
30
2.0000000000020024
11
731.9786938384756
21
146.72301304655454
31
2.0000000000020024
  0
LINE
 8
Group#46
10
735.45239089346
20
218.6795720987714
30
2.0000000000012497
11
736.3721821435785
21
218.81072233223594
31
2.000000000001272
  0
LINE
 8
Group#46
10
744.3386284647155
20
137.08336821091495
30
2.0000000000023936
11
744.1787877887082
21
136.697478683079
31
2.00000000000241
  0
LINE
 8
Group#46
10
707.9262336856632
20
160.11760714753004
30
2.0000000000019282
11
708.659622428452
21
159.83853902365414
31
2.000000000001611
  0
LINE
 8
Group#46
10
729.1354598836828
20
147.91376937917292
30
2.000000000001974
11
729.5950746723917
21
149.02337763554107
31
2.0000000000019877
  0
LINE
 8
Group#46
10
733.5794230164488
20
148.32374222452785
30
2.000000000001987
11
733.9937222137596
21
148.2691987004535
31
2.000000000002001
  0
LINE
 8
Group#46
10
724.659622428452
20
158.56363216175475
30
2.0000000000019242
11
726.8125980383277
21
159.1357117217988
31
2.0000000000019242
  0
LINE
 8
Group#46
10
735.1577899155717
20
141.70703102196515
30
2.0000000000020624
11
734.6469890745011
21
141.89984434644433
31
2.0000000000020193
  0
LINE
 8
Group#46
10
741.7909932783504
20
175.8845499275345
30
2.0000000000019535
11
741.4596224284519
21
176.13881972369103
31
2.000000000001939
  0
LINE
 8
Group#46
10
730.3262162163011
20
149.97621984670226
30
2.0000000000019997
11
731.2790584274621
21
150.70736139061162
31
2.0000000000019713
  0
LINE
 8
Group#46
10
744.5928982608721
20
137.41473906081333
30
2.0000000000023648
11
744.3386284647155
21
137.08336821091495
31
2.0000000000023936
  0
LINE
 8
Group#46
10
726.8125980383277
20
159.1357117217988
30
2.0000000000019242
11
728.659622428452
21
159.83853902365396
31
2.000000000001909
  0
LINE
 8
Group#46
10
707.9262336856632
20
160.11760714753004
30
2.0000000000019282
11
707.3655865447297
21
160.31492144905883
31
2.0000000000019433
  0
LINE
 8
Group#46
10
732.2932347823202
20
160.20417328142165
30
2.000000000001951
11
732.6596224284522
21
160.03480563005206
31
2.0000000000019367
  0
LINE
 8
Group#46
10
707.3655865447297
20
160.31492144905883
30
2.0000000000019433
11
706.7812773334277
21
160.4237373293886
31
2.0000000000019433
  0
LINE
 8
Group#46
10
729.9536583121744
20
160.31492144905883
30
2.000000000001923
11
730.5379675234764
21
160.4237373293886
31
2.000000000001921
  0
LINE
 8
Group#46
10
715.9024313465663
20
157.99820568857112
30
2.000000000001928
11
716.6596224284522
21
157.95883959111455
31
2.0000000000019424
  0
LINE
 8
Group#46
10
744.9242691107708
20
137.66900885696998
30
2.0000000000023945
11
744.5928982608721
21
137.41473906081333
31
2.0000000000023648
  0
LINE
 8
Group#46
10
729.1354598836828
20
145.53225671393625
30
2.0000000000020037
11
728.9786938384756
21
146.72301304655454
31
2.0000000000020033
  0
LINE
 8
Group#46
10
734.9656951491527
20
145.92264845756793
30
2.000000000002001
11
734.7113094730369
21
145.59112658996642
31
2.000000000001988
  0
LINE
 8
Group#46
10
716.6596224284522
20
157.95883959111455
30
2.0000000000019424
11
718.6596224284522
21
157.85486029606366
31
2.000000000001927
  0
LINE
 8
Group#46
10
732.6596224284522
20
219.0246697787927
30
2.0000000000014158
11
732.7011618506923
21
219.0128358874532
31
2.000000000001215
  0
LINE
 8
Group#46
10
732.4475365598606
20
147.8548995031426
30
2.000000000002
11
732.7790584274622
21
148.10928517925836
31
2.000000000001986
  0
LINE
 8
Group#46
10
733.2627878749604
20
151.52819916657765
30
2.0000000000019846
11
733.6573755361349
21
151.7906713129942
31
2.0000000000019846
  0
LINE
 8
Group#46
10
734.9656951491527
20
147.52337763554124
30
2.0000000000019726
11
735.1256086703478
21
147.13731224386532
31
2.0000000000019726
  0
LINE
 8
Group#46
10
729.268724119085
20
219.99068037721474
30
2.000000000001136
11
732.6596224284522
21
219.0246697787927
31
2.0000000000014158
  0
LINE
 8
Group#46
10
732.0332373625499
20
147.13731224386532
30
2.0000000000019735
11
732.1931508837449
21
147.52337763554118
31
2.0000000000019877
  0
LINE
 8
Group#46
10
705.5974275594406
20
160.36769761668847
30
2.000000000001929
11
705.026010074584
21
160.20417328142165
31
2.000000000001944
  0
LINE
 8
Group#46
10
735.1256086703478
20
146.30871384924382
30
2.0000000000020015
11
734.9656951491527
21
145.92264845756793
31
2.000000000002001
  0
LINE
 8
Group#46
10
737.8281980948342
20
139.08822807738977
30
2.0000000000021934
11
737.5740799057228
21
139.57146551726552
31
2.00000000000215
  0
LINE
 8
Group#46
10
710.5066468185765
20
159.13571172179874
30
2.0000000000019433
11
712.659622428452
21
158.56363216175475
31
2.0000000000019145
  0
LINE
 8
Group#46
10
732.1931508837449
20
147.52337763554118
30
2.0000000000019877
11
732.4475365598606
21
147.8548995031426
31
2.000000000002
  0
LINE
 8
Group#46
10
734.8053688285659
20
153.27397640576953
30
2.0000000000018967
11
734.960493404971
21
153.72177928181057
31
2.000000000001882
  0
LINE
 8
Group#46
10
731.1320581812824
20
160.44146980050925
30
2.0000000000019367
11
731.7218172974635
21
160.36769761668847
31
2.0000000000019367
  0
LINE
 8
Group#46
10
732.7790584274622
20
145.3367409138507
30
2.0000000000019877
11
732.4475365598606
21
145.59112658996642
31
2.0000000000019877
  0
LINE
 8
Group#46
10
706.1871866756218
20
160.44146980050925
30
2.000000000001928
11
705.5974275594406
21
160.36769761668847
31
2.000000000001929
  0
LINE
 8
Group#46
10
734.593473189176
20
152.85007631376297
30
2.0000000000019247
11
734.8053688285659
21
153.27397640576953
31
2.0000000000018967
  0
LINE
 8
Group#46
10
734.9760640413346
20
155.59736989625802
30
2.0000000000018523
11
734.7708845976227
21
157.10841496745462
31
2.0000000000018514
  0
LINE
 8
Group#46
10
713.1749698137087
20
158.42669623731828
30
2.0000000000019424
11
715.9024313465663
21
157.99820568857112
31
2.000000000001928
  0
LINE
 8
Group#46
10
733.3275055503578
20
159.6254464761398
30
2.000000000001879
11
733.7657890967831
21
159.22399201650933
31
2.000000000001879
  0
LINE
 8
Group#46
10
730.5379675234764
20
160.4237373293886
30
2.000000000001921
11
731.1320581812824
21
160.44146980050925
31
2.0000000000019367
  0
LINE
 8
Group#46
10
734.7113094730369
20
147.8548995031426
30
2.000000000002001
11
734.9656951491527
21
147.52337763554124
31
2.0000000000019726
  0
LINE
 8
Group#46
10
721.416813510338
20
157.99820568857112
30
2.0000000000019265
11
724.1442750431955
21
158.42669623731828
31
2.00000000000194
  0
LINE
 8
Group#46
10
732.6596224284522
20
160.03480563005206
30
2.0000000000019367
11
732.8327362628601
21
159.9547814156366
31
2.0000000000019367
  0
LINE
 8
Group#46
10
742.8444215658817
20
232.99524734769403
30
2.000000000001911
11
743.1499749966603
21
232.57393427262028
31
2.0000000000019114
  0
LINE
 8
Group#46
10
732.3886666838305
20
142.27904991378844
30
2.0000000000019607
11
731.2790584274621
21
142.73866470249726
31
2.0000000000019895
  0
LINE
 8
Group#46
10
731.7218172974635
20
160.36769761668847
30
2.0000000000019367
11
732.2932347823202
21
160.20417328142165
31
2.000000000001951
  0
LINE
 8
Group#46
10
733.7657890967831
20
159.22399201650933
30
2.000000000001879
11
734.1371752075462
21
158.75995483377855
31
2.000000000001879
  0
LINE
 8
Group#46
10
733.5794230164488
20
142.12228386858123
30
2.0000000000020037
11
732.3886666838305
21
142.27904991378844
31
2.0000000000019607
  0
LINE
 8
Group#46
10
729.393011171241
20
160.11760714753004
30
2.0000000000019376
11
729.9536583121744
21
160.31492144905883
31
2.000000000001923
  0
LINE
 8
Group#46
10
728.9786938384756
20
146.72301304655454
30
2.0000000000020033
11
729.1354598836828
21
147.91376937917292
31
2.000000000001974
  0
LINE
 8
Group#46
10
729.5950746723917
20
144.42264845756787
30
2.000000000002018
11
729.1354598836828
21
145.53225671393625
31
2.0000000000020037
  0
LINE
 8
Group#46
10
720.6596224284522
20
157.95883959111447
30
2.000000000001941
11
721.416813510338
21
157.99820568857112
31
2.0000000000019265
  0
LINE
 8
Group#46
10
743.5777776465249
20
231.62762179197784
30
2.0000000000019043
11
743.6922120866705
21
231.11990891524798
31
2.000000000001927
  0
LINE
 8
Group#46
10
729.2858231459162
20
250.7589278203865
30
2.000000000001759
11
728.9188295471093
21
250.87273327930876
31
2.0000000000016733
  0
LINE
 8
Group#46
10
735.6458935991916
20
141.4623899146841
30
2.000000000002091
11
735.1577899155717
21
141.70703102196515
31
2.0000000000020624
  0
LINE
 8
Group#46
10
733.6573755361349
20
151.7906713129942
30
2.0000000000019846
11
734.0145866165836
21
152.10210556608803
31
2.0000000000019256
  0
LINE
 8
Group#46
10
738.0343235111192
20
244.0647722404489
30
2.000000000001899
11
737.107110289932
21
242.85640444456416
31
2.000000000001921
  0
LINE
 8
Group#46
10
730.3262162163011
20
143.4698062464068
30
2.0000000000020037
11
729.5950746723917
21
144.42264845756787
31
2.000000000002018
  0
LINE
 8
Group#46
10
734.6469890745011
20
141.89984434644433
30
2.0000000000020193
11
734.1189766406394
21
142.0387592377358
31
2.0000000000019904
  0
LINE
 8
Group#46
10
738.9856958023656
20
245.87689522232637
30
2.0000000000019043
11
739.1591883625413
21
246.89113598357258
31
2.000000000002193
  0
LINE
 8
Group#46
10
737.2713156688866
20
140.02580932346083
30
2.0000000000021343
11
736.9231568135799
21
140.44638023164006
31
2.000000000002149
  0
LINE
 8
Group#46
10
735.0909498965099
20
154.65855620676163
30
2.0000000000018527
11
735.0640778474501
21
155.13170411489912
31
2.000000000001881
  0
LINE
 8
Group#46
10
736.5333422684793
20
140.82866166954003
30
2.000000000002077
11
736.1060583087825
21
141.1685482610982
31
2.000000000002106
  0
LINE
 8
Group#46
10
734.3283863040758
20
152.457240478657
30
2.0000000000019265
11
734.593473189176
21
152.85007631376297
31
2.0000000000019247
  0
LINE
 8
Group#46
10
737.5740799057228
20
139.57146551726552
30
2.00000000000215
11
737.2713156688866
21
140.02580932346083
31
2.0000000000021343
  0
LINE
 8
Group#46
10
725.7696150910039
20
220.69356346644113
30
2.000000000001129
11
728.659622428452
21
220.1130336032873
31
2.000000000001309
  0
LINE
 8
Group#46
10
735.0640778474501
20
155.13170411489912
30
2.000000000001881
11
734.9760640413346
21
155.59736989625802
31
2.0000000000018523
  0
LINE
 8
Group#46
10
738.0309412239613
20
138.5812865611112
30
2.000000000002178
11
737.8281980948342
21
139.08822807738977
31
2.0000000000021934
  0
LINE
 8
Group#46
10
732.3886666838305
20
151.16697617932064
30
2.0000000000019997
11
732.8374898944792
21
151.31912339611586
31
2.000000000001984
  0
LINE
 8
Group#46
10
732.8374898944792
20
151.31912339611586
30
2.000000000001984
11
733.2627878749604
21
151.52819916657765
31
2.0000000000019846
  0
LINE
 8
Group#46
10
724.1442750431955
20
158.42669623731828
30
2.00000000000194
11
724.659622428452
21
158.56363216175475
31
2.0000000000019242
  0
LINE
 8
Group#46
10
734.6457638759175
20
157.6894510723778
30
2.00000000000188
11
734.7708845976227
21
157.10841496745462
31
2.0000000000018514
  0
LINE
 8
Group#46
10
729.5950746723917
20
149.02337763554107
30
2.0000000000019877
11
730.3262162163011
21
149.97621984670226
31
2.0000000000019997
  0
LINE
 8
Group#46
10
742.0778166397974
20
233.6958465951632
30
2.0000000000019185
11
742.4848459608278
21
233.37150921201047
31
2.0000000000019185
  0
LINE
 8
Group#46
10
737.3280450992754
20
249.8413783436579
30
2.000000000002191
11
736.8240362770889
21
250.00087612601908
31
2.00000000000196
  0
LINE
 8
Group#46
10
732.7011618506923
20
219.0128358874532
30
2.000000000001215
11
733.6009960699922
21
218.78150343121516
31
2.000000000001229
  0
LINE
 8
Group#46
10
736.9231568135799
20
140.44638023164006
30
2.000000000002149
11
736.5333422684793
21
140.82866166954003
31
2.000000000002077
  0
LINE
 8
Group#46
10
737.2669385963293
20
219.06097663847882
30
2.0000000000013074
11
738.1213065118318
21
219.42604073215531
31
2.0000000000013363
  0
LINE
 8
Group#46
10
736.5242396921743
20
241.44923034234873
30
2.0000000000019282
11
736.3254333858438
21
239.93914652340374
31
2.0000000000019376
  0
LINE
 8
Group#46
10
732.8327362628601
20
159.9547814156366
30
2.0000000000019367
11
733.3275055503578
21
159.6254464761398
31
2.000000000001879
  0
LINE
 8
Group#46
10
728.546241314467
20
250.96661614751298
30
2.000000000001593
11
728.1691391183961
21
251.04030412322345
31
2.0000000000015348
  0
LINE
 8
Group#46
10
734.1371752075462
20
158.75995483377855
30
2.000000000001879
11
734.4328413776916
21
158.24435841597094
31
2.00000000000188
  0
LINE
 8
Group#46
10
718.6596224284522
20
157.85486029606366
30
2.000000000001927
11
720.6596224284522
21
157.95883959111447
31
2.000000000001941
  0
LINE
 8
Group#46
10
735.0562262054789
20
154.18591964948234
30
2.0000000000018954
11
735.0909498965099
21
154.65855620676163
31
2.0000000000018527
  0
LINE
 8
Group#46
10
737.107110289932
20
242.85640444456416
30
2.000000000001921
11
736.5242396921743
21
241.44923034234873
31
2.0000000000019282
  0
LINE
 8
Group#46
10
734.4328413776916
20
158.24435841597094
30
2.00000000000188
11
734.6457638759175
21
157.6894510723778
31
2.00000000000188
  0
LINE
 8
Group#46
10
738.6052021413656
20
244.92085727111916
30
2.00000000000192
11
738.9856958023656
21
245.87689522232637
31
2.0000000000019043
  0
LINE
 8
Group#46
10
741.3120532038672
20
222.6921960208968
30
2.000000000001557
11
741.6570645354154
21
223.55485673556703
31
2.000000000001621
  0
LINE
 8
Group#46
10
743.7117333693546
20
230.08157306506607
30
2.0000000000019043
11
743.6164636116965
21
229.5699176345617
31
2.0000000000019056
  0
LINE
 8
Group#46
10
739.1591883625413
20
246.89113598357258
30
2.000000000002193
11
739.1465739130252
21
247.41962941880467
31
2.000000000002185
  0
LINE
 8
Group#46
10
738.2133775762825
20
249.2710351931576
30
2.0000000000021765
11
737.7960447887933
21
249.59553138713602
31
2.0000000000021765
  0
LINE
 8
Group#46
10
728.659622428452
20
159.83853902365396
30
2.000000000001909
11
729.393011171241
21
160.11760714753004
31
2.0000000000019376
  0
LINE
 8
Group#46
10
736.3721821435785
20
218.81072233223594
30
2.000000000001272
11
736.6596224284522
21
218.8911164650262
31
2.0000000000014087
  0
LINE
 8
Group#46
10
734.1189766406394
20
142.0387592377358
30
2.0000000000019904
11
733.5794230164488
21
142.12228386858123
31
2.0000000000020037
  0
LINE
 8
Group#46
10
731.2790584274621
20
142.73866470249726
30
2.0000000000019895
11
730.3262162163011
21
143.4698062464068
31
2.0000000000020037
  0
LINE
 8
Group#46
10
739.1465739130252
20
247.41962941880467
30
2.000000000002185
11
739.1359959448108
21
247.47152675032117
31
2.000000000002185
  0
LINE
 8
Group#46
10
731.2790584274621
20
150.70736139061162
30
2.0000000000019713
11
732.3886666838305
21
151.16697617932064
31
2.0000000000019997
  0
LINE
 8
Group#46
10
727.7886167217907
20
251.09358347877057
30
2.000000000001471
11
727.4057778076367
21
251.1262996804953
31
2.0000000000013616
  0
LINE
 8
Group#46
10
738.1801320050995
20
138.05608508723816
30
2.0000000000021942
11
738.0309412239613
21
138.5812865611112
31
2.000000000002178
  0
LINE
 8
Group#46
10
733.6009960699922
20
218.78150343121516
30
2.000000000001229
11
734.5233481751193
21
218.6697764349254
31
2.000000000001258
  0
LINE
 8
Group#46
10
734.960493404971
20
153.72177928181057
30
2.000000000001882
11
735.0562262054789
21
154.18591964948234
31
2.0000000000018954
  0
LINE
 8
Group#46
10
728.1691391183961
20
251.04030412322345
30
2.0000000000015348
11
727.7886167217907
21
251.09358347877057
31
2.000000000001471
  0
LINE
 8
Group#46
10
735.771766944759
20
250.04370317826968
30
2.0000000000019593
11
735.2862467652155
21
249.9325118978993
31
2.000000000001945
  0
LINE
 8
Group#46
10
740.8572404380977
20
221.88203450883552
30
2.0000000000015286
11
741.3120532038672
21
222.6921960208968
31
2.000000000001557
  0
LINE
 8
Group#46
10
734.5233481751193
20
218.6697764349254
30
2.000000000001258
11
735.45239089346
21
218.6795720987714
31
2.0000000000012497
  0
LINE
 8
Group#46
10
736.8240362770889
20
250.00087612601908
30
2.00000000000196
11
736.2998038990978
21
250.06902925717193
31
2.000000000001982
  0
LINE
 8
Group#46
10
693.9233202253517
20
232.1152662190291
30
2.0000000000019242
11
693.7414672103794
21
231.62762179197776
31
2.0000000000019327
  0
LINE
 8
Group#46
10
711.0588840629518
20
251.10086991537815
30
2.000000000001165
11
711.4457467547415
21
251.05053431688984
31
2.000000000001923
  0
LINE
 8
Group#46
10
693.5821073077042
20
230.60140210805523
30
2.0000000000019256
11
693.6075114875497
21
230.08157306506607
31
2.0000000000019185
  0
LINE
 8
Group#46
10
729.9987879822963
20
250.4729263016491
30
2.000000000001875
11
729.6461576673896
21
250.62552985683263
31
2.00000000000181
  0
LINE
 8
Group#46
10
726.2603607939524
20
251.10086991537815
30
2.0000000000011613
11
725.8734981021624
21
251.05053431688984
31
2.0000000000019194
  0
LINE
 8
Group#46
10
736.5242396921743
20
238.4290627044588
30
2.000000000001909
11
737.107110289932
21
237.02188860224342
31
2.0000000000019176
  0
LINE
 8
Group#46
10
738.0343235111192
20
235.81352080635867
30
2.0000000000019185
11
739.2426913070042
21
234.88630758517127
31
2.000000000001903
  0
LINE
 8
Group#46
10
738.0343235111192
20
244.0647722404489
30
2.000000000001899
11
738.6052021413656
21
244.92085727111916
31
2.00000000000192
  0
LINE
 8
Group#46
10
730.3426913070045
20
250.30155977253435
30
2.0000000000019185
11
729.9987879822963
21
250.4729263016491
31
2.000000000001875
  0
LINE
 8
Group#46
10
739.6511786174378
20
220.47367813573817
30
2.000000000001413
11
740.3004306824098
21
221.13827431663444
31
2.0000000000014784
  0
LINE
 8
Group#46
10
728.9188295471093
20
250.87273327930876
30
2.0000000000016733
11
728.546241314467
21
250.96661614751298
31
2.000000000001593
  0
LINE
 8
Group#46
10
739.0409939342353
20
247.93762295496018
30
2.000000000002192
11
738.8457551954131
21
248.42889301336305
31
2.000000000002198
  0
LINE
 8
Group#46
10
738.5669725818201
20
248.87805299575044
30
2.0000000000021845
11
738.2133775762825
21
249.2710351931576
31
2.0000000000021765
  0
LINE
 8
Group#46
10
737.7960447887933
20
249.59553138713602
30
2.0000000000021765
11
737.3280450992754
21
249.8413783436579
31
2.000000000002191
  0
LINE
 8
Group#46
10
739.1359959448108
20
247.47152675032117
30
2.000000000002185
11
739.0409939342353
21
247.93762295496018
31
2.000000000002192
  0
LINE
 8
Group#46
10
738.1213065118318
20
219.42604073215531
30
2.0000000000013363
11
738.9206252048278
21
219.89965022800538
31
2.0000000000014
  0
LINE
 8
Group#46
10
736.3254333858438
20
239.93914652340374
30
2.0000000000019376
11
736.5242396921743
21
238.4290627044588
31
2.000000000001909
  0
LINE
 8
Group#46
10
710.6816493243134
20
251.1297229742026
30
2.0000000000012155
11
711.0588840629518
21
251.10086991537815
31
2.000000000001165
  0
LINE
 8
Group#46
10
698.1600564943628
20
246.89113598357264
30
2.000000000002593
11
698.1726709438792
21
247.41962941880467
31
2.0000000000025855
  0
LINE
 8
Group#46
10
741.1518691053792
20
234.1661056532955
30
2.000000000001911
11
741.6307689100918
21
233.96233474434354
31
2.0000000000018967
  0
LINE
 8
Group#46
10
729.6461576673896
20
250.62552985683263
30
2.00000000000181
11
729.2858231459162
21
250.7589278203865
31
2.000000000001759
  0
LINE
 8
Group#46
10
727.0217327778441
20
251.13835783696544
30
2.000000000001334
11
726.6375955325908
21
251.1297229742026
31
2.0000000000012115
  0
LINE
 8
Group#46
10
698.1832489120935
20
247.47152675032117
30
2.0000000000025855
11
698.2782509226689
21
247.93762295496018
31
2.0000000000025926
  0
LINE
 8
Group#46
10
706.9765535498998
20
250.30155977253435
30
2.0000000000019176
11
707.3204568746078
21
250.4729263016491
31
2.0000000000018727
  0
LINE
 8
Group#46
10
737.107110289932
20
237.02188860224342
30
2.0000000000019176
11
738.0343235111192
21
235.81352080635867
31
2.0000000000019185
  0
LINE
 8
Group#46
10
743.6922120866705
20
231.11990891524798
30
2.000000000001927
11
743.7371375492
21
230.60140210805523
31
2.000000000001898
  0
LINE
 8
Group#46
10
740.3004306824098
20
221.13827431663444
30
2.0000000000014784
11
740.8572404380977
21
221.88203450883552
31
2.0000000000015286
  0
LINE
 8
Group#46
10
726.6375955325908
20
251.1297229742026
30
2.0000000000012115
11
726.2603607939524
21
251.10086991537815
31
2.0000000000011613
  0
LINE
 8
Group#46
10
740.6498654092195
20
234.30343698741368
30
2.000000000001904
11
741.1518691053792
21
234.1661056532955
31
2.000000000001911
  0
LINE
 8
Group#46
10
736.2998038990978
20
250.06902925717193
30
2.000000000001982
11
735.771766944759
21
250.04370317826968
31
2.0000000000019593
  0
LINE
 8
Group#46
10
703.718248786912
20
218.78150343121516
30
2.000000000001165
11
702.7958966817849
21
218.6697764349254
31
2.000000000001207
  0
LINE
 8
Group#46
10
741.6570645354154
20
223.55485673556703
30
2.000000000001621
11
743.6164636116965
21
229.5699176345617
31
2.0000000000019056
  0
LINE
 8
Group#46
10
743.1499749966603
20
232.57393427262028
30
2.0000000000019114
11
743.3959246315527
21
232.1152662190291
31
2.000000000001897
  0
LINE
 8
Group#46
10
743.3959246315527
20
232.1152662190291
30
2.000000000001897
11
743.5777776465249
21
231.62762179197784
31
2.0000000000019043
  0
LINE
 8
Group#46
10
699.5232000681109
20
249.59553138713602
30
2.000000000002584
11
699.9911997576289
21
249.8413783436579
31
2.000000000002533
  0
LINE
 8
Group#46
10
698.0765535499002
20
234.88630758517127
30
2.000000000001929
11
696.6693794476847
21
234.30343698741368
31
2.0000000000019145
  0
LINE
 8
Group#46
10
727.4057778076367
20
251.1262996804953
30
2.0000000000013616
11
727.0217327778441
21
251.13835783696544
31
2.000000000001334
  0
LINE
 8
Group#46
10
738.9206252048278
20
219.89965022800538
30
2.0000000000014
11
739.6511786174378
21
220.47367813573817
31
2.000000000001413
  0
LINE
 8
Group#46
10
738.8457551954131
20
248.42889301336305
30
2.000000000002198
11
738.5669725818201
21
248.87805299575044
31
2.0000000000021845
  0
LINE
 8
Group#46
10
695.6884759468126
20
233.96233474434354
30
2.000000000001923
11
695.2414282171067
21
233.6958465951632
31
2.000000000001915
  0
LINE
 8
Group#46
10
741.6307689100918
20
233.96233474434354
30
2.0000000000018967
11
742.0778166397974
21
233.6958465951632
31
2.0000000000019185
  0
LINE
 8
Group#46
10
731.7498654092195
20
249.71868917477659
30
2.00000000000194
11
730.3426913070045
21
250.30155977253435
31
2.0000000000019185
  0
LINE
 8
Group#46
10
736.6596224284522
20
218.8911164650262
30
2.0000000000014087
11
737.2669385963293
21
219.06097663847882
31
2.0000000000013074
  0
LINE
 8
Group#46
10
704.0592956287396
20
249.5198828684462
30
2.000000000001975
11
705.5693794476846
21
249.71868917477659
31
2.00000000000194
  0
LINE
 8
Group#46
10
708.0334217109879
20
250.7589278203865
30
2.0000000000017577
11
708.4004153097948
21
250.87273327930876
31
2.000000000001671
  0
LINE
 8
Group#46
10
709.9134670492675
20
251.1262996804953
30
2.0000000000013602
11
710.29751207906
21
251.13835783696544
31
2.0000000000013314
  0
LINE
 8
Group#46
10
743.7371375492
20
230.60140210805523
30
2.000000000001898
11
743.7117333693546
21
230.08157306506607
31
2.0000000000019043
  0
LINE
 8
Group#46
10
711.4457467547415
20
251.05053431688984
30
2.000000000001923
11
718.6596224284519
21
250.7392177627413
31
2.0000000000027587
  0
LINE
 8
Group#46
10
734.7700330471096
20
249.71868917477664
30
2.0000000000019678
11
733.2599492281645
21
249.5198828684462
31
2.000000000001976
  0
LINE
 8
Group#46
10
697.6680662394664
20
220.47367813573817
30
2.0000000000013602
11
697.0188141744945
21
221.13827431663444
31
2.0000000000014166
  0
LINE
 8
Group#46
10
701.0194409578063
20
250.06902925717193
30
2.0000000000023075
11
701.5474779121452
21
250.04370317826968
31
2.000000000002013
  0
LINE
 8
Group#46
10
734.7700330471096
20
249.71868917477664
30
2.0000000000019678
11
735.2862467652155
21
249.9325118978993
31
2.000000000001945
  0
LINE
 8
Group#46
10
699.1058672806217
20
249.27103519315753
30
2.0000000000025904
11
699.5232000681109
21
249.59553138713602
31
2.000000000002584
  0
LINE
 8
Group#46
10
733.2599492281645
20
249.5198828684462
30
2.000000000001976
11
731.7498654092195
21
249.71868917477659
31
2.00000000000194
  0
LINE
 8
Group#46
10
725.8734981021624
20
251.05053431688984
30
2.0000000000019194
11
718.6596224284519
21
250.7392177627413
31
2.0000000000027587
  0
LINE
 8
Group#46
10
742.4848459608278
20
233.37150921201047
30
2.0000000000019185
11
742.8444215658817
21
232.99524734769403
31
2.000000000001911
  0
LINE
 8
Group#46
10
739.2426913070042
20
234.88630758517127
30
2.000000000001903
11
740.6498654092195
21
234.30343698741368
31
2.000000000001904
  0
LINE
 8
Group#46
10
708.7730035424372
20
250.96661614751298
30
2.000000000001591
11
709.150105738508
21
251.04030412322345
31
2.0000000000015334
  0
LINE
 8
Group#46
10
698.3335490545387
20
245.87689522232637
30
2.0000000000019655
11
698.1600564943628
21
246.89113598357264
31
2.000000000002593
  0
LINE
 8
Group#46
10
695.2414282171067
20
233.6958465951632
30
2.000000000001915
11
694.8343988960766
21
233.37150921201047
31
2.0000000000019162
  0
LINE
 8
Group#46
10
698.2782509226689
20
247.93762295496018
30
2.0000000000025926
11
698.473489661491
21
248.42889301336305
31
2.0000000000025913
  0
LINE
 8
Group#46
10
701.5474779121452
20
250.04370317826968
30
2.000000000002013
11
702.0329980916888
21
249.9325118978993
31
2.000000000001998
  0
LINE
 8
Group#46
10
694.8343988960766
20
233.37150921201047
30
2.0000000000019162
11
694.4748232910227
21
232.99524734769403
31
2.000000000001909
  0
LINE
 8
Group#46
10
709.150105738508
20
251.04030412322345
30
2.0000000000015334
11
709.5306281351135
21
251.09358347877057
31
2.0000000000014686
  0
LINE
 8
Group#46
10
694.4748232910227
20
232.99524734769403
30
2.000000000001909
11
694.169269860244
21
232.5739342726202
31
2.0000000000019242
  0
LINE
 8
Group#46
10
700.2121345669722
20
237.02188860224342
30
2.000000000001971
11
699.2849213457852
21
235.81352080635867
31
2.0000000000019855
  0
LINE
 8
Group#46
10
715.282064588387
20
215.1595321238988
30
2.0000000000018354
11
716.9687615263476
21
215.28533071336722
31
2.0000000000018563
  0
LINE
 8
Group#46
10
700.9938114710603
20
239.93914652340374
30
2.0000000000019904
11
700.79500516473
21
238.4290627044588
31
2.000000000001962
  0
LINE
 8
Group#46
10
699.9911997576289
20
249.8413783436579
30
2.000000000002533
11
700.4952085798154
21
250.00087612601908
31
2.0000000000023075
  0
LINE
 8
Group#46
10
693.7414672103794
20
231.62762179197776
30
2.0000000000019327
11
693.6270327702338
21
231.11990891524798
31
2.0000000000019247
  0
LINE
 8
Group#46
10
698.7140427155387
20
244.92085727111916
30
2.000000000001965
11
698.3335490545387
21
245.87689522232637
31
2.0000000000019655
  0
LINE
 8
Group#46
10
700.79500516473
20
241.44923034234878
30
2.000000000001982
11
700.9938114710603
21
239.93914652340374
31
2.0000000000019904
  0
LINE
 8
Group#46
10
698.7522722750841
20
248.87805299575032
30
2.000000000002599
11
699.1058672806217
21
249.27103519315753
31
2.0000000000025904
  0
LINE
 8
Group#46
10
709.5306281351135
20
251.09358347877057
30
2.0000000000014686
11
709.9134670492675
21
251.1262996804953
31
2.0000000000013602
  0
LINE
 8
Group#46
10
700.9470627133259
20
218.81072233223594
30
2.0000000000012235
11
700.659622428452
21
218.89111646502616
31
2.0000000000012954
  0
LINE
 8
Group#46
10
701.8668539634441
20
218.6795720987714
30
2.0000000000012017
11
700.9470627133259
21
218.81072233223594
31
2.0000000000012235
  0
LINE
 8
Group#46
10
698.473489661491
20
248.42889301336305
30
2.0000000000025913
11
698.7522722750841
21
248.87805299575032
31
2.000000000002599
  0
LINE
 8
Group#46
10
702.7958966817849
20
218.6697764349254
30
2.000000000001207
11
701.8668539634441
21
218.6795720987714
31
2.0000000000012017
  0
LINE
 8
Group#46
10
702.5492118097947
20
249.71868917477659
30
2.00000000000202
11
702.0329980916888
21
249.9325118978993
31
2.000000000001998
  0
LINE
 8
Group#46
10
696.0071916530371
20
222.69219602089674
30
2.0000000000015317
11
695.6621803214888
21
223.55485673556706
31
2.000000000001576
  0
LINE
 8
Group#46
10
700.2121345669722
20
242.85640444456416
30
2.000000000001974
11
700.79500516473
21
241.44923034234878
31
2.000000000001982
  0
LINE
 8
Group#46
10
698.3986196520764
20
219.89965022800538
30
2.000000000001346
11
697.6680662394664
21
220.47367813573817
31
2.0000000000013602
  0
LINE
 8
Group#46
10
723.7586419420448
20
163.0441251187999
30
2.0000000000019806
11
725.4239374395688
21
163.4345609198652
31
2.000000000001922
  0
LINE
 8
Group#46
10
716.6596224284522
20
221.1791962735072
30
2.0000000000015055
11
718.6596224284522
21
221.25853250539532
31
2.000000000001137
  0
LINE
 8
Group#46
10
698.1726709438792
20
247.41962941880467
30
2.0000000000025855
11
698.1832489120935
21
247.47152675032117
31
2.0000000000025855
  0
LINE
 8
Group#46
10
699.2849213457849
20
244.06477224044883
30
2.0000000000019953
11
698.7140427155387
21
244.92085727111916
31
2.000000000001965
  0
LINE
 8
Group#46
10
728.0263932689447
20
165.39078561506616
30
2.0000000000019775
11
728.2507157546194
21
165.8109919547281
31
2.0000000000019638
  0
LINE
 8
Group#46
10
709.5837182222347
20
213.24171586695826
30
2.0000000000014992
11
709.3091470117798
21
212.86431037193626
31
2.0000000000014992
  0
LINE
 8
Group#46
10
709.0794338968788
20
212.45803935140196
30
2.0000000000014624
11
708.8975796505632
21
212.02820997783564
31
2.000000000001442
  0
LINE
 8
Group#46
10
708.8975796505632
20
212.02820997783564
30
2.000000000001442
11
708.7659598590859
21
211.58043716962268
31
2.00000000000142
  0
LINE
 8
Group#46
10
695.6621803214888
20
223.55485673556706
30
2.000000000001576
11
693.7027812452076
21
229.5699176345617
31
2.0000000000019176
  0
LINE
 8
Group#46
10
725.4239374395688
20
163.4345609198652
30
2.000000000001922
11
725.876437189218
21
163.5833490982893
31
2.0000000000019362
  0
LINE
 8
Group#46
10
704.6180830062119
20
219.0128358874532
30
2.0000000000011635
11
704.659622428452
21
219.0246697787927
31
2.0000000000013376
  0
LINE
 8
Group#46
10
696.6693794476847
20
234.30343698741368
30
2.0000000000019145
11
696.167375751525
21
234.1661056532955
31
2.0000000000019087
  0
LINE
 8
Group#46
10
696.167375751525
20
234.1661056532955
30
2.0000000000019087
11
695.6884759468126
21
233.96233474434354
31
2.000000000001923
  0
LINE
 8
Group#46
10
728.2398109600254
20
212.45803935140196
30
2.0000000000014495
11
728.4216652063411
21
212.02820997783564
31
2.000000000001444
  0
LINE
 8
Group#46
10
723.7155595324914
20
214.9502120534339
30
2.0000000000017466
11
725.3814878959868
21
214.65788597977843
31
2.000000000001653
  0
LINE
 8
Group#46
10
700.4952085798154
20
250.00087612601908
30
2.0000000000023075
11
701.0194409578063
21
250.06902925717193
31
2.0000000000023075
  0
LINE
 8
Group#46
10
704.6180830062119
20
219.0128358874532
30
2.0000000000011635
11
703.718248786912
21
218.78150343121516
31
2.000000000001165
  0
LINE
 8
Group#46
10
710.6380710561452
20
214.15370423535762
30
2.0000000000015907
11
710.2525487556097
21
213.89065136410676
31
2.000000000001549
  0
LINE
 8
Group#46
10
696.4620044188065
20
221.88203450883543
30
2.0000000000014753
11
696.0071916530371
21
222.69219602089674
31
2.0000000000015317
  0
LINE
 8
Group#46
10
708.4004153097948
20
250.87273327930876
30
2.000000000001671
11
708.7730035424372
21
250.96661614751298
31
2.000000000001591
  0
LINE
 8
Group#46
10
693.6270327702338
20
231.11990891524798
30
2.0000000000019247
11
693.5821073077042
21
230.60140210805523
31
2.0000000000019256
  0
LINE
 8
Group#46
10
702.5492118097947
20
249.71868917477659
30
2.00000000000202
11
704.0592956287396
21
249.5198828684462
31
2.000000000001975
  0
LINE
 8
Group#46
10
705.5693794476846
20
249.71868917477659
30
2.00000000000194
11
706.9765535498998
21
250.30155977253435
31
2.0000000000019176
  0
LINE
 8
Group#46
10
707.3204568746078
20
250.4729263016491
30
2.0000000000018727
11
707.6730871895145
21
250.62552985683263
31
2.0000000000018083
  0
LINE
 8
Group#46
10
711.9377569609173
20
214.65788597977843
30
2.0000000000016565
11
713.6036853244128
21
214.9502120534339
31
2.0000000000017493
  0
LINE
 8
Group#46
10
700.052306260575
20
219.06097663847876
30
2.0000000000012594
11
699.1979383450724
21
219.42604073215531
31
2.0000000000012883
  0
LINE
 8
Group#46
10
728.4280097773926
20
166.25310141511116
30
2.0000000000019185
11
728.5561722700663
21
166.7118696800805
31
2.0000000000019194
  0
LINE
 8
Group#46
10
697.0188141744945
20
221.13827431663444
30
2.0000000000014166
11
696.4620044188065
21
221.88203450883543
31
2.0000000000014753
  0
LINE
 8
Group#46
10
700.79500516473
20
238.4290627044588
30
2.000000000001962
11
700.2121345669722
21
237.02188860224342
31
2.000000000001971
  0
LINE
 8
Group#46
10
710.29751207906
20
251.13835783696544
30
2.0000000000013314
11
710.6816493243134
21
251.1297229742026
31
2.0000000000012155
  0
LINE
 8
Group#46
10
708.659622428452
20
220.1130336032873
30
2.0000000000012563
11
711.5496297659004
21
220.69356346644113
31
2.0000000000011315
  0
LINE
 8
Group#46
10
708.6862938893224
20
211.12057024262634
30
2.0000000000014357
11
708.659622428452
21
210.654616499795
31
2.0000000000014357
  0
LINE
 8
Group#46
10
712.659622428452
20
220.82621433552686
30
2.000000000001262
11
715.0934204685051
21
221.11706799256808
31
2.0000000000011315
  0
LINE
 8
Group#46
10
708.0505207378193
20
219.99068037721474
30
2.0000000000011333
11
708.659622428452
21
220.1130336032873
31
2.0000000000012563
  0
LINE
 8
Group#46
10
728.6329509675818
20
211.12057024262634
30
2.000000000001436
11
728.659622428452
21
210.654616499795
31
2.0000000000014375
  0
LINE
 8
Group#46
10
707.6730871895145
20
250.62552985683263
30
2.0000000000018083
11
708.0334217109879
21
250.7589278203865
31
2.0000000000017577
  0
LINE
 8
Group#46
10
699.2849213457849
20
244.06477224044883
30
2.0000000000019953
11
700.2121345669722
21
242.85640444456416
31
2.000000000001974
  0
LINE
 8
Group#46
10
699.1979383450724
20
219.42604073215531
30
2.0000000000012883
11
698.3986196520764
21
219.89965022800538
31
2.000000000001346
  0
LINE
 8
Group#46
10
713.6036853244128
20
214.9502120534339
30
2.0000000000017493
11
715.282064588387
21
215.1595321238988
31
2.0000000000018354
  0
LINE
 8
Group#46
10
699.2849213457852
20
235.81352080635867
30
2.0000000000019855
11
698.0765535499002
21
234.88630758517127
31
2.000000000001929
  0
LINE
 8
Group#46
10
726.6811738007591
20
214.15370423535762
30
2.0000000000015574
11
727.0666961012945
21
213.89065136410676
31
2.000000000001552
  0
LINE
 8
Group#46
10
694.169269860244
20
232.5739342726202
30
2.0000000000019242
11
693.9233202253517
21
232.1152662190291
31
2.0000000000019242
  0
LINE
 8
Group#46
10
711.9377569609173
20
214.65788597977843
30
2.0000000000016565
11
711.4862148666082
21
214.53984363843279
31
2.0000000000016134
  0
LINE
 8
Group#46
10
693.6075114875497
20
230.08157306506607
30
2.0000000000019185
11
693.7027812452076
21
229.5699176345617
31
2.0000000000019176
  0
LINE
 8
Group#46
10
700.659622428452
20
218.89111646502616
30
2.0000000000012954
11
700.052306260575
21
219.06097663847876
31
2.0000000000012594
  0
LINE
 8
Group#46
10
687.1899005699742
20
269.6813337883052
30
2.0000000000019025
11
687.6557748511585
21
269.74266730098475
31
2.0000000000018887
  0
LINE
 8
Group#46
10
702.1943405183928
20
116.30890257439042
30
2.0000000000020286
11
702.3541811944002
21
115.92301304655443
31
2.0000000000020286
  0
LINE
 8
Group#46
10
674.7829826450228
20
246.57808572705002
30
2.0000000000019136
11
674.4969291243466
21
246.9508779331859
31
2.0000000000019282
  0
LINE
 8
Group#46
10
704.8711926903537
20
115.59164219665595
30
2.000000000002013
11
705.1254624865104
21
115.92301304655443
31
2.0000000000020273
  0
LINE
 8
Group#46
10
691.5949757461335
20
137.8833682109149
30
2.0000000000028257
11
692.0090862182975
21
137.8288495329774
31
2.0000000000028266
  0
LINE
 8
Group#46
10
704.8711926903537
20
117.85438389645294
30
2.0000000000020255
11
704.5398218404554
21
118.10865369260955
31
2.0000000000020117
  0
LINE
 8
Group#46
10
674.3171083638384
20
248.3167522143703
30
2.0000000000019185
11
674.4969291243466
21
248.75087793318585
31
2.00000000000197
  0
LINE
 8
Group#46
10
692.9806163921887
20
214.0229899443572
30
2.0000000000019145
11
693.1404570681962
21
213.63710041652124
31
2.000000000001921
  0
LINE
 8
Group#46
10
674.2557748511587
20
247.85087793318579
30
2.0000000000019127
11
674.3171083638384
21
248.3167522143703
31
2.0000000000019185
  0
LINE
 8
Group#46
10
674.4969291243466
20
248.75087793318585
30
2.00000000000197
11
674.782982645023
21
249.12367013932155
31
2.0000000000019917
  0
LINE
 8
Group#46
10
677.7944413384789
20
247.38500365200107
30
2.000000000001977
11
677.6146205779706
21
246.95087793318575
31
2.000000000001963
  0
LINE
 8
Group#46
10
677.3285670572945
20
249.12367013932155
30
2.0000000000019913
11
677.6146205779706
21
248.75087793318585
31
2.000000000001969
  0
LINE
 8
Group#46
10
693.1404570681962
20
212.8088794721931
30
2.000000000001951
11
692.9806163921887
21
212.4229899443572
31
2.000000000001951
  0
LINE
 8
Group#46
10
675.1557748511585
20
249.40972365999784
30
2.0000000000019758
11
675.589900569974
21
249.5895444205062
31
2.000000000001976
  0
LINE
 8
Group#46
10
676.9557748511586
20
246.29203220637393
30
2.0000000000019194
11
676.5216491323432
21
246.11221144586546
31
2.0000000000019207
  0
LINE
 8
Group#46
10
676.9557748511586
20
249.40972365999784
30
2.000000000001976
11
677.3285670572945
21
249.12367013932155
31
2.0000000000019913
  0
LINE
 8
Group#46
10
705.2853031625178
20
117.13712351871852
30
2.000000000002013
11
705.1254624865104
21
117.52301304655447
31
2.000000000001999
  0
LINE
 8
Group#46
10
702.6084509905568
20
115.59164219665595
30
2.0000000000020135
11
702.9398218404552
21
115.33737240049935
31
2.0000000000020135
  0
LINE
 8
Group#46
10
704.5398218404554
20
118.10865369260955
30
2.0000000000020117
11
704.1539323126193
21
118.268494368617
31
2.0000000000020117
  0
LINE
 8
Group#46
10
702.1398218404553
20
116.72301304655447
30
2.0000000000019997
11
702.1943405183928
21
116.30890257439042
31
2.0000000000020286
  0
LINE
 8
Group#46
10
675.589900569974
20
249.5895444205062
30
2.000000000001976
11
676.0557748511587
21
249.65087793318582
31
2.0000000000019833
  0
LINE
 8
Group#46
10
702.6084509905568
20
117.85438389645294
30
2.0000000000020264
11
702.3541811944002
21
117.52301304655447
31
2.0000000000019997
  0
LINE
 8
Group#46
10
704.1539323126193
20
115.177531724492
30
2.0000000000020144
11
704.5398218404554
21
115.33737240049935
31
2.0000000000020144
  0
LINE
 8
Group#46
10
677.3285670572945
20
246.57808572705002
30
2.0000000000019127
11
676.9557748511586
21
246.29203220637393
31
2.0000000000019194
  0
LINE
 8
Group#46
10
677.6146205779706
20
246.95087793318575
30
2.000000000001963
11
677.3285670572945
21
246.57808572705002
31
2.0000000000019127
  0
LINE
 8
Group#46
10
693.1949757461335
20
213.2229899443571
30
2.000000000001915
11
693.1404570681962
21
212.8088794721931
31
2.000000000001951
  0
LINE
 8
Group#46
10
676.5216491323432
20
246.11221144586546
30
2.0000000000019207
11
676.0557748511587
21
246.05087793318583
31
2.0000000000019282
  0
LINE
 8
Group#46
10
705.2853031625178
20
116.30890257439042
30
2.0000000000020277
11
705.3398218404553
21
116.72301304655447
31
2.000000000001999
  0
LINE
 8
Group#46
10
674.4969291243466
20
246.9508779331859
30
2.0000000000019282
11
674.3171083638384
21
247.38500365200122
31
2.0000000000019056
  0
LINE
 8
Group#46
10
703.7398218404554
20
115.12301304655443
30
2.0000000000020135
11
704.1539323126193
21
115.177531724492
31
2.0000000000020144
  0
LINE
 8
Group#46
10
705.3398218404553
20
116.72301304655447
30
2.000000000001999
11
705.2853031625178
21
117.13712351871852
31
2.000000000002013
  0
LINE
 8
Group#46
10
686.3829826450228
20
269.21545950712056
30
2.0000000000018967
11
686.7557748511585
21
269.50151302779676
31
2.0000000000018967
  0
LINE
 8
Group#46
10
702.1943405183928
20
117.13712351871852
30
2.0000000000020135
11
702.1398218404553
21
116.72301304655447
31
2.0000000000019997
  0
LINE
 8
Group#46
10
676.5216491323432
20
249.5895444205062
30
2.000000000001976
11
676.9557748511586
21
249.40972365999784
31
2.000000000001976
  0
LINE
 8
Group#46
10
692.9806163921887
20
212.4229899443572
30
2.000000000001951
11
692.7263465960322
21
212.09161909445876
31
2.000000000001959
  0
LINE
 8
Group#46
10
692.7263465960322
20
214.35436079425563
30
2.0000000000019145
11
692.9806163921887
21
214.0229899443572
31
2.0000000000019145
  0
LINE
 8
Group#46
10
705.1254624865104
20
117.52301304655447
30
2.000000000001999
11
704.8711926903537
21
117.85438389645294
31
2.0000000000020255
  0
LINE
 8
Group#46
10
702.9398218404552
20
118.10865369260955
30
2.000000000002013
11
702.6084509905568
21
117.85438389645294
31
2.0000000000020264
  0
LINE
 8
Group#46
10
731.5212827408442
20
255.8202729919514
30
2.0000000000019003
11
731.4599492281645
21
255.35439871076682
31
2.000000000001908
  0
LINE
 8
Group#46
10
704.5398218404554
20
115.33737240049935
30
2.0000000000020144
11
704.8711926903537
21
115.59164219665595
31
2.000000000002013
  0
LINE
 8
Group#46
10
692.0090862182977
20
211.67750862229462
30
2.0000000000019447
11
691.5949757461336
21
211.6229899443571
31
2.0000000000019376
  0
LINE
 8
Group#46
10
686.7557748511585
20
269.50151302779676
30
2.0000000000018967
11
687.1899005699742
21
269.6813337883052
31
2.0000000000019025
  0
LINE
 8
Group#46
10
692.7263465960322
20
212.09161909445876
30
2.000000000001959
11
692.3949757461337
21
211.83734929830206
31
2.0000000000019447
  0
LINE
 8
Group#46
10
677.8557748511587
20
247.85087793318579
30
2.000000000001963
11
677.7944413384789
21
247.38500365200107
31
2.000000000001977
  0
LINE
 8
Group#46
10
702.3541811944002
20
117.52301304655447
30
2.0000000000019997
11
702.1943405183928
21
117.13712351871852
31
2.0000000000020135
  0
LINE
 8
Group#46
10
676.0557748511587
20
246.05087793318583
30
2.0000000000019282
11
675.589900569974
21
246.11221144586546
31
2.0000000000019207
  0
LINE
 8
Group#46
10
674.782982645023
20
249.12367013932155
30
2.0000000000019917
11
675.1557748511585
21
249.40972365999784
31
2.0000000000019758
  0
LINE
 8
Group#46
10
703.3257113682912
20
118.268494368617
30
2.000000000002013
11
702.9398218404552
21
118.10865369260955
31
2.000000000002013
  0
LINE
 8
Group#46
10
693.1404570681962
20
213.63710041652124
30
2.000000000001921
11
693.1949757461335
21
213.2229899443571
31
2.000000000001915
  0
LINE
 8
Group#46
10
705.1254624865104
20
115.92301304655443
30
2.0000000000020273
11
705.2853031625178
21
116.30890257439042
31
2.0000000000020277
  0
LINE
 8
Group#46
10
702.3541811944002
20
115.92301304655443
30
2.0000000000020286
11
702.6084509905568
21
115.59164219665595
31
2.0000000000020135
  0
LINE
 8
Group#46
10
675.589900569974
20
246.11221144586546
30
2.0000000000019207
11
675.1557748511588
21
246.2920322063738
31
2.0000000000019207
  0
LINE
 8
Group#46
10
692.3949757461337
20
211.83734929830206
30
2.0000000000019447
11
692.0090862182977
21
211.67750862229462
31
2.0000000000019447
  0
LINE
 8
Group#46
10
702.9398218404552
20
115.33737240049935
30
2.0000000000020135
11
703.3257113682912
21
115.177531724492
31
2.0000000000020135
  0
LINE
 8
Group#46
10
686.0969291243467
20
268.8426673009848
30
2.000000000001903
11
686.3829826450228
21
269.21545950712056
31
2.0000000000018967
  0
LINE
 8
Group#46
10
692.3949757461337
20
214.60863059041222
30
2.0000000000019282
11
692.7263465960322
21
214.35436079425563
31
2.0000000000019145
  0
LINE
 8
Group#46
10
703.7398218404554
20
118.32301304655446
30
2.000000000002013
11
703.3257113682912
21
118.268494368617
31
2.000000000002013
  0
LINE
 8
Group#46
10
676.0557748511587
20
249.65087793318582
30
2.0000000000019833
11
676.5216491323432
21
249.5895444205062
31
2.000000000001976
  0
LINE
 8
Group#46
10
674.3171083638384
20
247.38500365200122
30
2.0000000000019056
11
674.2557748511587
21
247.85087793318579
31
2.0000000000019127
  0
LINE
 8
Group#46
10
677.7944413384791
20
248.31675221437035
30
2.000000000001969
11
677.8557748511587
21
247.85087793318579
31
2.000000000001963
  0
LINE
 8
Group#46
10
703.3257113682912
20
115.177531724492
30
2.0000000000020135
11
703.7398218404554
21
115.12301304655443
31
2.0000000000020135
  0
LINE
 8
Group#46
10
704.1539323126193
20
118.268494368617
30
2.0000000000020117
11
703.7398218404554
21
118.32301304655446
31
2.000000000002013
  0
LINE
 8
Group#46
10
692.0090862182977
20
214.76847126641957
30
2.0000000000019145
11
692.3949757461337
21
214.60863059041222
31
2.0000000000019282
  0
LINE
 8
Group#46
10
675.1557748511588
20
246.2920322063738
30
2.0000000000019207
11
674.7829826450228
21
246.57808572705002
31
2.0000000000019136
  0
LINE
 8
Group#46
10
688.5557748511586
20
266.3838215741728
30
2.000000000001898
11
688.1216491323431
21
266.2040008136645
31
2.000000000001898
  0
LINE
 8
Group#46
10
676.5216491323432
20
99.91681373476598
30
2.0000000000020166
11
676.0557748511587
21
99.8554802220864
31
2.0000000000020024
  0
LINE
 8
Group#46
10
687.1899005699742
20
79.82502436696701
30
2.0000000000020837
11
686.7557748511587
21
80.00484512747538
31
2.0000000000020983
  0
LINE
 8
Group#46
10
675.5899005699741
20
99.91681373476598
30
2.000000000002017
11
675.1557748511588
21
100.09663449527432
31
2.0000000000020024
  0
LINE
 8
Group#46
10
686.0969291243467
20
267.0426673009849
30
2.0000000000019127
11
685.9171083638383
21
267.4767930198003
31
2.000000000001898
  0
LINE
 8
Group#46
10
686.7557748511587
20
80.00484512747538
30
2.0000000000020983
11
686.382982645023
21
80.2908986481514
31
2.0000000000020695
  0
LINE
 8
Group#46
10
689.394441338479
20
81.09781657310273
30
2.0000000000028186
11
689.2146205779707
21
80.66369085428727
31
2.0000000000020384
  0
LINE
 8
Group#46
10
689.2146205779709
20
82.46369085428726
30
2.000000000002818
11
689.3944413384792
21
82.02956513547167
31
2.0000000000028026
  0
LINE
 8
Group#46
10
688.9285670572945
20
266.66987509484903
30
2.0000000000019043
11
688.5557748511586
21
266.3838215741728
31
2.000000000001898
  0
LINE
 8
Group#46
10
675.1557748511588
20
100.09663449527432
30
2.0000000000020024
11
674.782982645023
21
100.38268801595078
31
2.0000000000020024
  0
LINE
 8
Group#46
10
687.6557748511585
20
266.1426673009848
30
2.0000000000019127
11
687.1899005699742
21
266.2040008136645
31
2.000000000001897
  0
LINE
 8
Group#46
10
689.2146205779707
20
80.66369085428727
30
2.0000000000020384
11
688.9285670572943
21
80.2908986481514
31
2.0000000000020397
  0
LINE
 8
Group#46
10
686.7557748511587
20
266.3838215741728
30
2.000000000001897
11
686.3829826450229
21
266.66987509484915
31
2.000000000001891
  0
LINE
 8
Group#46
10
688.9285670572943
20
80.2908986481514
30
2.0000000000020397
11
688.5557748511586
21
80.00484512747529
31
2.00000000000201
  0
LINE
 8
Group#46
10
674.782982645023
20
100.38268801595078
30
2.0000000000020024
11
674.4969291243467
21
100.75548022208633
31
2.0000000000019877
  0
LINE
 8
Group#46
10
689.4557748511586
20
267.9426673009848
30
2.000000000001904
11
689.3944413384789
21
267.4767930198003
31
2.000000000001896
  0
LINE
 8
Group#46
10
688.5557748511586
20
269.5015130277969
30
2.0000000000018887
11
688.9285670572946
21
269.21545950712067
31
2.000000000001903
  0
LINE
 8
Group#46
10
674.3171083638384
20
102.12135450327087
30
2.000000000002
11
674.4969291243467
21
102.5554802220861
31
2.000000000002001
  0
LINE
 8
Group#46
10
688.1216491323431
20
266.2040008136645
30
2.000000000001898
11
687.6557748511585
21
266.1426673009848
31
2.0000000000019127
  0
LINE
 8
Group#46
10
677.7944413384791
20
102.12135450327065
30
2.000000000002029
11
677.8557748511587
21
101.65548022208631
31
2.0000000000020286
  0
LINE
 8
Group#46
10
676.0557748511587
20
103.45548022208622
30
2.000000000001986
11
676.5216491323432
21
103.39414670940654
31
2.0000000000020277
  0
LINE
 8
Group#46
10
674.7829826450228
20
102.92827242822216
30
2.000000000001986
11
675.1557748511588
21
103.21432594889818
31
2.0000000000020153
  0
LINE
 8
Group#46
10
686.382982645023
20
80.2908986481514
30
2.0000000000020695
11
686.0969291243468
21
80.66369085428714
31
2.000000000002068
  0
LINE
 8
Group#46
10
686.3829826450229
20
266.66987509484915
30
2.000000000001891
11
686.0969291243467
21
267.0426673009849
31
2.0000000000019127
  0
LINE
 8
Group#46
10
685.8557748511588
20
81.56369085428739
30
2.0000000000020397
11
685.9171083638383
21
82.02956513547186
31
2.000000000002025
  0
LINE
 8
Group#46
10
687.6557748511588
20
83.36369085428733
30
2.000000000002832
11
688.1216491323432
21
83.30235734160762
31
2.0000000000028018
  0
LINE
 8
Group#46
10
688.1216491323432
20
79.82502436696697
30
2.0000000000020255
11
687.6557748511588
21
79.76369085428733
31
2.0000000000020544
  0
LINE
 8
Group#46
10
674.4969291243467
20
102.5554802220861
30
2.000000000002001
11
674.7829826450228
21
102.92827242822216
31
2.000000000001986
  0
LINE
 8
Group#46
10
675.1557748511588
20
103.21432594889818
30
2.0000000000020153
11
675.5899005699742
21
103.39414670940654
31
2.000000000002029
  0
LINE
 8
Group#46
10
688.9285670572946
20
269.21545950712067
30
2.000000000001903
11
689.2146205779707
21
268.8426673009849
31
2.0000000000018954
  0
LINE
 8
Group#46
10
677.8557748511587
20
101.65548022208631
30
2.0000000000020286
11
677.7944413384791
21
101.1896059409018
31
2.0000000000020157
  0
LINE
 8
Group#46
10
685.9171083638383
20
81.09781657310278
30
2.0000000000020255
11
685.8557748511588
21
81.56369085428739
31
2.0000000000020397
  0
LINE
 8
Group#46
10
677.3285670572943
20
100.38268801595055
30
2.0000000000020015
11
676.9557748511587
21
100.0966344952744
31
2.0000000000020015
  0
LINE
 8
Group#46
10
686.0969291243467
20
82.46369085428735
30
2.000000000002053
11
686.3829826450228
21
82.83648306042309
31
2.000000000002833
  0
LINE
 8
Group#46
10
674.3171083638384
20
101.1896059409018
30
2.0000000000020166
11
674.2557748511588
21
101.65548022208623
31
2.0000000000019877
  0
LINE
 8
Group#46
10
676.0557748511587
20
99.8554802220864
30
2.0000000000020024
11
675.5899005699741
21
99.91681373476598
31
2.000000000002017
  0
LINE
 8
Group#46
10
686.7557748511585
20
83.12253658109938
30
2.0000000000028315
11
687.1899005699742
21
83.3023573416077
31
2.000000000002847
  0
LINE
 8
Group#46
10
689.2146205779707
20
268.8426673009849
30
2.0000000000018954
11
689.3944413384789
21
268.40854158216945
31
2.0000000000018967
  0
LINE
 8
Group#46
10
689.2146205779707
20
267.0426673009849
30
2.0000000000019122
11
688.9285670572945
21
266.66987509484903
31
2.0000000000019043
  0
LINE
 8
Group#46
10
677.6146205779706
20
100.75548022208633
30
2.000000000001987
11
677.3285670572943
21
100.38268801595055
31
2.0000000000020015
  0
LINE
 8
Group#46
10
686.3829826450228
20
82.83648306042309
30
2.000000000002833
11
686.7557748511585
21
83.12253658109938
31
2.0000000000028315
  0
LINE
 8
Group#46
10
688.5557748511586
20
80.00484512747529
30
2.00000000000201
11
688.1216491323432
21
79.82502436696697
31
2.0000000000020255
  0
LINE
 8
Group#46
10
685.9171083638383
20
82.02956513547186
30
2.000000000002025
11
686.0969291243467
21
82.46369085428735
31
2.000000000002053
  0
LINE
 8
Group#46
10
687.6557748511588
20
79.76369085428733
30
2.0000000000020544
11
687.1899005699742
21
79.82502436696701
31
2.0000000000020837
  0
LINE
 8
Group#46
10
685.9171083638383
20
267.4767930198003
30
2.000000000001898
11
685.8557748511588
21
267.9426673009848
31
2.0000000000019043
  0
LINE
 8
Group#46
10
687.1899005699742
20
266.2040008136645
30
2.000000000001897
11
686.7557748511587
21
266.3838215741728
31
2.000000000001897
  0
LINE
 8
Group#46
10
687.1899005699742
20
83.3023573416077
30
2.000000000002847
11
687.6557748511588
21
83.36369085428733
31
2.000000000002832
  0
LINE
 8
Group#46
10
689.3944413384789
20
268.40854158216945
30
2.0000000000018967
11
689.4557748511586
21
267.9426673009848
31
2.000000000001904
  0
LINE
 8
Group#46
10
689.3944413384792
20
82.02956513547167
30
2.0000000000028026
11
689.4557748511588
21
81.56369085428739
31
2.0000000000028026
  0
LINE
 8
Group#46
10
685.9171083638383
20
268.40854158216945
30
2.000000000001897
11
686.0969291243467
21
268.8426673009848
31
2.000000000001903
  0
LINE
 8
Group#46
10
689.3944413384789
20
267.4767930198003
30
2.000000000001896
11
689.2146205779707
21
267.0426673009849
31
2.0000000000019122
  0
LINE
 8
Group#46
10
688.5557748511587
20
83.12253658109924
30
2.000000000002817
11
688.9285670572946
21
82.83648306042309
31
2.000000000002832
  0
LINE
 8
Group#46
10
677.7944413384791
20
101.1896059409018
30
2.0000000000020157
11
677.6146205779706
21
100.75548022208633
31
2.000000000001987
  0
LINE
 8
Group#46
10
674.2557748511588
20
101.65548022208623
30
2.0000000000019877
11
674.3171083638384
21
102.12135450327087
31
2.000000000002
  0
LINE
 8
Group#46
10
687.6557748511585
20
269.74266730098475
30
2.0000000000018887
11
688.1216491323431
21
269.6813337883052
31
2.000000000001903
  0
LINE
 8
Group#46
10
677.6146205779706
20
248.75087793318585
30
2.000000000001969
11
677.7944413384791
21
248.31675221437035
31
2.000000000001969
  0
LINE
 8
Group#46
10
689.4557748511588
20
81.56369085428739
30
2.0000000000028026
11
689.394441338479
21
81.09781657310273
31
2.0000000000028186
  0
LINE
 8
Group#46
10
674.4969291243467
20
100.75548022208633
30
2.0000000000019877
11
674.3171083638384
21
101.1896059409018
31
2.0000000000020166
  0
LINE
 8
Group#46
10
688.1216491323432
20
83.30235734160762
30
2.0000000000028018
11
688.5557748511587
21
83.12253658109924
31
2.000000000002817
  0
LINE
 8
Group#46
10
685.8557748511588
20
267.9426673009848
30
2.0000000000019043
11
685.9171083638383
21
268.40854158216945
31
2.000000000001897
  0
LINE
 8
Group#46
10
676.9557748511587
20
100.0966344952744
30
2.0000000000020015
11
676.5216491323432
21
99.91681373476598
31
2.0000000000020166
  0
LINE
 8
Group#46
10
688.9285670572946
20
82.83648306042309
30
2.000000000002832
11
689.2146205779709
21
82.46369085428726
31
2.000000000002818
  0
LINE
 8
Group#46
10
695.416193706544
20
79.70310579458281
30
2.000000000002847
11
701.0741170333831
21
81.46508834789667
31
2.0000000000020925
  0
LINE
 8
Group#46
10
702.6596224135508
20
167.56901793231074
30
2.0000000000018248
11
703.0667281764804
21
167.62261441943974
31
2.0000000000018527
  0
LINE
 8
Group#46
10
733.6596224456586
20
211.3010687498139
30
2.0000000000014286
11
733.2454088818841
21
210.98323151048902
31
2.000000000001436
  0
LINE
 8
Group#46
10
730.4564448009021
20
266.77326832700913
30
2.000000000001916
11
724.5800447141472
21
266.0086763371473
31
2.0000000000019535
  0
LINE
 8
Group#46
10
674.6668548797596
20
113.59784928321515
30
2.000000000001993
11
679.6495614186521
21
125.2244448241846
31
2.000000000001971
  0
LINE
 8
Group#46
10
757.6696834382522
20
125.2244448241846
30
2.0000000000019367
11
753.7518122264069
21
137.25172105338171
31
2.0000000000019593
  0
LINE
 8
Group#46
10
684.6596224284522
20
74.75317907763586
30
2.000000000002072
11
668.659622428452
21
102.46599199873788
31
2.0000000000020446
  0
LINE
 8
Group#46
10
686.3887734728678
20
149.5823789505576
30
2.0000000000019553
11
688.0907596841002
21
162.11666517925002
31
2.0000000000019327
  0
LINE
 8
Group#46
10
735.1772605306517
20
167.63716628294648
30
2.0000000000019313
11
734.6596224433532
21
167.56901793231074
31
2.000000000001903
  0
LINE
 8
Group#46
10
688.0907596841002
20
187.38969297602208
30
2.000000000001989
11
686.3887734728678
21
199.9239792047144
31
2.0000000000027187
  0
LINE
 8
Group#46
10
736.2451278235211
20
268.0412698073756
30
2.000000000001892
11
730.4564448009021
21
266.77326832700913
31
2.000000000001916
  0
LINE
 8
Group#46
10
733.245408881884
20
168.15480435413266
30
2.000000000001917
11
732.9275716333009
21
168.56901791080278
31
2.000000000001887
  0
LINE
 8
Group#46
10
700.659622428452
20
169.5690179323108
30
2.000000000001838
11
700.7277707752312
21
169.0513798445046
31
2.0000000000018527
  0
LINE
 8
Group#46
10
688.0907596841002
20
162.11666517925002
30
2.0000000000019327
11
688.6596224284522
21
174.753179077636
31
2.0000000000019234
  0
LINE
 8
Group#46
10
674.6668548797596
20
235.90850887205693
30
2.0000000000019127
11
668.6596224284519
21
247.04036615653425
31
2.0000000000019007
  0
LINE
 8
Group#46
10
700.7277707752312
20
210.08665602011698
30
2.0000000000014455
11
700.9275716183996
21
210.56901792800926
31
2.0000000000014375
  0
LINE
 8
Group#46
10
702.6079353838672
20
145.59112658996642
30
2.0000000000019953
11
702.9394572514686
21
145.33674091385072
31
2.000000000002011
  0
LINE
 8
Group#46
10
684.6596224284522
20
74.75317907763586
30
2.000000000002072
11
689.9311004235554
21
77.46024365715978
31
2.000000000002128
  0
LINE
 8
Group#46
10
704.0738359750201
20
210.98323151048902
30
2.000000000001437
11
704.3916732236032
21
210.5690179538189
31
2.000000000001437
  0
LINE
 8
Group#46
10
703.7398218404554
20
145.12228386858132
30
2.0000000000020095
11
704.154121037766
21
145.17682739265567
31
2.0000000000020095
  0
LINE
 8
Group#46
10
732.9275716333009
20
168.56901791080278
30
2.000000000001887
11
732.7277707829446
21
169.0513798157178
31
2.0000000000019025
  0
LINE
 8
Group#46
10
734.2525166804237
20
167.62261441943974
30
2.000000000001932
11
734.1419843550394
21
167.63716627523308
31
2.000000000001917
  0
LINE
 8
Group#46
10
704.154121037766
20
145.17682739265567
30
2.0000000000020095
11
704.540186429442
21
145.33674091385072
31
2.0000000000020095
  0
LINE
 8
Group#46
10
753.7518122264069
20
137.25172105338171
30
2.0000000000019593
11
750.9304713840363
21
149.5823789505576
31
2.000000000001894
  0
LINE
 8
Group#46
10
732.6596224284522
20
209.56901796211326
30
2.0000000000014215
11
732.6596224284522
21
169.56901790250845
31
2.0000000000018874
  0
LINE
 8
Group#46
10
704.5914740739596
20
169.05137981571778
30
2.0000000000018234
11
704.659622428452
21
169.56901790250845
31
2.0000000000018225
  0
LINE
 8
Group#46
10
741.9030511503603
20
269.80325236068927
30
2.0000000000018967
11
736.2451278235211
21
268.0412698073756
31
2.000000000001892
  0
LINE
 8
Group#46
10
703.3255226431446
20
145.17682739265567
30
2.000000000002011
11
703.7398218404554
21
145.12228386858132
31
2.0000000000020095
  0
LINE
 8
Group#46
10
704.5914740739596
20
210.0866560489039
30
2.0000000000014286
11
704.659622428452
21
209.56901796211326
31
2.0000000000014375
  0
LINE
 8
Group#46
10
752.659622428452
20
74.75317907763586
30
2.0000000000019975
11
747.3881444333487
21
77.46024365715974
31
2.000000000002012
  0
LINE
 8
Group#46
10
736.659622428452
20
169.5690179323108
30
2.0000000000019007
11
736.591474081673
21
169.0513798445046
31
2.0000000000019016
  0
LINE
 8
Group#46
10
747.388144433349
20
272.0461144981123
30
2.0000000000019367
11
741.9030511503603
21
269.80325236068927
31
2.0000000000018967
  0
LINE
 8
Group#46
10
734.1419843550394
20
211.50086958938846
30
2.0000000000014206
11
733.9031303110152
21
211.40193300753216
31
2.000000000001435
  0
LINE
 8
Group#46
10
702.1936361865564
20
147.13731224386538
30
2.000000000001995
11
702.1390926624821
21
146.72301304655454
31
2.000000000001996
  0
LINE
 8
Group#46
10
732.7277707829446
20
169.0513798157178
30
2.0000000000019025
11
732.6596224284522
21
169.56901790250845
31
2.0000000000018874
  0
LINE
 8
Group#46
10
749.228485172804
20
162.11666517925002
30
2.0000000000019877
11
748.6596224284519
21
174.753179077636
31
2.000000000001952
  0
LINE
 8
Group#46
10
733.9031303110152
20
211.40193300753216
30
2.000000000001435
11
733.6596224456586
21
211.3010687498139
31
2.0000000000014286
  0
LINE
 8
Group#46
10
734.1419843550394
20
167.63716627523308
30
2.000000000001917
11
733.6596224456583
21
167.83696711480775
31
2.000000000001932
  0
LINE
 8
Group#46
10
703.0667281764804
20
167.62261441943974
30
2.0000000000018527
11
703.1772605018648
21
167.63716627523308
31
2.000000000001838
  0
LINE
 8
Group#46
10
735.6596224370553
20
167.836967129709
30
2.0000000000019025
11
735.1772605306517
21
167.63716628294648
31
2.0000000000019313
  0
LINE
 8
Group#46
10
724.5800447141472
20
266.0086763371473
30
2.0000000000019535
11
718.6596224284519
21
265.75317907763616
31
2.000000000001905
  0
LINE
 8
Group#46
10
736.591474081673
20
169.0513798445046
30
2.0000000000019016
11
736.3916732385045
21
168.56901793661234
31
2.0000000000018727
  0
LINE
 8
Group#46
10
752.6596224284523
20
274.75317907763616
30
2.0000000000019558
11
747.388144433349
21
272.0461144981123
31
2.0000000000019367
  0
LINE
 8
Group#46
10
702.3535497077514
20
147.52337763554118
30
2.000000000001981
11
702.1936361865564
21
147.13731224386538
31
2.000000000001995
  0
LINE
 8
Group#46
10
695.4161937065438
20
269.8032523606892
30
2.000000000001923
11
701.074117033383
21
268.0412698073756
31
2.0000000000019087
  0
LINE
 8
Group#46
10
736.3916732385045
20
168.56901793661234
30
2.0000000000018727
11
736.0738359960936
21
168.15480437520597
31
2.0000000000019162
  0
LINE
 8
Group#46
10
703.1772605018648
20
211.50086958938843
30
2.0000000000014495
11
703.4161145458891
21
211.40193300753216
31
2.000000000001436
  0
LINE
 8
Group#46
10
741.9030511503602
20
79.70310579458281
30
2.0000000000024305
11
736.2451278235211
21
81.46508834789667
31
2.0000000000020255
  0
LINE
 8
Group#46
10
704.659622428452
20
209.56901796211326
30
2.0000000000014375
11
704.659622428452
21
169.56901790250845
31
2.0000000000018225
  0
LINE
 8
Group#46
10
712.7392001427569
20
266.0086763371473
30
2.0000000000019207
11
718.6596224284519
21
265.75317907763616
31
2.000000000001905
  0
LINE
 8
Group#46
10
734.6596224433532
20
167.56901793231074
30
2.000000000001903
11
734.2525166804237
21
167.62261441943974
31
2.000000000001932
  0
LINE
 8
Group#46
10
705.2860074943542
20
146.30871384924382
30
2.0000000000019953
11
705.3405510184286
21
146.72301304655454
31
2.000000000001994
  0
LINE
 8
Group#46
10
748.6596224284519
20
174.753179077636
30
2.000000000001952
11
749.228485172804
21
187.38969297602208
31
2.000000000001916
  0
LINE
 8
Group#46
10
735.1772605306518
20
211.50086958167512
30
2.0000000000014135
11
734.6596224433533
21
211.56901793231094
31
2.0000000000014286
  0
LINE
 8
Group#46
10
700.659622428452
20
209.5690179323109
30
2.0000000000014384
11
700.7277707752312
21
210.08665602011698
31
2.0000000000014455
  0
LINE
 8
Group#46
10
688.6596224284522
20
174.753179077636
30
2.0000000000019234
11
688.0907596841002
21
187.38969297602208
31
2.000000000001989
  0
LINE
 8
Group#46
10
702.6079353838672
20
147.8548995031426
30
2.000000000001994
11
702.3535497077514
21
147.52337763554118
31
2.000000000001981
  0
LINE
 8
Group#46
10
704.0738359750201
20
168.15480435413266
30
2.0000000000018368
11
704.3916732236032
21
168.56901791080278
31
2.0000000000018376
  0
LINE
 8
Group#46
10
749.228485172804
20
187.38969297602208
30
2.000000000001916
11
750.9304713840363
21
199.9239792047144
31
2.0000000000022977
  0
LINE
 8
Group#46
10
735.6596224370553
20
211.30106873491275
30
2.0000000000014357
11
735.1772605306518
21
211.50086958167512
31
2.0000000000014135
  0
LINE
 8
Group#46
10
668.6596224284519
20
247.04036615653425
30
2.0000000000019007
11
684.6596224284519
21
274.75317907763616
31
2.000000000001923
  0
LINE
 8
Group#46
10
732.7277707829446
20
210.0866560489039
30
2.00000000000143
11
732.6596224284522
21
209.56901796211326
31
2.0000000000014215
  0
LINE
 8
Group#46
10
750.9304713840363
20
149.5823789505576
30
2.000000000001894
11
749.228485172804
21
162.11666517925002
31
2.0000000000019877
  0
LINE
 8
Group#46
10
684.6596224284519
20
274.75317907763616
30
2.000000000001923
11
689.9311004235554
21
272.04611449811216
31
2.000000000001916
  0
LINE
 8
Group#46
10
705.1260939731592
20
147.52337763554118
30
2.0000000000019806
11
704.8717082970435
21
147.8548995031426
31
2.000000000001995
  0
LINE
 8
Group#46
10
668.659622428452
20
102.46599199873788
30
2.0000000000020446
11
674.6668548797596
21
113.59784928321515
31
2.000000000001993
  0
LINE
 8
Group#46
10
704.8717082970435
20
145.59112658996642
30
2.000000000001996
11
705.1260939731592
21
145.92264845756793
31
2.0000000000019953
  0
LINE
 8
Group#46
10
712.739200142757
20
83.49768181812514
30
2.0000000000020015
11
718.6596224284522
21
83.75317907763626
31
2.0000000000020157
  0
LINE
 8
Group#46
10
689.9311004235554
20
77.46024365715978
30
2.000000000002128
11
695.416193706544
21
79.70310579458281
31
2.000000000002847
  0
LINE
 8
Group#46
10
730.4564448009019
20
82.73308982826318
30
2.0000000000019975
11
724.580044714147
21
83.49768181812514
31
2.0000000000020144
  0
LINE
 8
Group#46
10
706.8628000560024
20
82.73308982826318
30
2.0000000000019904
11
712.739200142757
21
83.49768181812514
31
2.0000000000020015
  0
LINE
 8
Group#46
10
679.6495614186521
20
125.2244448241846
30
2.000000000001971
11
683.5674326304973
21
137.25172105338171
31
2.0000000000020206
  0
LINE
 8
Group#46
10
705.3405510184286
20
146.72301304655454
30
2.000000000001994
11
705.2860074943542
21
147.13731224386538
31
2.000000000001995
  0
LINE
 8
Group#46
10
702.3535497077514
20
145.92264845756793
30
2.0000000000019953
11
702.6079353838672
21
145.59112658996642
31
2.0000000000019953
  0
LINE
 8
Group#46
10
706.8628000560021
20
266.77326832700913
30
2.000000000001915
11
712.7392001427569
21
266.0086763371473
31
2.0000000000019207
  0
LINE
 8
Group#46
10
704.8717082970435
20
147.8548995031426
30
2.000000000001995
11
704.540186429442
21
148.10928517925836
31
2.0000000000020086
  0
LINE
 8
Group#46
10
689.9311004235554
20
272.04611449811216
30
2.000000000001916
11
695.4161937065438
21
269.8032523606892
31
2.000000000001923
  0
LINE
 8
Group#46
10
768.6596224284523
20
102.46599199873788
30
2.000000000002395
11
762.6523899771447
21
113.59784928321515
31
2.000000000001986
  0
LINE
 8
Group#46
10
704.540186429442
20
148.10928517925836
30
2.0000000000020086
11
704.154121037766
21
148.2691987004535
31
2.000000000001995
  0
LINE
 8
Group#46
10
701.0741170333831
20
81.46508834789667
30
2.0000000000020925
11
706.8628000560024
21
82.73308982826318
31
2.0000000000019904
  0
LINE
 8
Group#46
10
683.5674326304973
20
212.25463710189038
30
2.0000000000019313
11
679.6495614186521
21
224.28191333108745
31
2.0000000000019247
  0
LINE
 8
Group#46
10
704.540186429442
20
145.33674091385072
30
2.0000000000020095
11
704.8717082970435
21
145.59112658996642
31
2.000000000001996
  0
LINE
 8
Group#46
10
701.074117033383
20
268.0412698073756
30
2.0000000000019087
11
706.8628000560021
21
266.77326832700913
31
2.000000000001915
  0
LINE
 8
Group#46
10
705.1260939731592
20
145.92264845756793
30
2.0000000000019953
11
705.2860074943542
21
146.30871384924382
31
2.0000000000019953
  0
LINE
 8
Group#46
10
686.3887734728678
20
199.9239792047144
30
2.0000000000027187
11
683.5674326304973
21
212.25463710189038
31
2.0000000000019313
  0
LINE
 8
Group#46
10
736.2451278235211
20
81.46508834789667
30
2.0000000000020255
11
730.4564448009019
21
82.73308982826318
31
2.0000000000019975
  0
LINE
 8
Group#46
10
747.3881444333487
20
77.46024365715974
30
2.000000000002012
11
741.9030511503602
21
79.70310579458281
31
2.0000000000024305
  0
LINE
 8
Group#46
10
762.6523899771447
20
113.59784928321515
30
2.000000000001986
11
757.6696834382522
21
125.2244448241846
31
2.0000000000019367
  0
LINE
 8
Group#46
10
705.2860074943542
20
147.13731224386538
30
2.000000000001995
11
705.1260939731592
21
147.52337763554118
31
2.0000000000019806
  0
LINE
 8
Group#46
10
753.751812226407
20
212.25463710189038
30
2.0000000000019282
11
757.6696834382523
21
224.28191333108745
31
2.000000000001927
  0
LINE
 8
Group#46
10
683.5674326304973
20
137.25172105338171
30
2.0000000000020206
11
686.3887734728678
21
149.5823789505576
31
2.0000000000019553
  0
LINE
 8
Group#46
10
702.1936361865564
20
146.30871384924382
30
2.000000000001996
11
702.3535497077514
21
145.92264845756793
31
2.0000000000019953
  0
LINE
 8
Group#46
10
679.6495614186521
20
224.28191333108745
30
2.0000000000019247
11
674.6668548797596
21
235.90850887205693
31
2.0000000000019127
  0
LINE
 8
Group#46
10
724.580044714147
20
83.49768181812514
30
2.0000000000020144
11
718.6596224284522
21
83.75317907763626
31
2.0000000000020157
  0
LINE
 8
Group#46
10
750.9304713840363
20
199.9239792047144
30
2.0000000000022977
11
753.751812226407
21
212.25463710189038
31
2.0000000000019282
  0
LINE
 8
Group#46
10
704.154121037766
20
148.2691987004535
30
2.000000000001995
11
703.7398218404554
21
148.32374222452785
31
2.0000000000019806
  0
LINE
 8
Group#46
10
702.9394572514686
20
145.33674091385072
30
2.000000000002011
11
703.3255226431446
21
145.17682739265567
31
2.000000000002011
  0
LINE
 8
Group#46
10
702.1390926624821
20
146.72301304655454
30
2.000000000001996
11
702.1936361865564
21
146.30871384924382
31
2.000000000001996
  0
LINE
 8
Group#46
10
752.659622428452
20
74.75317907763586
30
2.0000000000019975
11
768.6596224284523
21
102.46599199873788
31
2.000000000002395
  0
LINE
 8
Group#46
10
757.6696834382523
20
224.28191333108745
30
2.000000000001927
11
762.6523899771447
21
235.90850887205693
31
2.0000000000019114
  0
LINE
 8
Group#46
10
728.6336829651761
20
167.18185482624466
30
2.0000000000019176
11
728.659622428452
21
167.65748187521913
31
2.0000000000019043
  0
LINE
 8
Group#46
10
727.4478328791959
20
164.63570135865604
30
2.0000000000019065
11
727.7577032406532
21
164.99746689676263
31
2.000000000001948
  0
LINE
 8
Group#46
10
728.5532849978185
20
211.58043716962268
30
2.0000000000014215
11
728.6329509675818
21
211.12057024262634
31
2.000000000001436
  0
LINE
 8
Group#46
10
722.225824388399
20
221.11706799256808
30
2.0000000000011298
11
724.6596224284522
21
220.82621433552686
31
2.000000000001294
  0
LINE
 8
Group#46
10
709.0685291022847
20
165.8109919547281
30
2.000000000001911
11
708.8912350795115
21
166.25310141511116
31
2.0000000000018665
  0
LINE
 8
Group#46
10
726.3100722419665
20
163.78046476610663
30
2.0000000000019362
11
726.7196988053662
21
164.02356973115008
31
2.0000000000019362
  0
LINE
 8
Group#46
10
718.6596224284522
20
221.25853250539532
30
2.000000000001137
11
720.6596224284522
21
221.1791962735072
31
2.0000000000015055
  0
LINE
 8
Group#46
10
724.6596224284522
20
220.82621433552686
30
2.000000000001294
11
725.7696150910039
21
220.69356346644113
31
2.000000000001129
  0
LINE
 8
Group#46
10
708.659622428452
20
210.654616499795
30
2.0000000000014357
11
708.659622428452
21
204.4978350682144
31
2.0000000000014384
  0
LINE
 8
Group#46
10
709.2928515879594
20
165.39078561506616
30
2.000000000001882
11
709.0685291022847
21
165.8109919547281
31
2.000000000001911
  0
LINE
 8
Group#46
10
708.8912350795115
20
166.25310141511116
30
2.0000000000018665
11
708.7630725868379
21
166.71186968008044
31
2.0000000000018665
  0
LINE
 8
Group#46
10
728.4216652063411
20
212.02820997783564
30
2.000000000001444
11
728.5532849978185
21
211.58043716962268
31
2.0000000000014215
  0
LINE
 8
Group#46
10
711.0510915403524
20
214.37104805723578
30
2.0000000000015983
11
710.6380710561452
21
214.15370423535762
31
2.0000000000015907
  0
LINE
 8
Group#46
10
728.2507157546194
20
165.8109919547281
30
2.0000000000019638
11
728.4280097773926
21
166.25310141511116
31
2.0000000000019185
  0
LINE
 8
Group#46
10
711.4862148666082
20
214.53984363843279
30
2.0000000000016134
11
711.0510915403524
21
214.37104805723578
31
2.0000000000015983
  0
LINE
 8
Group#46
10
725.3814878959868
20
214.65788597977843
30
2.000000000001653
11
725.8330299902959
21
214.53984363843279
31
2.0000000000016085
  0
LINE
 8
Group#46
10
716.9687615263476
20
215.28533071336722
30
2.0000000000018563
11
718.6596224284522
21
215.327298026506
31
2.000000000001891
  0
LINE
 8
Group#46
10
711.5496297659004
20
220.69356346644113
30
2.0000000000011315
11
712.659622428452
21
220.82621433552686
31
2.000000000001262
  0
LINE
 8
Group#46
10
713.6036853244128
20
200.20223951457552
30
2.000000000001772
11
715.282064588387
21
199.9929194441105
31
2.0000000000018305
  0
LINE
 8
Group#46
10
709.0794338968788
20
202.69441221660742
30
2.0000000000014544
11
708.8975796505632
21
203.12424159017368
31
2.0000000000014406
  0
LINE
 8
Group#46
10
715.247966374522
20
162.76402912842775
30
2.0000000000019686
11
716.9500950839405
21
162.59548517154883
31
2.000000000001981
  0
LINE
 8
Group#46
10
727.7577032406532
20
164.99746689676263
30
2.000000000001948
11
728.0263932689447
21
165.39078561506616
31
2.0000000000019775
  0
LINE
 8
Group#46
10
720.3504833305566
20
215.28533071336722
30
2.000000000001856
11
722.0371802685173
21
215.1595321238988
31
2.0000000000018323
  0
LINE
 8
Group#46
10
708.6862938893224
20
204.03188132538307
30
2.0000000000014397
11
708.659622428452
21
204.4978350682144
31
2.0000000000014384
  0
LINE
 8
Group#46
10
725.3814878959868
20
200.494565588231
30
2.0000000000016542
11
725.8330299902959
21
200.61260792957643
31
2.0000000000016236
  0
LINE
 8
Group#46
10
716.9687615263476
20
199.86712085464222
30
2.000000000001872
11
718.6596224284522
21
199.8251535415032
31
2.0000000000019016
  0
LINE
 8
Group#46
10
728.659622428452
20
167.65748187521913
30
2.0000000000019043
11
728.659622428452
21
186.0392226867638
31
2.000000000001893
  0
LINE
 8
Group#46
10
720.3691497729637
20
162.59548517154883
30
2.0000000000019806
11
722.0712784823824
21
162.76402912842775
31
2.0000000000019664
  0
LINE
 8
Group#46
10
709.8995607679324
20
213.5853257381941
30
2.0000000000015334
11
709.5837182222347
21
213.24171586695826
31
2.0000000000014992
  0
LINE
 8
Group#46
10
708.6855618917282
20
167.18185482624466
30
2.0000000000018665
11
708.659622428452
21
167.65748187521913
31
2.0000000000018514
  0
LINE
 8
Group#46
10
715.0934204685051
20
221.11706799256808
30
2.0000000000011315
11
716.6596224284522
21
221.1791962735072
31
2.0000000000015055
  0
LINE
 8
Group#46
10
711.8953074173353
20
163.4345609198652
30
2.0000000000019114
11
711.4428076676863
21
163.5833490982893
31
2.0000000000019256
  0
LINE
 8
Group#46
10
711.0091726149376
20
163.78046476610663
30
2.0000000000019256
11
710.5995460515383
21
164.02356973115008
31
2.0000000000018967
  0
LINE
 8
Group#46
10
710.5995460515383
20
164.02356973115008
30
2.0000000000018967
11
710.2187869804907
21
164.30978027478244
31
2.0000000000019114
  0
LINE
 8
Group#46
10
711.9377569609173
20
200.494565588231
30
2.0000000000016427
11
713.6036853244128
21
200.20223951457552
31
2.000000000001772
  0
LINE
 8
Group#46
10
711.4862148666082
20
200.61260792957643
30
2.000000000001614
11
711.0510915403524
21
200.7814035107736
31
2.000000000001614
  0
LINE
 8
Group#46
10
726.7196988053662
20
164.02356973115008
30
2.0000000000019362
11
727.1004578764135
21
164.30978027478244
31
2.0000000000019065
  0
LINE
 8
Group#46
10
728.5561722700663
20
166.7118696800805
30
2.0000000000019194
11
728.6336829651761
21
167.18185482624466
31
2.0000000000019176
  0
LINE
 8
Group#46
10
727.0666961012945
20
213.89065136410676
30
2.000000000001552
11
727.4196840889717
21
213.5853257381941
31
2.000000000001508
  0
LINE
 8
Group#46
10
709.3091470117798
20
212.86431037193626
30
2.0000000000014992
11
709.0794338968788
21
212.45803935140196
31
2.0000000000014624
  0
LINE
 8
Group#46
10
727.7355266346696
20
213.24171586695832
30
2.000000000001472
11
728.0100978451244
21
212.86431037193626
31
2.0000000000014873
  0
LINE
 8
Group#46
10
725.8330299902959
20
214.53984363843279
30
2.0000000000016085
11
726.2681533165517
21
214.37104805723578
31
2.000000000001579
  0
LINE
 8
Group#46
10
725.876437189218
20
163.5833490982893
30
2.0000000000019362
11
726.3100722419665
21
163.78046476610663
31
2.0000000000019362
  0
LINE
 8
Group#46
10
728.0100978451244
20
212.86431037193626
30
2.0000000000014873
11
728.2398109600254
21
212.45803935140196
31
2.0000000000014495
  0
LINE
 8
Group#46
10
723.7155595324914
20
200.20223951457552
30
2.0000000000017706
11
725.3814878959868
21
200.494565588231
31
2.0000000000016542
  0
LINE
 8
Group#46
10
709.8995607679324
20
201.56712582981532
30
2.000000000001513
11
709.5837182222347
21
201.91073570105098
31
2.0000000000014984
  0
LINE
 8
Group#46
10
718.6596224284522
20
215.327298026506
30
2.000000000001891
11
720.3504833305566
21
215.28533071336722
31
2.000000000001856
  0
LINE
 8
Group#46
10
708.7630725868379
20
166.71186968008044
30
2.0000000000018665
11
708.6855618917282
21
167.18185482624466
31
2.0000000000018665
  0
LINE
 8
Group#46
10
722.0371802685173
20
215.1595321238988
30
2.0000000000018323
11
723.7155595324914
21
214.9502120534339
31
2.0000000000017466
  0
LINE
 8
Group#46
10
727.1004578764135
20
164.30978027478244
30
2.0000000000019065
11
727.4478328791959
21
164.63570135865604
31
2.0000000000019065
  0
LINE
 8
Group#46
10
709.5837182222347
20
201.91073570105098
30
2.0000000000014984
11
709.3091470117798
21
202.28814119607307
31
2.0000000000014984
  0
LINE
 8
Group#46
10
720.6596224284522
20
221.1791962735072
30
2.0000000000015055
11
722.225824388399
21
221.11706799256808
31
2.0000000000011298
  0
LINE
 8
Group#46
10
727.4196840889717
20
213.5853257381941
30
2.000000000001508
11
727.7355266346696
21
213.24171586695832
31
2.000000000001472
  0
LINE
 8
Group#46
10
708.7659598590859
20
203.57201439838667
30
2.0000000000014397
11
708.6862938893224
21
204.03188132538307
31
2.0000000000014397
  0
LINE
 8
Group#46
10
704.659622428452
20
219.0246697787927
30
2.0000000000013376
11
708.0505207378193
21
219.99068037721474
31
2.0000000000011333
  0
LINE
 8
Group#46
10
726.2681533165517
20
214.37104805723578
30
2.000000000001579
11
726.6811738007591
21
214.15370423535762
31
2.0000000000015574
  0
LINE
 8
Group#46
10
710.2525487556097
20
213.89065136410676
30
2.000000000001549
11
709.8995607679324
21
213.5853257381941
31
2.0000000000015334
  0
LINE
 8
Group#46
10
708.7659598590859
20
211.58043716962268
30
2.00000000000142
11
708.6862938893224
21
211.12057024262634
31
2.0000000000014357
  0
LINE
 8
Group#46
10
716.9500950839405
20
162.59548517154883
30
2.000000000001981
11
718.6596224284522
21
162.53922268676385
31
2.000000000001996
  0
LINE
 8
Group#46
10
728.2398109600252
20
202.69441221660742
30
2.0000000000014646
11
728.421665206341
21
203.12424159017368
31
2.000000000001434
  0
LINE
 8
Group#46
10
727.0666961012944
20
201.26180020390265
30
2.0000000000015365
11
727.4196840889717
21
201.56712582981532
31
2.000000000001523
  0
LINE
 8
Group#46
10
710.2187869804907
20
164.30978027478244
30
2.0000000000019114
11
709.8714119777082
21
164.63570135865604
31
2.0000000000018954
  0
LINE
 8
Group#46
10
713.5606029148593
20
163.0441251187999
30
2.000000000001982
11
715.247966374522
21
162.76402912842775
31
2.0000000000019686
  0
LINE
 8
Group#46
10
726.681173800759
20
200.99874733265165
30
2.0000000000015956
11
727.0666961012944
21
201.26180020390265
31
2.0000000000015365
  0
LINE
 8
Group#46
10
722.0371802685173
20
199.9929194441105
30
2.0000000000018283
11
723.7155595324914
21
200.20223951457552
31
2.0000000000017706
  0
LINE
 8
Group#46
10
711.4428076676863
20
163.5833490982893
30
2.0000000000019256
11
711.0091726149376
21
163.78046476610663
31
2.0000000000019256
  0
LINE
 8
Group#46
10
709.561541616251
20
164.99746689676263
30
2.0000000000018954
11
709.2928515879594
21
165.39078561506616
31
2.000000000001882
  0
LINE
 8
Group#46
10
708.8912350795115
20
187.44360314687196
30
2.0000000000019553
11
708.7630725868379
21
186.9848348819025
31
2.0000000000019558
  0
LINE
 8
Group#46
10
728.6329509675818
20
204.03188132538307
30
2.0000000000014477
11
728.659622428452
21
204.4978350682144
31
2.000000000001448
  0
LINE
 8
Group#46
10
709.8714119777082
20
189.06100320332706
30
2.0000000000019535
11
709.561541616251
21
188.6992376652203
31
2.0000000000019544
  0
LINE
 8
Group#46
10
710.2187869804907
20
189.38692428720057
30
2.000000000001896
11
709.8714119777082
21
189.06100320332706
31
2.0000000000019535
  0
LINE
 8
Group#46
10
728.4280097773926
20
187.44360314687196
30
2.0000000000018923
11
728.5561722700663
21
186.9848348819025
31
2.0000000000018923
  0
LINE
 8
Group#46
10
726.3100722419665
20
189.91623979587646
30
2.000000000001933
11
726.7196988053662
21
189.67313483083296
31
2.000000000001935
  0
LINE
 8
Group#46
10
718.6596224284522
20
199.8251535415032
30
2.0000000000019016
11
720.3504833305566
21
199.86712085464222
31
2.0000000000018714
  0
LINE
 8
Group#46
10
711.9377569609173
20
200.494565588231
30
2.0000000000016427
11
711.4862148666082
21
200.61260792957643
31
2.000000000001614
  0
LINE
 8
Group#46
10
712.2479262033327
20
163.35188790574463
30
2.0000000000019114
11
713.5606029148593
21
163.0441251187999
31
2.000000000001982
  0
LINE
 8
Group#46
10
709.8714119777082
20
164.63570135865604
30
2.0000000000018954
11
709.561541616251
21
164.99746689676263
31
2.0000000000018954
  0
LINE
 8
Group#46
10
700.659622428452
20
169.5690179323108
30
2.000000000001838
11
700.659622428452
21
209.5690179323109
31
2.0000000000014384
  0
LINE
 8
Group#46
10
718.6596224284522
20
191.15748187521928
30
2.000000000002007
11
720.3691497729637
21
191.10121939043407
31
2.0000000000019504
  0
LINE
 8
Group#46
10
728.5561722700663
20
186.9848348819025
30
2.0000000000018923
11
728.6336829651761
21
186.51484973573844
31
2.0000000000018785
  0
LINE
 8
Group#46
10
708.659622428452
20
186.0392226867638
30
2.0000000000019558
11
708.659622428452
21
167.65748187521913
31
2.0000000000018514
  0
LINE
 8
Group#46
10
723.7586419420448
20
190.6525794431832
30
2.0000000000019496
11
725.4239374395688
21
190.26214364211793
31
2.0000000000019496
  0
LINE
 8
Group#46
10
722.0712784823824
20
162.76402912842775
30
2.0000000000019664
11
723.7586419420448
21
163.0441251187999
31
2.0000000000019806
  0
LINE
 8
Group#46
10
728.0263932689447
20
188.3059189469168
30
2.000000000001905
11
728.2507157546194
21
187.88571260725485
31
2.0000000000019065
  0
LINE
 8
Group#46
10
711.0510915403524
20
200.7814035107736
30
2.000000000001614
11
710.6380710561452
21
200.99874733265165
31
2.000000000001586
  0
LINE
 8
Group#46
10
725.876437189218
20
190.11335546369372
30
2.00000000000192
11
726.3100722419665
21
189.91623979587646
31
2.000000000001933
  0
LINE
 8
Group#46
10
712.2479262033327
20
190.3448166562385
30
2.000000000001908
11
713.5606029148593
21
190.6525794431832
31
2.000000000001952
  0
LINE
 8
Group#46
10
726.2681533165517
20
200.7814035107736
30
2.0000000000016245
11
726.681173800759
21
200.99874733265165
31
2.0000000000015956
  0
LINE
 8
Group#46
10
720.3504833305566
20
199.86712085464222
30
2.0000000000018714
11
722.0371802685173
21
199.9929194441105
31
2.0000000000018283
  0
LINE
 8
Group#46
10
727.7355266346696
20
201.91073570105098
30
2.000000000001508
11
728.0100978451244
21
202.28814119607307
31
2.000000000001507
  0
LINE
 8
Group#46
10
709.3091470117798
20
202.28814119607307
30
2.0000000000014984
11
709.0794338968788
21
202.69441221660742
31
2.0000000000014544
  0
LINE
 8
Group#46
10
710.6380710561452
20
200.99874733265165
30
2.000000000001586
11
710.2525487556097
21
201.26180020390265
31
2.000000000001528
  0
LINE
 8
Group#46
10
715.282064588387
20
199.9929194441105
30
2.0000000000018305
11
716.9687615263476
21
199.86712085464222
31
2.000000000001872
  0
LINE
 8
Group#46
10
728.6336829651761
20
186.51484973573844
30
2.0000000000018785
11
728.659622428452
21
186.0392226867638
31
2.000000000001893
  0
LINE
 8
Group#46
10
728.0100978451244
20
202.28814119607307
30
2.000000000001507
11
728.2398109600252
21
202.69441221660742
31
2.0000000000014646
  0
LINE
 8
Group#46
10
708.7630725868379
20
186.9848348819025
30
2.0000000000019558
11
708.6855618917282
21
186.51484973573847
31
2.00000000000197
  0
LINE
 8
Group#46
10
716.9500950839405
20
191.10121939043407
30
2.000000000001951
11
718.6596224284522
21
191.15748187521928
31
2.000000000002007
  0
LINE
 8
Group#46
10
709.0685291022847
20
187.88571260725487
30
2.0000000000019553
11
708.8912350795115
21
187.44360314687196
31
2.0000000000019553
  0
LINE
 8
Group#46
10
709.561541616251
20
188.6992376652203
30
2.0000000000019544
11
709.2928515879594
21
188.30591894691676
31
2.0000000000019678
  0
LINE
 8
Group#46
10
725.8330299902959
20
200.61260792957643
30
2.0000000000016236
11
726.2681533165517
21
200.7814035107736
31
2.0000000000016245
  0
LINE
 8
Group#46
10
710.5995460515383
20
189.67313483083296
30
2.0000000000019247
11
710.2187869804907
21
189.38692428720057
31
2.000000000001896
  0
LINE
 8
Group#46
10
727.4478328791959
20
189.06100320332706
30
2.0000000000019056
11
727.7577032406532
21
188.69923766522032
31
2.000000000001892
  0
LINE
 8
Group#46
10
711.8953074173353
20
163.4345609198652
30
2.0000000000019114
11
712.2479262033327
21
163.35188790574463
31
2.0000000000019114
  0
LINE
 8
Group#46
10
728.421665206341
20
203.12424159017368
30
2.000000000001434
11
728.5532849978183
21
203.57201439838667
31
2.000000000001435
  0
LINE
 8
Group#46
10
711.4428076676863
20
190.11335546369372
30
2.000000000001909
11
711.0091726149376
21
189.91623979587646
31
2.0000000000019242
  0
LINE
 8
Group#46
10
728.659622428452
20
204.4978350682144
30
2.000000000001448
11
728.659622428452
21
210.654616499795
31
2.0000000000014375
  0
LINE
 8
Group#46
10
708.6855618917282
20
186.51484973573847
30
2.00000000000197
11
708.659622428452
21
186.0392226867638
31
2.0000000000019558
  0
LINE
 8
Group#46
10
711.8953074173353
20
190.26214364211793
30
2.0000000000019384
11
712.2479262033327
21
190.3448166562385
31
2.000000000001908
  0
LINE
 8
Group#46
10
713.5606029148593
20
190.6525794431832
30
2.000000000001952
11
715.247966374522
21
190.9326754335552
31
2.0000000000019655
  0
LINE
 8
Group#46
10
726.7196988053662
20
189.67313483083296
30
2.000000000001935
11
727.1004578764135
21
189.38692428720057
31
2.0000000000019056
  0
LINE
 8
Group#46
10
709.2928515879594
20
188.30591894691676
30
2.0000000000019678
11
709.0685291022847
21
187.88571260725487
31
2.0000000000019553
  0
LINE
 8
Group#46
10
728.2507157546194
20
187.88571260725485
30
2.0000000000019065
11
728.4280097773926
21
187.44360314687196
31
2.0000000000018923
  0
LINE
 8
Group#46
10
728.5532849978183
20
203.57201439838667
30
2.000000000001435
11
728.6329509675818
21
204.03188132538307
31
2.0000000000014477
  0
LINE
 8
Group#46
10
718.6596224284522
20
162.53922268676385
30
2.000000000001996
11
720.3691497729637
21
162.59548517154883
31
2.0000000000019806
  0
LINE
 8
Group#46
10
708.8975796505632
20
203.12424159017368
30
2.0000000000014406
11
708.7659598590859
21
203.57201439838667
31
2.0000000000014397
  0
LINE
 8
Group#46
10
711.0091726149376
20
189.91623979587646
30
2.0000000000019242
11
710.5995460515383
21
189.67313483083296
31
2.0000000000019247
  0
LINE
 8
Group#46
10
727.1004578764135
20
189.38692428720057
30
2.0000000000019056
11
727.4478328791959
21
189.06100320332706
31
2.0000000000019056
  0
LINE
 8
Group#46
10
727.7577032406532
20
188.69923766522032
30
2.000000000001892
11
728.0263932689447
21
188.3059189469168
31
2.000000000001905
  0
LINE
 8
Group#46
10
725.4239374395688
20
190.26214364211793
30
2.0000000000019496
11
725.876437189218
21
190.11335546369372
31
2.00000000000192
  0
LINE
 8
Group#46
10
710.2525487556097
20
201.26180020390265
30
2.000000000001528
11
709.8995607679324
21
201.56712582981532
31
2.000000000001513
  0
LINE
 8
Group#46
10
722.0712784823824
20
190.9326754335552
30
2.000000000001963
11
723.7586419420448
21
190.6525794431832
31
2.0000000000019496
  0
LINE
 8
Group#46
10
711.8953074173353
20
190.26214364211793
30
2.0000000000019384
11
711.4428076676863
21
190.11335546369372
31
2.000000000001909
  0
LINE
 8
Group#46
10
727.4196840889717
20
201.56712582981532
30
2.000000000001523
11
727.7355266346696
21
201.91073570105098
31
2.000000000001508
  0
LINE
 8
Group#46
10
720.3691497729637
20
191.10121939043407
30
2.0000000000019504
11
722.0712784823824
21
190.9326754335552
31
2.000000000001963
  0
LINE
 8
Group#46
10
715.247966374522
20
190.9326754335552
30
2.0000000000019655
11
716.9500950839405
21
191.10121939043407
31
2.000000000001951
 0
ENDSEC
 0
EOF
