  0
SECTION
  2
HEADER
  9
$ACADVER
  1
AC1014
  9
$ACADMAINTVER
 70
     9
  9
$DWGCODEPAGE
  3
ANSI_1252
  9
$INSBASE
 10
0.0
 20
0.0
 30
0.0
  9
$EXTMIN
 10
1.000000000000000E+20
 20
1.000000000000000E+20
 30
1.000000000000000E+20
  9
$EXTMAX
 10
-1.000000000000000E+20
 20
-1.000000000000000E+20
 30
-1.000000000000000E+20
  9
$LIMMIN
 10
0.0
 20
0.0
  9
$LIMMAX
 10
12.0
 20
9.0
  9
$ORTHOMODE
 70
     0
  9
$REGENMODE
 70
     1
  9
$FILLMODE
 70
     1
  9
$QTEXTMODE
 70
     0
  9
$MIRRTEXT
 70
     1
  9
$DRAGMODE
 70
     2
  9
$LTSCALE
 40
1.0
  9
$OSMODE
 70
    37
  9
$ATTMODE
 70
     1
  9
$TEXTSIZE
 40
0.2
  9
$TRACEWID
 40
0.05
  9
$TEXTSTYLE
  7
STANDARD
  9
$CLAYER
  8
0
  9
$CELTYPE
  6
BYLAYER
  9
$CECOLOR
 62
    18
  9
$CELTSCALE
 40
1.0
  9
$DELOBJ
 70
     1
  9
$DISPSILH
 70
     0
  9
$DIMSCALE
 40
1.0
  9
$DIMASZ
 40
0.18
  9
$DIMEXO
 40
0.0625
  9
$DIMDLI
 40
0.38
  9
$DIMRND
 40
0.0
  9
$DIMDLE
 40
0.0
  9
$DIMEXE
 40
0.18
  9
$DIMTP
 40
0.0
  9
$DIMTM
 40
0.0
  9
$DIMTXT
 40
0.18
  9
$DIMCEN
 40
0.09
  9
$DIMTSZ
 40
0.0
  9
$DIMTOL
 70
     0
  9
$DIMLIM
 70
     0
  9
$DIMTIH
 70
     1
  9
$DIMTOH
 70
     1
  9
$DIMSE1
 70
     0
  9
$DIMSE2
 70
     0
  9
$DIMTAD
 70
     0
  9
$DIMZIN
 70
     0
  9
$DIMBLK
  1

  9
$DIMASO
 70
     1
  9
$DIMSHO
 70
     1
  9
$DIMPOST
  1

  9
$DIMAPOST
  1

  9
$DIMALT
 70
     0
  9
$DIMALTD
 70
     2
  9
$DIMALTF
 40
25.4
  9
$DIMLFAC
 40
1.0
  9
$DIMTOFL
 70
     0
  9
$DIMTVP
 40
0.0
  9
$DIMTIX
 70
     0
  9
$DIMSOXD
 70
     0
  9
$DIMSAH
 70
     0
  9
$DIMBLK1
  1

  9
$DIMBLK2
  1

  9
$DIMSTYLE
  2
STANDARD
  9
$DIMCLRD
 70
    18
  9
$DIMCLRE
 70
    18
  9
$DIMCLRT
 70
    18
  9
$DIMTFAC
 40
1.0
  9
$DIMGAP
 40
0.09
  9
$DIMJUST
 70
     0
  9
$DIMSD1
 70
     0
  9
$DIMSD2
 70
     0
  9
$DIMTOLJ
 70
     1
  9
$DIMTZIN
 70
     0
  9
$DIMALTZ
 70
     0
  9
$DIMALTTZ
 70
     0
  9
$DIMFIT
 70
     3
  9
$DIMUPT
 70
     0
  9
$DIMUNIT
 70
     2
  9
$DIMDEC
 70
     4
  9
$DIMTDEC
 70
     4
  9
$DIMALTU
 70
     2
  9
$DIMALTTD
 70
     2
  9
$DIMTXSTY
  7
STANDARD
  9
$DIMAUNIT
 70
     0
  9
$LUNITS
 70
     2
  9
$LUPREC
 70
     4
  9
$SKETCHINC
 40
0.1
  9
$FILLETRAD
 40
0.5
  9
$AUNITS
 70
     0
  9
$AUPREC
 70
     0
  9
$MENU
  1
.
  9
$ELEVATION
 40
0.0
  9
$PELEVATION
 40
0.0
  9
$THICKNESS
 40
0.0
  9
$LIMCHECK
 70
     0
  9
$CHAMFERA
 40
0.0
  9
$CHAMFERB
 40
0.0
  9
$CHAMFERC
 40
0.0
  9
$CHAMFERD
 40
0.0
  9
$SKPOLY
 70
     0
  9
$TDCREATE
 40
2458366.529078657
  9
$TDUPDATE
 40
2458366.529078681
  9
$TDINDWG
 40
0.0000000116
  9
$TDUSRTIMER
 40
0.0000000116
  9
$USRTIMER
 70
     1
  9
$ANGBASE
 50
0.0
  9
$ANGDIR
 70
     0
  9
$PDMODE
 70
     0
  9
$PDSIZE
 40
0.0
  9
$PLINEWID
 40
0.0
  9
$COORDS
 70
     1
  9
$SPLFRAME
 70
     0
  9
$SPLINETYPE
 70
     6
  9
$SPLINESEGS
 70
     8
  9
$ATTDIA
 70
     0
  9
$ATTREQ
 70
     1
  9
$HANDLING
 70
     1
  9
$HANDSEED
  5
1013D
  9
$SURFTAB1
 70
     6
  9
$SURFTAB2
 70
     6
  9
$SURFTYPE
 70
     6
  9
$SURFU
 70
     6
  9
$SURFV
 70
     6
  9
$UCSNAME
  2

  9
$UCSORG
 10
0.0
 20
0.0
 30
0.0
  9
$UCSXDIR
 10
1.0
 20
0.0
 30
0.0
  9
$UCSYDIR
 10
0.0
 20
1.0
 30
0.0
  9
$PUCSNAME
  2

  9
$PUCSORG
 10
0.0
 20
0.0
 30
0.0
  9
$PUCSXDIR
 10
1.0
 20
0.0
 30
0.0
  9
$PUCSYDIR
 10
0.0
 20
1.0
 30
0.0
  9
$USERI1
 70
     0
  9
$USERI2
 70
     0
  9
$USERI3
 70
     0
  9
$USERI4
 70
     0
  9
$USERI5
 70
     0
  9
$USERR1
 40
0.0
  9
$USERR2
 40
0.0
  9
$USERR3
 40
0.0
  9
$USERR4
 40
0.0
  9
$USERR5
 40
0.0
  9
$WORLDVIEW
 70
     1
  9
$SHADEDGE
 70
     3
  9
$SHADEDIF
 70
    70
  9
$TILEMODE
 70
     1
  9
$MAXACTVP
 70
    64
  9
$PINSBASE
 10
0.0
 20
0.0
 30
0.0
  9
$PLIMCHECK
 70
     0
  9
$PEXTMIN
 10
1.000000000000000E+20
 20
1.000000000000000E+20
 30
1.000000000000000E+20
  9
$PEXTMAX
 10
-1.000000000000000E+20
 20
-1.000000000000000E+20
 30
-1.000000000000000E+20
  9
$PLIMMIN
 10
-0.25
 20
-0.25
  9
$PLIMMAX
 10
10.75
 20
8.25
  9
$UNITMODE
 70
     0
  9
$VISRETAIN
 70
     1
  9
$PLINEGEN
 70
     0
  9
$PSLTSCALE
 70
     1
  9
$TREEDEPTH
 70
  3020
  9
$PICKSTYLE
 70
     1
  9
$CMLSTYLE
  2
STANDARD
  9
$CMLJUST
 70
     0
  9
$CMLSCALE
 40
1.0
  9
$PROXYGRAPHICS
 70
     1
  9
$MEASUREMENT
 70
     0
  0
ENDSEC
  0
SECTION
  2
CLASSES
  0
CLASS
  1
ACDBDICTIONARYWDFLT
  2
AcDbDictionaryWithDefault
  3
ObjectDBX Classes
 90
        0
280
     0
281
     0
  0
CLASS
  1
VISUALSTYLE
  2
AcDbVisualStyle
  3
ObjectDBX Classes
 90
     4095
280
     0
281
     0
  0
CLASS
  1
MATERIAL
  2
AcDbMaterial
  3
ObjectDBX Classes
 90
     1153
280
     0
281
     0
  0
CLASS
  1
SCALE
  2
AcDbScale
  3
ObjectDBX Classes
 90
     1153
280
     0
281
     0
  0
CLASS
  1
TABLESTYLE
  2
AcDbTableStyle
  3
ObjectDBX Classes
 90
     4095
280
     0
281
     0
  0
CLASS
  1
MLEADERSTYLE
  2
AcDbMLeaderStyle
  3
ACDB_MLEADERSTYLE_CLASS
 90
     4095
280
     0
281
     0
  0
CLASS
  1
SUN
  2
AcDbSun
  3
SCENEOE
 90
     1153
280
     0
281
     0
  0
CLASS
  1
DICTIONARYVAR
  2
AcDbDictionaryVar
  3
ObjectDBX Classes
 90
        0
280
     0
281
     0
  0
CLASS
  1
XRECORD
  2
AcDbXrecord
  3
ObjectDBX Classes
 90
        0
280
     0
281
     0
  0
CLASS
  1
LWPOLYLINE
  2
AcDbPolyline
  3
ObjectDBX Classes
 90
        0
280
     0
281
     1
  0
CLASS
  1
HATCH
  2
AcDbHatch
  3
ObjectDBX Classes
 90
        0
280
     0
281
     1
  0
CLASS
  1
ACDBPLACEHOLDER
  2
AcDbPlaceHolder
  3
ObjectDBX Classes
 90
        0
280
     0
281
     0
  0
CLASS
  1
LAYOUT
  2
AcDbLayout
  3
ObjectDBX Classes
 90
        0
280
     0
281
     0
  0
ENDSEC
  0
SECTION
  2
TABLES
  0
TABLE
  2
VPORT
  5
10034
102
{ACAD_XDICTIONARY
360
10132
102
}
330
0
100
AcDbSymbolTable
 70
     1
  0
VPORT
  5
10054
330
10034
100
AcDbSymbolTableRecord
100
AcDbViewportTableRecord
  2
*ACTIVE
 70
     0
 10
0.0
 20
0.0
 11
1.0
 21
1.0
 12
58.08229236324004
 22
-9.379853871111788
 13
0.0
 23
0.0
 14
0.5
 24
0.5
 15
0.5
 25
0.5
 16
0.0
 26
0.0
 36
1.0
 17
0.0
 27
0.0
 37
0.0
 40
127.5522736562437
 41
2.018441403926234
 42
50.0
 43
0.0
 44
0.0
 50
0.0
 51
0.0
 71
     0
 72
   100
 73
     1
 74
     3
 75
     0
 76
     0
 77
     0
 78
     0
  0
ENDTAB
  0
TABLE
  2
LTYPE
  5
10031
330
0
100
AcDbSymbolTable
 70
    48
  0
LTYPE
  5
1003F
330
10031
100
AcDbSymbolTableRecord
100
AcDbLinetypeTableRecord
  2
BYBLOCK
 70
     0
  3

 72
    65
 73
     0
 40
0.0
  0
LTYPE
  5
10040
330
10031
100
AcDbSymbolTableRecord
100
AcDbLinetypeTableRecord
  2
BYLAYER
 70
     0
  3

 72
    65
 73
     0
 40
0.0
  0
LTYPE
  5
10041
330
10031
100
AcDbSymbolTableRecord
100
AcDbLinetypeTableRecord
  2
CONTINUOUS
 70
     0
  3
Solid line
 72
    65
 73
     0
 40
0.0
  0
LTYPE
  5
100CE
330
10031
100
AcDbSymbolTableRecord
100
AcDbLinetypeTableRecord
  2
ACAD_ISO05W100
 70
     0
  3
ISO long-dash double-dot ____ .. ____ .. ____ . 
 72
    65
 73
     6
 40
33.0
 49
24.0
 74
     0
 49
-3.0
 74
     0
 49
0.0
 74
     0
 49
-3.0
 74
     0
 49
0.0
 74
     0
 49
-3.0
 74
     0
  0
LTYPE
  5
100CF
330
10031
100
AcDbSymbolTableRecord
100
AcDbLinetypeTableRecord
  2
ACAD_ISO04W100
 70
     0
  3
ISO long-dash dot ____ . ____ . ____ . ____ . _
 72
    65
 73
     4
 40
30.0
 49
24.0
 74
     0
 49
-3.0
 74
     0
 49
0.0
 74
     0
 49
-3.0
 74
     0
  0
LTYPE
  5
100D0
330
10031
100
AcDbSymbolTableRecord
100
AcDbLinetypeTableRecord
  2
ACAD_ISO15W100
 70
     0
  3
ISO double-dash triple-dot __ __ . . . __ __ . .
 72
    65
 73
    10
 40
39.0
 49
12.0
 74
     0
 49
-3.0
 74
     0
 49
12.0
 74
     0
 49
-3.0
 74
     0
 49
0.0
 74
     0
 49
-3.0
 74
     0
 49
0.0
 74
     0
 49
-3.0
 74
     0
 49
0.0
 74
     0
 49
-3.0
 74
     0
  0
LTYPE
  5
100D1
330
10031
100
AcDbSymbolTableRecord
100
AcDbLinetypeTableRecord
  2
ACAD_ISO14W100
 70
     0
  3
ISO dash triple-dot __ . . . __ . . . __ . . . _
 72
    65
 73
     8
 40
24.0
 49
12.0
 74
     0
 49
-3.0
 74
     0
 49
0.0
 74
     0
 49
-3.0
 74
     0
 49
0.0
 74
     0
 49
-3.0
 74
     0
 49
0.0
 74
     0
 49
-3.0
 74
     0
  0
LTYPE
  5
100D2
330
10031
100
AcDbSymbolTableRecord
100
AcDbLinetypeTableRecord
  2
BORDER
 70
     0
  3
Border __ __ . __ __ . __ __ . __ __ . __ __ .
 72
    65
 73
     6
 40
44.45
 49
12.7
 74
     0
 49
-6.35
 74
     0
 49
12.7
 74
     0
 49
-6.35
 74
     0
 49
0.0
 74
     0
 49
-6.35
 74
     0
  0
LTYPE
  5
100D5
330
10031
100
AcDbSymbolTableRecord
100
AcDbLinetypeTableRecord
  2
BATTING
 70
     0
  3
Batting SSSSSSSSSSSSSSSSSSSSSSSSSSSSSSSSSSSSSSSSSSSSSSS
 72
    65
 73
     4
 40
10.16254
 49
0.00254
 74
     0
 49
-2.54
 74
     2
 75
     0
340
100D3
 46
2.54
 50
0.0
 44
-2.54
 45
0.0
  9
BAT
 49
-5.08
 74
     2
 75
     0
340
100D4
 46
2.54
 50
180.0
 44
2.54
 45
0.0
  9
BAT
 49
-2.54
 74
     0
  0
LTYPE
  5
100D6
330
10031
100
AcDbSymbolTableRecord
100
AcDbLinetypeTableRecord
  2
ACAD_ISO11W100
 70
     0
  3
ISO double-dash dot __ __ . __ __ . __ __ . __ _
 72
    65
 73
     6
 40
33.0
 49
12.0
 74
     0
 49
-3.0
 74
     0
 49
12.0
 74
     0
 49
-3.0
 74
     0
 49
0.0
 74
     0
 49
-3.0
 74
     0
  0
LTYPE
  5
100D7
330
10031
100
AcDbSymbolTableRecord
100
AcDbLinetypeTableRecord
  2
ACAD_ISO10W100
 70
     0
  3
ISO dash dot __ . __ . __ . __ . __ . __ . __ . 
 72
    65
 73
     4
 40
18.0
 49
12.0
 74
     0
 49
-3.0
 74
     0
 49
0.0
 74
     0
 49
-3.0
 74
     0
  0
LTYPE
  5
100D8
330
10031
100
AcDbSymbolTableRecord
100
AcDbLinetypeTableRecord
  2
ACAD_ISO13W100
 70
     0
  3
ISO double-dash double-dot __ __ . . __ __ . . _
 72
    65
 73
     8
 40
36.0
 49
12.0
 74
     0
 49
-3.0
 74
     0
 49
12.0
 74
     0
 49
-3.0
 74
     0
 49
0.0
 74
     0
 49
-3.0
 74
     0
 49
0.0
 74
     0
 49
-3.0
 74
     0
  0
LTYPE
  5
100D9
330
10031
100
AcDbSymbolTableRecord
100
AcDbLinetypeTableRecord
  2
ACAD_ISO12W100
 70
     0
  3
ISO dash double-dot __ . . __ . . __ . . __ . . 
 72
    65
 73
     6
 40
21.0
 49
12.0
 74
     0
 49
-3.0
 74
     0
 49
0.0
 74
     0
 49
-3.0
 74
     0
 49
0.0
 74
     0
 49
-3.0
 74
     0
  0
LTYPE
  5
100DA
330
10031
100
AcDbSymbolTableRecord
100
AcDbLinetypeTableRecord
  2
DASHDOT
 70
     0
  3
Dash dot __ . __ . __ . __ . __ . __ . __ . __
 72
    65
 73
     4
 40
25.4
 49
12.7
 74
     0
 49
-6.35
 74
     0
 49
0.0
 74
     0
 49
-6.35
 74
     0
  0
LTYPE
  5
100DB
330
10031
100
AcDbSymbolTableRecord
100
AcDbLinetypeTableRecord
  2
CENTERX2
 70
     0
  3
Center (2x) ________  __  ________  __  _____
 72
    65
 73
     4
 40
101.6
 49
63.5
 74
     0
 49
-12.7
 74
     0
 49
12.7
 74
     0
 49
-12.7
 74
     0
  0
LTYPE
  5
100DC
330
10031
100
AcDbSymbolTableRecord
100
AcDbLinetypeTableRecord
  2
DASHDOTX2
 70
     0
  3
Dash dot (2x) ____  .  ____  .  ____  .  ___
 72
    65
 73
     4
 40
50.8
 49
25.4
 74
     0
 49
-12.7
 74
     0
 49
0.0
 74
     0
 49
-12.7
 74
     0
  0
LTYPE
  5
100DD
330
10031
100
AcDbSymbolTableRecord
100
AcDbLinetypeTableRecord
  2
DASHDOT2
 70
     0
  3
Dash dot (.5x) _._._._._._._._._._._._._._._.
 72
    65
 73
     4
 40
12.7
 49
6.35
 74
     0
 49
-3.175
 74
     0
 49
0.0
 74
     0
 49
-3.175
 74
     0
  0
LTYPE
  5
100DE
330
10031
100
AcDbSymbolTableRecord
100
AcDbLinetypeTableRecord
  2
BORDERX2
 70
     0
  3
Border (2x) ____  ____  .  ____  ____  .  ___
 72
    65
 73
     6
 40
88.89999999999999
 49
25.4
 74
     0
 49
-12.7
 74
     0
 49
25.4
 74
     0
 49
-12.7
 74
     0
 49
0.0
 74
     0
 49
-12.7
 74
     0
  0
LTYPE
  5
100DF
330
10031
100
AcDbSymbolTableRecord
100
AcDbLinetypeTableRecord
  2
BORDER2
 70
     0
  3
Border (.5x) __.__.__.__.__.__.__.__.__.__.__.
 72
    65
 73
     6
 40
22.225
 49
6.35
 74
     0
 49
-3.175
 74
     0
 49
6.35
 74
     0
 49
-3.175
 74
     0
 49
0.0
 74
     0
 49
-3.175
 74
     0
  0
LTYPE
  5
100E0
330
10031
100
AcDbSymbolTableRecord
100
AcDbLinetypeTableRecord
  2
CENTER2
 70
     0
  3
Center (.5x) ___ _ ___ _ ___ _ ___ _ ___ _ ___
 72
    65
 73
     4
 40
28.575
 49
19.05
 74
     0
 49
-3.175
 74
     0
 49
3.175
 74
     0
 49
-3.175
 74
     0
  0
LTYPE
  5
100E1
330
10031
100
AcDbSymbolTableRecord
100
AcDbLinetypeTableRecord
  2
CENTER
 70
     0
  3
Center ____ _ ____ _ ____ _ ____ _ ____ _ ____
 72
    65
 73
     4
 40
50.8
 49
31.75
 74
     0
 49
-6.35
 74
     0
 49
6.35
 74
     0
 49
-6.35
 74
     0
  0
LTYPE
  5
100E2
330
10031
100
AcDbSymbolTableRecord
100
AcDbLinetypeTableRecord
  2
DIVIDEX2
 70
     0
  3
Divide (2x) ________  .  .  ________  .  .  _
 72
    65
 73
     6
 40
63.5
 49
25.4
 74
     0
 49
-12.7
 74
     0
 49
0.0
 74
     0
 49
-12.7
 74
     0
 49
0.0
 74
     0
 49
-12.7
 74
     0
  0
LTYPE
  5
100E3
330
10031
100
AcDbSymbolTableRecord
100
AcDbLinetypeTableRecord
  2
DIVIDE2
 70
     0
  3
Divide (.5x) __..__..__..__..__..__..__..__.._
 72
    65
 73
     6
 40
15.875
 49
6.35
 74
     0
 49
-3.175
 74
     0
 49
0.0
 74
     0
 49
-3.175
 74
     0
 49
0.0
 74
     0
 49
-3.175
 74
     0
  0
LTYPE
  5
100E4
330
10031
100
AcDbSymbolTableRecord
100
AcDbLinetypeTableRecord
  2
DOT2
 70
     0
  3
Dot (.5x) ........................................
 72
    65
 73
     2
 40
3.175
 49
0.0
 74
     0
 49
-3.175
 74
     0
  0
LTYPE
  5
100E5
330
10031
100
AcDbSymbolTableRecord
100
AcDbLinetypeTableRecord
  2
DOT
 70
     0
  3
Dot . . . . . . . . . . . . . . . . . . . . . . . .
 72
    65
 73
     2
 40
6.35
 49
0.0
 74
     0
 49
-6.35
 74
     0
  0
LTYPE
  5
100E6
330
10031
100
AcDbSymbolTableRecord
100
AcDbLinetypeTableRecord
  2
DASHED2
 70
     0
  3
Dashed (.5x) _ _ _ _ _ _ _ _ _ _ _ _ _ _ _ _ _ 
 72
    65
 73
     2
 40
9.524999999999999
 49
6.35
 74
     0
 49
-3.175
 74
     0
  0
LTYPE
  5
100E7
330
10031
100
AcDbSymbolTableRecord
100
AcDbLinetypeTableRecord
  2
DASHED
 70
     0
  3
Dashed __ __ __ __ __ __ __ __ __ __ __ __ __ _
 72
    65
 73
     2
 40
19.05
 49
12.7
 74
     0
 49
-6.35
 74
     0
  0
LTYPE
  5
100E8
330
10031
100
AcDbSymbolTableRecord
100
AcDbLinetypeTableRecord
  2
DIVIDE
 70
     0
  3
Divide ____ . . ____ . . ____ . . ____ . . ____
 72
    65
 73
     6
 40
31.75
 49
12.7
 74
     0
 49
-6.35
 74
     0
 49
0.0
 74
     0
 49
-6.35
 74
     0
 49
0.0
 74
     0
 49
-6.35
 74
     0
  0
LTYPE
  5
100E9
330
10031
100
AcDbSymbolTableRecord
100
AcDbLinetypeTableRecord
  2
DASHEDX2
 70
     0
  3
Dashed (2x) ____  ____  ____  ____  ____  ___
 72
    65
 73
     2
 40
38.09999999999999
 49
25.4
 74
     0
 49
-12.7
 74
     0
  0
LTYPE
  5
100EB
330
10031
100
AcDbSymbolTableRecord
100
AcDbLinetypeTableRecord
  2
GAS_LINE
 70
     0
  3
Gas line ----GAS----GAS----GAS----GAS----GAS----GAS--
 72
    65
 73
     3
 40
24.13
 49
12.7
 74
     0
 49
-5.08
 74
     2
 75
     0
340
100EA
 46
2.54
 50
0.0
 44
-2.54
 45
-1.27
  9
GAS
 49
-6.35
 74
     0
  0
LTYPE
  5
100ED
330
10031
100
AcDbSymbolTableRecord
100
AcDbLinetypeTableRecord
  2
FENCELINE2
 70
     0
  3
Fenceline square ----[]-----[]----[]-----[]----[]---
 72
    65
 73
     4
 40
36.83
 49
6.35
 74
     0
 49
-2.54
 74
     2
 75
     0
340
100EC
 46
2.54
 50
0.0
 44
-2.54
 45
0.0
  9
BOX
 49
-2.54
 74
     0
 49
25.4
 74
     0
  0
LTYPE
  5
100EE
330
10031
100
AcDbSymbolTableRecord
100
AcDbLinetypeTableRecord
  2
HIDDEN2
 70
     0
  3
Hidden (.5x) _ _ _ _ _ _ _ _ _ _ _ _ _ _ _ _ _ 
 72
    65
 73
     2
 40
4.762499999999999
 49
3.175
 74
     0
 49
-1.5875
 74
     0
  0
LTYPE
  5
100EF
330
10031
100
AcDbSymbolTableRecord
100
AcDbLinetypeTableRecord
  2
HIDDEN
 70
     0
  3
Hidden __ __ __ __ __ __ __ __ __ __ __ __ __ __
 72
    65
 73
     2
 40
9.524999999999999
 49
6.35
 74
     0
 49
-3.175
 74
     0
  0
LTYPE
  5
100F1
330
10031
100
AcDbSymbolTableRecord
100
AcDbLinetypeTableRecord
  2
DRAINAGE
 70
     0
  3
Drainage ---->---->---->----
 72
    65
 73
     2
 40
10.16
 49
5.08
 74
     2
 75
     0
340
100F0
 46
2.54
 50
180.0
 44
0.0
 45
0.0
  9
RIGHT_ARROW
 49
5.08
 74
     0
  0
LTYPE
  5
100F2
330
10031
100
AcDbSymbolTableRecord
100
AcDbLinetypeTableRecord
  2
DOTX2
 70
     0
  3
Dot (2x) .  .  .  .  .  .  .  .  .  .  .  .  .  .
 72
    65
 73
     2
 40
12.7
 49
0.0
 74
     0
 49
-12.7
 74
     0
  0
LTYPE
  5
100F4
330
10031
100
AcDbSymbolTableRecord
100
AcDbLinetypeTableRecord
  2
FENCELINE1
 70
     0
  3
Fenceline circle ----0-----0----0-----0----0-----0--
 72
    65
 73
     4
 40
36.83
 49
6.35
 74
     0
 49
-2.54
 74
     2
 75
     0
340
100F3
 46
2.54
 50
0.0
 44
-2.54
 45
0.0
  9
CIRC1
 49
-2.54
 74
     0
 49
25.4
 74
     0
  0
LTYPE
  5
100F6
330
10031
100
AcDbSymbolTableRecord
100
AcDbLinetypeTableRecord
  2
DRAINAGE2
 70
     0
  3
Drainage reversed----<----<----<----
 72
    65
 73
     2
 40
10.16
 49
5.08
 74
     2
 75
     0
340
100F5
 46
2.54
 50
0.0
 44
0.0
 45
0.0
  9
RIGHT_ARROW
 49
5.08
 74
     0
  0
LTYPE
  5
100F8
330
10031
100
AcDbSymbolTableRecord
100
AcDbLinetypeTableRecord
  2
TRACKS
 70
     0
  3
Tracks -|-|-|-|-|-|-|-|-|-|-|-|-|-|-|-|-|-|-|-|-|-|-|-|-
 72
    65
 73
     2
 40
7.62
 49
3.81
 74
     2
 75
     0
340
100F7
 46
6.35
 50
0.0
 44
0.0
 45
0.0
  9
TRACK1
 49
3.81
 74
     0
  0
LTYPE
  5
100F9
330
10031
100
AcDbSymbolTableRecord
100
AcDbLinetypeTableRecord
  2
PHANTOMX2
 70
     0
  3
Phantom (2x) ____________    ____    ____   _
 72
    65
 73
     6
 40
127.0
 49
63.5
 74
     0
 49
-12.7
 74
     0
 49
12.7
 74
     0
 49
-12.7
 74
     0
 49
12.7
 74
     0
 49
-12.7
 74
     0
  0
LTYPE
  5
100FC
330
10031
100
AcDbSymbolTableRecord
100
AcDbLinetypeTableRecord
  2
ZIGZAG
 70
     0
  3
Zig zag /\/\/\/\/\/\/\/\/\/\/\/\/\/\/\/\/\/\/\/\/\/\/\/
 72
    65
 73
     4
 40
20.32254
 49
0.00254
 74
     0
 49
-5.08
 74
     2
 75
     0
340
100FA
 46
5.08
 50
0.0
 44
-5.08
 45
0.0
  9
ZIG
 49
-10.16
 74
     2
 75
     0
340
100FB
 46
5.08
 50
180.0
 44
5.08
 45
0.0
  9
ZIG
 49
-5.08
 74
     0
  0
LTYPE
  5
100FE
330
10031
100
AcDbSymbolTableRecord
100
AcDbLinetypeTableRecord
  2
HOT_WATER_SUPPLY
 70
     0
  3
Hot water supply ---- HW ---- HW ---- HW ----
 72
    65
 73
     3
 40
22.86
 49
12.7
 74
     0
 49
-5.08
 74
     2
 75
     0
340
100FD
 46
2.54
 50
0.0
 44
-2.54
 45
-1.27
  9
HW
 49
-5.08
 74
     0
  0
LTYPE
  5
100FF
330
10031
100
AcDbSymbolTableRecord
100
AcDbLinetypeTableRecord
  2
HIDDENX2
 70
     0
  3
Hidden (2x) ____ ____ ____ ____ ____ ____ ____ 
 72
    65
 73
     2
 40
19.05
 49
12.7
 74
     0
 49
-6.35
 74
     0
  0
LTYPE
  5
10100
330
10031
100
AcDbSymbolTableRecord
100
AcDbLinetypeTableRecord
  2
PHANTOM2
 70
     0
  3
Phantom (.5x) ___ _ _ ___ _ _ ___ _ _ ___ _ _
 72
    65
 73
     6
 40
31.75
 49
15.875
 74
     0
 49
-3.175
 74
     0
 49
3.175
 74
     0
 49
-3.175
 74
     0
 49
3.175
 74
     0
 49
-3.175
 74
     0
  0
LTYPE
  5
10101
330
10031
100
AcDbSymbolTableRecord
100
AcDbLinetypeTableRecord
  2
PHANTOM
 70
     0
  3
Phantom ______  __  __  ______  __  __  ______ 
 72
    65
 73
     6
 40
63.50000000000001
 49
31.75
 74
     0
 49
-6.35
 74
     0
 49
6.35
 74
     0
 49
-6.35
 74
     0
 49
6.35
 74
     0
 49
-6.35
 74
     0
  0
LTYPE
  5
10102
330
10031
100
AcDbSymbolTableRecord
100
AcDbLinetypeTableRecord
  2
ACAD_ISO07W100
 70
     0
  3
ISO dot . . . . . . . . . . . . . . . . . . . . 
 72
    65
 73
     2
 40
3.0
 49
0.0
 74
     0
 49
-3.0
 74
     0
  0
LTYPE
  5
10103
330
10031
100
AcDbSymbolTableRecord
100
AcDbLinetypeTableRecord
  2
ACAD_ISO06W100
 70
     0
  3
ISO long-dash triple-dot ____ ... ____ ... ____
 72
    65
 73
     8
 40
36.0
 49
24.0
 74
     0
 49
-3.0
 74
     0
 49
0.0
 74
     0
 49
-3.0
 74
     0
 49
0.0
 74
     0
 49
-3.0
 74
     0
 49
0.0
 74
     0
 49
-3.0
 74
     0
  0
LTYPE
  5
10104
330
10031
100
AcDbSymbolTableRecord
100
AcDbLinetypeTableRecord
  2
ACAD_ISO09W100
 70
     0
  3
ISO long-dash double-short-dash ____ __ __ ____
 72
    65
 73
     6
 40
45.0
 49
24.0
 74
     0
 49
-3.0
 74
     0
 49
6.0
 74
     0
 49
-3.0
 74
     0
 49
6.0
 74
     0
 49
-3.0
 74
     0
  0
LTYPE
  5
10105
330
10031
100
AcDbSymbolTableRecord
100
AcDbLinetypeTableRecord
  2
ACAD_ISO08W100
 70
     0
  3
ISO long-dash short-dash ____ __ ____ __ ____ _
 72
    65
 73
     4
 40
36.0
 49
24.0
 74
     0
 49
-3.0
 74
     0
 49
6.0
 74
     0
 49
-3.0
 74
     0
  0
LTYPE
  5
10106
330
10031
100
AcDbSymbolTableRecord
100
AcDbLinetypeTableRecord
  2
ACAD_ISO03W100
 70
     0
  3
ISO dash space __    __    __    __    __    __
 72
    65
 73
     2
 40
30.0
 49
12.0
 74
     0
 49
-18.0
 74
     0
  0
LTYPE
  5
10107
330
10031
100
AcDbSymbolTableRecord
100
AcDbLinetypeTableRecord
  2
ACAD_ISO02W100
 70
     0
  3
ISO dash __ __ __ __ __ __ __ __ __ __ __ __ __
 72
    65
 73
     2
 40
15.0
 49
12.0
 74
     0
 49
-3.0
 74
     0
  0
ENDTAB
  0
TABLE
  2
LAYER
  5
1002F
330
0
100
AcDbSymbolTable
 70
     1
  0
LAYER
  5
1003C
330
1002F
100
AcDbSymbolTableRecord
100
AcDbLayerTableRecord
  2
0
 70
     0
 62
     7
  6
CONTINUOUS
  0
ENDTAB
  0
TABLE
  2
STYLE
  5
10030
330
0
100
AcDbSymbolTable
 70
    13
  0
STYLE
  5
1003D
330
10030
100
AcDbSymbolTableRecord
100
AcDbTextStyleTableRecord
  2
STANDARD
 70
     0
 40
0.0
 41
1.0
 50
0.0
 71
     0
 42
0.2
  3
txt
  4

  0
STYLE
  5
100CC
330
10030
100
AcDbSymbolTableRecord
100
AcDbTextStyleTableRecord
  2
QCADDIMTEXTSTYLE
 70
     0
 40
0.0
 41
1.0
 50
0.0
 71
     0
 42
0.2
  3

  4

  0
STYLE
  5
100D3
330
10030
100
AcDbSymbolTableRecord
100
AcDbTextStyleTableRecord
  2
TEXTSTYLE0
 70
     0
 40
0.0
 41
1.0
 50
0.0
 71
     0
 42
0.2
  3
ltypeshp.shx
  4

  0
STYLE
  5
100D4
330
10030
100
AcDbSymbolTableRecord
100
AcDbTextStyleTableRecord
  2
TEXTSTYLE1
 70
     0
 40
0.0
 41
1.0
 50
0.0
 71
     0
 42
0.2
  3
ltypeshp.shx
  4

  0
STYLE
  5
100EA
330
10030
100
AcDbSymbolTableRecord
100
AcDbTextStyleTableRecord
  2
TEXTSTYLE2
 70
     0
 40
0.0
 41
1.0
 50
0.0
 71
     0
 42
0.2
  3
STANDARD
  4

  0
STYLE
  5
100EC
330
10030
100
AcDbSymbolTableRecord
100
AcDbTextStyleTableRecord
  2
TEXTSTYLE3
 70
     0
 40
0.0
 41
1.0
 50
0.0
 71
     0
 42
0.2
  3
ltypeshp.shx
  4

  0
STYLE
  5
100F0
330
10030
100
AcDbSymbolTableRecord
100
AcDbTextStyleTableRecord
  2
TEXTSTYLE4
 70
     0
 40
0.0
 41
1.0
 50
0.0
 71
     0
 42
0.2
  3
qcadshp.shx
  4

  0
STYLE
  5
100F3
330
10030
100
AcDbSymbolTableRecord
100
AcDbTextStyleTableRecord
  2
TEXTSTYLE5
 70
     0
 40
0.0
 41
1.0
 50
0.0
 71
     0
 42
0.2
  3
ltypeshp.shx
  4

  0
STYLE
  5
100F5
330
10030
100
AcDbSymbolTableRecord
100
AcDbTextStyleTableRecord
  2
TEXTSTYLE6
 70
     0
 40
0.0
 41
1.0
 50
0.0
 71
     0
 42
0.2
  3
qcadshp.shx
  4

  0
STYLE
  5
100F7
330
10030
100
AcDbSymbolTableRecord
100
AcDbTextStyleTableRecord
  2
TEXTSTYLE7
 70
     0
 40
0.0
 41
1.0
 50
0.0
 71
     0
 42
0.2
  3
ltypeshp.shx
  4

  0
STYLE
  5
100FA
330
10030
100
AcDbSymbolTableRecord
100
AcDbTextStyleTableRecord
  2
TEXTSTYLE8
 70
     0
 40
0.0
 41
1.0
 50
0.0
 71
     0
 42
0.2
  3
ltypeshp.shx
  4

  0
STYLE
  5
100FB
330
10030
100
AcDbSymbolTableRecord
100
AcDbTextStyleTableRecord
  2
TEXTSTYLE9
 70
     0
 40
0.0
 41
1.0
 50
0.0
 71
     0
 42
0.2
  3
ltypeshp.shx
  4

  0
STYLE
  5
100FD
330
10030
100
AcDbSymbolTableRecord
100
AcDbTextStyleTableRecord
  2
TEXTSTYLE10
 70
     0
 40
0.0
 41
1.0
 50
0.0
 71
     0
 42
0.2
  3
STANDARD
  4

  0
ENDTAB
  0
TABLE
  2
VIEW
  5
10032
330
0
100
AcDbSymbolTable
 70
     0
  0
ENDTAB
  0
TABLE
  2
UCS
  5
10033
330
0
100
AcDbSymbolTable
 70
     0
  0
ENDTAB
  0
TABLE
  2
APPID
  5
10035
330
0
100
AcDbSymbolTable
 70
     3
  0
APPID
  5
1003E
330
10035
100
AcDbSymbolTableRecord
100
AcDbRegAppTableRecord
  2
ACAD
 70
     0
  0
APPID
  5
10099
330
10035
100
AcDbSymbolTableRecord
100
AcDbRegAppTableRecord
  2
QCAD
 70
     0
  0
APPID
  5
1013C
330
10035
100
AcDbSymbolTableRecord
100
AcDbRegAppTableRecord
  2
ACAD_MLEADERVER
 70
     0
  0
ENDTAB
  0
TABLE
  2
DIMSTYLE
  5
10036
330
0
100
AcDbSymbolTable
 70
     2
  0
DIMSTYLE
105
10052
330
10036
100
AcDbSymbolTableRecord
100
AcDbDimStyleTableRecord
  2
STANDARD
 70
     0
  3

  4

  5

  6

  7

 40
1.0
 41
0.18
 42
0.0625
 43
0.38
 44
0.18
 45
0.0
 46
0.0
 47
0.0
 48
0.0
140
0.18
141
0.09
142
0.0
143
25.4
144
1.0
145
0.0
146
1.0
147
0.09
 71
     0
 72
     0
 73
     1
 74
     1
 75
     0
 76
     0
 77
     0
 78
     0
170
     0
171
     2
172
     0
173
     0
174
     0
175
     0
176
     0
177
     0
178
     0
270
     2
271
     4
272
     4
273
     2
274
     2
340
1003D
275
     0
280
     0
281
     0
282
     0
283
     1
284
     0
285
     0
286
     0
287
     3
288
     0
  0
DIMSTYLE
105
100CD
330
10036
100
AcDbSymbolTableRecord
100
AcDbDimStyleTableRecord
  2
QCADDIMSTYLE
 70
     0
  3

  4

  5

  6

  7

 40
1.0
 41
0.18
 42
0.0625
 43
0.38
 44
0.18
 45
0.0
 46
0.0
 47
0.0
 48
0.0
140
0.18
141
0.09
142
0.0
143
25.4
144
1.0
145
0.0
146
1.0
147
0.09
 71
     0
 72
     0
 73
     0
 74
     1
 75
     0
 76
     0
 77
     1
 78
     0
170
     0
171
     2
172
     0
173
     0
174
     0
175
     0
176
     0
177
     0
178
     0
270
     2
271
     4
272
     4
273
     2
274
     2
340
100CC
275
     0
280
     0
281
     0
282
     0
283
     1
284
     0
285
     0
286
     0
287
     3
288
     0
  0
ENDTAB
  0
TABLE
  2
BLOCK_RECORD
  5
1002E
330
0
100
AcDbSymbolTable
 70
     0
  0
BLOCK_RECORD
  5
1004A
330
1002E
100
AcDbSymbolTableRecord
100
AcDbBlockTableRecord
  2
*MODEL_SPACE
  0
BLOCK_RECORD
  5
10046
330
1002E
100
AcDbSymbolTableRecord
100
AcDbBlockTableRecord
  2
*PAPER_SPACE
  0
ENDTAB
  0
ENDSEC
  0
SECTION
  2
BLOCKS
  0
BLOCK
  5
1004B
330
1004A
100
AcDbEntity
  8
0
100
AcDbBlockBegin
  2
*MODEL_SPACE
 70
     0
 10
0.0
 20
0.0
 30
0.0
  3
*MODEL_SPACE
  1

  0
ENDBLK
  5
1004C
330
1004A
100
AcDbEntity
  8
0
100
AcDbBlockEnd
  0
BLOCK
  5
10047
330
10046
100
AcDbEntity
 67
     1
  8
0
100
AcDbBlockBegin
  2
*PAPER_SPACE
 70
     0
 10
0.0
 20
0.0
 30
0.0
  3
*PAPER_SPACE
  1

  0
ENDBLK
  5
10048
330
10046
100
AcDbEntity
 67
     1
  8
0
100
AcDbBlockEnd
  0
ENDSEC
  0
SECTION
  2
ENTITIES
  0
CIRCLE
  5
100
330
1004A
100
AcDbEntity
  8
0
100
AcDbCircle
 10
132.0090002161445
 20
-15.25000000000057
 30
0.0
 40
1.55
  0
CIRCLE
  5
101
330
1004A
100
AcDbEntity
  8
0
100
AcDbCircle
 10
-8.50099978385552
 20
-15.25000000000047
 30
0.0
 40
1.55
  0
CIRCLE
  5
102
330
1004A
100
AcDbEntity
  8
0
100
AcDbCircle
 10
132.0090002161445
 20
15.24999999999953
 30
0.0
 40
1.55
  0
CIRCLE
  5
103
330
1004A
100
AcDbEntity
  8
0
100
AcDbCircle
 10
33.80900018339892
 20
-15.25000000000046
 30
0.0
 40
1.55
  0
CIRCLE
  5
104
330
1004A
100
AcDbEntity
  8
0
100
AcDbCircle
 10
90.30900024889004
 20
15.24999999999955
 30
0.0
 40
1.55
  0
CIRCLE
  5
105
330
1004A
100
AcDbEntity
  8
0
100
AcDbCircle
 10
33.80900018339891
 20
15.24999999999956
 30
0.0
 40
1.55
  0
CIRCLE
  5
106
330
1004A
100
AcDbEntity
  8
0
100
AcDbCircle
 10
90.30900024889003
 20
-15.25000000000053
 30
0.0
 40
1.55
  0
CIRCLE
  5
107
330
1004A
100
AcDbEntity
  8
0
100
AcDbCircle
 10
-8.500999783855521
 20
15.24999999999953
 30
0.0
 40
1.55
  0
ARC
  5
108
330
1004A
100
AcDbEntity
  8
0
100
AcDbCircle
 10
98.23400023251726
 20
14.24999999999957
 30
0.0
 40
0.4999999999999982
100
AcDbArc
 50
180.0
 51
0.0
  0
LINE
  5
109
330
1004A
100
AcDbEntity
  8
0
100
AcDbLine
 10
102.7340002325173
 20
14.24999999999957
 30
0.0
 11
98.73400023251726
 21
14.24999999999957
 31
0.0
  0
ARC
  5
110
330
1004A
100
AcDbEntity
  8
0
100
AcDbCircle
 10
103.2340002325173
 20
14.24999999999952
 30
0.0
 40
0.4999999999999893
100
AcDbArc
 50
180.0
 51
0.0
  0
LINE
  5
111
330
1004A
100
AcDbEntity
  8
0
100
AcDbLine
 10
103.7340002325173
 20
16.24999999999946
 30
0.0
 11
103.7340002325173
 21
14.24999999999952
 31
0.0
  0
ARC
  5
112
330
1004A
100
AcDbEntity
  8
0
100
AcDbCircle
 10
103.2340002325173
 20
16.24999999999953
 30
0.0
 40
0.4999999999999893
100
AcDbArc
 50
0.0
 51
180.0
  0
LINE
  5
113
330
1004A
100
AcDbEntity
  8
0
100
AcDbLine
 10
98.73400023251726
 20
16.24999999999956
 30
0.0
 11
102.7340002325173
 21
16.24999999999947
 31
0.0
  0
ARC
  5
114
330
1004A
100
AcDbEntity
  8
0
100
AcDbCircle
 10
98.23400023251727
 20
16.24999999999955
 30
0.0
 40
0.4999999999999982
100
AcDbArc
 50
0.0
 51
180.0
  0
LINE
  5
115
330
1004A
100
AcDbEntity
  8
0
100
AcDbLine
 10
97.73400023251729
 20
14.2499999999995
 30
0.0
 11
97.73400023251727
 21
16.24999999999956
 31
0.0
  0
LINE
  5
116
330
1004A
100
AcDbEntity
  8
0
100
AcDbLine
 10
93.54331306204617
 20
7.542302228882647
 30
0.0
 11
100.0682414358594
 21
6.516253829651518
 31
0.0
  0
ARC
  5
117
330
1004A
100
AcDbEntity
  8
0
100
AcDbCircle
 10
93.38797143316306
 20
6.554441419691429
 30
0.0
 40
1.000000000000006
100
AcDbArc
 50
81.06338986111501
 51
195.9644464190642
  0
LINE
  5
118
330
1004A
100
AcDbEntity
  8
0
100
AcDbLine
 10
93.66485478904515
 20
1.95074405100209
 30
0.0
 11
92.42653888186966
 21
6.279400605786478
 31
0.0
  0
ARC
  5
119
330
1004A
100
AcDbEntity
  8
0
100
AcDbCircle
 10
94.62628734033854
 20
2.225784864906998
 30
0.0
 40
0.9999999999999875
100
AcDbArc
 50
195.9644464190633
 51
301.9934993458022
  0
LINE
  5
120
330
1004A
100
AcDbEntity
  8
0
100
AcDbLine
 10
100.4427228501113
 20
4.680284806278124
 30
0.0
 11
95.15611038347356
 21
1.377676650724879
 31
0.0
  0
ARC
  5
121
330
1004A
100
AcDbEntity
  8
0
100
AcDbCircle
 10
99.91289980697628
 20
5.5283930204603
 30
0.0
 40
1.000000000000014
100
AcDbArc
 50
301.9934993458016
 51
81.0633898611133
  0
LINE
  5
122
330
1004A
100
AcDbEntity
  8
0
100
AcDbLine
 10
105.7090738469378
 20
2.928278858945163
 30
0.0
 11
106.4680961521529
 21
0.2750408139044254
 31
0.0
  0
ARC
  5
123
330
1004A
100
AcDbEntity
  8
0
100
AcDbCircle
 10
105.5066636008595
 20
-0.0000000000005116
 30
0.0
 40
1.000000000000015
100
AcDbArc
 50
344.0355535809368
 51
15.96444641906311
  0
LINE
  5
124
330
1004A
100
AcDbEntity
  8
0
100
AcDbLine
 10
106.4680961521529
 20
-0.2750408139054485
 30
0.0
 11
105.7090738469378
 21
-2.928278858946094
 31
0.0
  0
ARC
  5
125
330
1004A
100
AcDbEntity
  8
0
100
AcDbCircle
 10
104.7476412956444
 20
-2.653238045041135
 30
0.0
 40
1.000000000000012
100
AcDbArc
 50
238.0065006541786
 51
344.0355535809367
  0
LINE
  5
126
330
1004A
100
AcDbEntity
  8
0
100
AcDbLine
 10
104.2178182525091
 20
-3.50134625922307
 30
0.0
 11
99.9706776093563
 21
-0.848108214182389
 31
0.0
  0
ARC
  5
127
330
1004A
100
AcDbEntity
  8
0
100
AcDbCircle
 10
100.5005006524916
 20
-0.0000000000004832
 30
0.0
 40
1.000000000000001
100
AcDbArc
 50
121.9934993458223
 51
238.0065006541776
  0
LINE
  5
128
330
1004A
100
AcDbEntity
  8
0
100
AcDbLine
 10
99.9706776093563
 20
0.8481082141814227
 30
0.0
 11
104.2178182525091
 21
3.50134625922216
 31
0.0
  0
ARC
  5
129
330
1004A
100
AcDbEntity
  8
0
100
AcDbCircle
 10
104.7476412956444
 20
2.653238045040226
 30
0.0
 40
1.000000000000002
100
AcDbArc
 50
15.96444641906266
 51
121.9934993458222
  0
LINE
  5
130
330
1004A
100
AcDbEntity
  8
0
100
AcDbLine
 10
54.19513449881053
 20
3.917735509647073
 30
0.0
 11
59.10880550178434
 21
0.8481082141814085
 31
0.0
  0
ARC
  5
131
330
1004A
100
AcDbEntity
  8
0
100
AcDbCircle
 10
58.57898245864901
 20
-0.0000000000004547
 30
0.0
 40
1.000000000000001
100
AcDbArc
 50
301.9934993458223
 51
58.00650065417782
  0
LINE
  5
132
330
1004A
100
AcDbEntity
  8
0
100
AcDbLine
 10
59.10880550178434
 20
-0.848108214182389
 30
0.0
 11
54.19513449881052
 21
-3.917735509648026
 31
0.0
  0
ARC
  5
133
330
1004A
100
AcDbEntity
  8
0
100
AcDbCircle
 10
53.6653114556752
 20
-3.06962729546612
 30
0.0
 40
0.9999999999999952
100
AcDbArc
 50
195.4508916167012
 51
301.9934993458222
  0
LINE
  5
134
330
1004A
100
AcDbEntity
  8
0
100
AcDbLine
 10
52.70145230564015
 20
-3.336039642953459
 30
0.0
 11
51.85300197587316
 21
-0.2664123474878011
 31
0.0
  0
ARC
  5
135
330
1004A
100
AcDbEntity
  8
0
100
AcDbCircle
 10
52.81686112590816
 20
-0.0000000000005116
 30
0.0
 40
0.999999999999951
100
AcDbArc
 50
164.5491083832975
 51
195.4508916167011
  0
LINE
  5
136
330
1004A
100
AcDbEntity
  8
0
100
AcDbLine
 10
51.85300197587316
 20
0.2664123474868347
 30
0.0
 11
52.70145230564015
 21
3.336039642952528
 31
0.0
  0
ARC
  5
137
330
1004A
100
AcDbEntity
  8
0
100
AcDbCircle
 10
53.66531145567519
 20
3.069627295465182
 30
0.0
 40
1.0
100
AcDbArc
 50
58.00650065417762
 51
164.5491083832989
  0
LINE
  5
138
330
1004A
100
AcDbEntity
  8
0
100
AcDbLine
 10
0.1538264186634639
 20
-14.49999999995516
 30
0.0
 11
25.15382641866352
 21
-14.49999999995536
 31
0.0
  0
ARC
  5
139
330
1004A
100
AcDbEntity
  8
0
100
AcDbCircle
 10
25.1538264186635
 20
-15.4999999999554
 30
0.0
 40
1.000000000000001
100
AcDbArc
 50
270.0
 51
90.0
  0
LINE
  5
140
330
1004A
100
AcDbEntity
  8
0
100
AcDbLine
 10
25.1538264186635
 20
-16.49999999995539
 30
0.0
 11
0.1538264186634648
 21
-16.49999999995516
 31
0.0
  0
ARC
  5
141
330
1004A
100
AcDbEntity
  8
0
100
AcDbCircle
 10
0.1538264186634759
 20
-15.49999999995516
 30
0.0
 40
0.9999999999999987
100
AcDbArc
 50
90.0
 51
270.0
  0
LINE
  5
142
330
1004A
100
AcDbEntity
  8
0
100
AcDbLine
 10
4.509000199771692
 20
6.099999999999554
 30
0.0
 11
14.5090001997717
 21
6.099999999999554
 31
0.0
  0
ARC
  5
143
330
1004A
100
AcDbEntity
  8
0
100
AcDbCircle
 10
14.50900019977171
 20
4.999999999999545
 30
0.0
 40
1.099999999999999
100
AcDbArc
 50
270.0
 51
90.0
  0
LINE
  5
144
330
1004A
100
AcDbEntity
  8
0
100
AcDbLine
 10
14.50900019977171
 20
3.899999999999565
 30
0.0
 11
4.509000199771672
 21
3.899999999999551
 31
0.0
  0
ARC
  5
145
330
1004A
100
AcDbEntity
  8
0
100
AcDbCircle
 10
4.509000199771678
 20
4.999999999999545
 30
0.0
 40
1.100000000000002
100
AcDbArc
 50
90.0
 51
270.0
  0
ARC
  5
146
330
1004A
100
AcDbEntity
  8
0
100
AcDbCircle
 10
62.0590002161444
 20
-4.900561428436021
 30
0.0
 40
1.000000000000007
100
AcDbArc
 50
58.00650065418122
 51
121.9934993458193
  0
LINE
  5
147
330
1004A
100
AcDbEntity
  8
0
100
AcDbLine
 10
57.09011834967995
 20
-6.825584773534445
 30
0.0
 11
61.52917717300912
 21
-4.052453214254086
 31
0.0
  0
ARC
  5
148
330
1004A
100
AcDbEntity
  8
0
100
AcDbCircle
 10
57.56695908850173
 20
-7.588882166298163
 30
0.0
 40
0.9000000000000008
100
AcDbArc
 50
121.9934993458197
 51
269.7159018302997
  0
ELLIPSE
  5
149
330
1004A
100
AcDbEntity
  8
0
100
AcDbEllipse
 10
62.05900021614448
 20
-0.0000000000004832
 30
0.0
 11
87.89932738414979
 21
-8.803022685619799E-13
 31
0.0
210
0.0
220
0.0
230
1.0
 40
0.096701536324698
 41
4.661211488220061
 42
4.763566418959453
  0
ARC
  5
150
330
1004A
100
AcDbEntity
  8
0
100
AcDbCircle
 10
66.55104134378732
 20
-7.588882166298255
 30
0.0
 40
0.899999999999999
100
AcDbArc
 50
270.2837986780655
 51
58.00650065418102
  0
LINE
  5
151
330
1004A
100
AcDbEntity
  8
0
100
AcDbLine
 10
62.58882325927968
 20
-4.052453214254086
 30
0.0
 11
67.02788208260905
 21
-6.825584773534523
 31
0.0
  0
LINE
  5
152
330
1004A
100
AcDbEntity
  8
0
100
AcDbLine
 10
36.38979319691394
 20
4.877491545971381
 30
0.0
 11
42.83978276618319
 21
0.8481082141816216
 31
0.0
  0
ARC
  5
153
330
1004A
100
AcDbEntity
  8
0
100
AcDbCircle
 10
42.30995972304818
 20
-0.0000000000004547
 30
0.0
 40
1.000000000000001
100
AcDbArc
 50
301.993499345801
 51
58.00650065419883
  0
LINE
  5
154
330
1004A
100
AcDbEntity
  8
0
100
AcDbLine
 10
42.83978276618319
 20
-0.8481082141825738
 30
0.0
 11
36.38979319691395
 21
-4.877491545972333
 31
0.0
  0
ARC
  5
155
330
1004A
100
AcDbEntity
  8
0
100
AcDbCircle
 10
35.85997015377893
 20
-4.029383331790228
 30
0.0
 40
0.9999999999999977
100
AcDbArc
 50
195.9644464190626
 51
301.9934993458015
  0
LINE
  5
156
330
1004A
100
AcDbEntity
  8
0
100
AcDbLine
 10
34.89853760248554
 20
-4.304424145695165
 30
0.0
 11
33.74583597030185
 21
-0.2750408139054059
 31
0.0
  0
ARC
  5
157
330
1004A
100
AcDbEntity
  8
0
100
AcDbCircle
 10
34.7072685215953
 20
-0.0000000000004832
 30
0.0
 40
1.000000000000041
100
AcDbArc
 50
164.0355535809371
 51
195.9644464190626
  0
LINE
  5
158
330
1004A
100
AcDbEntity
  8
0
100
AcDbLine
 10
33.74583597030185
 20
0.275040813904468
 30
0.0
 11
34.89853760248555
 21
4.304424145694213
 31
0.0
  0
ARC
  5
159
330
1004A
100
AcDbEntity
  8
0
100
AcDbCircle
 10
35.85997015377892
 20
4.02938333178929
 30
0.0
 40
1.000000000000002
100
AcDbArc
 50
58.00650065419919
 51
164.0355535809367
  0
ARC
  5
160
330
1004A
100
AcDbEntity
  8
0
100
AcDbCircle
 10
29.49171309195043
 20
2.225784864907027
 30
0.0
 40
0.9999999999999993
100
AcDbArc
 50
238.0065006541991
 51
344.035553580936
  0
LINE
  5
161
330
1004A
100
AcDbEntity
  8
0
100
AcDbLine
 10
28.96189004881543
 20
1.37767665072495
 30
0.0
 11
23.67527758217767
 21
4.680284806278166
 31
0.0
  0
ARC
  5
162
330
1004A
100
AcDbEntity
  8
0
100
AcDbCircle
 10
24.20510062531268
 20
5.528393020460285
 30
0.0
 40
1.000000000000004
100
AcDbArc
 50
98.93661013888686
 51
238.0065006541995
  0
LINE
  5
163
330
1004A
100
AcDbEntity
  8
0
100
AcDbLine
 10
24.04975899642954
 20
6.516253829651504
 30
0.0
 11
30.57468737024281
 21
7.542302228882676
 31
0.0
  0
ARC
  5
164
330
1004A
100
AcDbEntity
  8
0
100
AcDbCircle
 10
30.73002899912591
 20
6.554441419691457
 30
0.0
 40
1.00000000000001
100
AcDbArc
 50
344.035553580936
 51
98.93661013888473
  0
LINE
  5
165
330
1004A
100
AcDbEntity
  8
0
100
AcDbLine
 10
31.69146155041931
 20
6.279400605786506
 30
0.0
 11
30.45314564324384
 21
1.950744051002076
 31
0.0
  0
LINE
  5
166
330
1004A
100
AcDbEntity
  8
0
100
AcDbLine
 10
4.509000199771696
 20
-3.90000000000046
 30
0.0
 11
14.50900019977167
 21
-3.900000000000489
 31
0.0
  0
ARC
  5
167
330
1004A
100
AcDbEntity
  8
0
100
AcDbCircle
 10
14.50900019977169
 20
-5.000000000000483
 30
0.0
 40
1.099999999999999
100
AcDbArc
 50
270.0
 51
90.0
  0
LINE
  5
168
330
1004A
100
AcDbEntity
  8
0
100
AcDbLine
 10
14.50900019977169
 20
-6.100000000000485
 30
0.0
 11
4.509000199771696
 21
-6.100000000000477
 31
0.0
  0
ARC
  5
169
330
1004A
100
AcDbEntity
  8
0
100
AcDbCircle
 10
4.509000199771697
 20
-5.000000000000469
 30
0.0
 40
1.100000000000013
100
AcDbArc
 50
90.0
 51
270.0
  0
LINE
  5
170
330
1004A
100
AcDbEntity
  8
0
100
AcDbLine
 10
100.0682414358594
 20
-6.516253829652392
 30
0.0
 11
93.5433130620462
 21
-7.542302228883649
 31
0.0
  0
ARC
  5
171
330
1004A
100
AcDbEntity
  8
0
100
AcDbCircle
 10
99.9128998069763
 20
-5.528393020461174
 30
0.0
 40
0.999999999999997
100
AcDbArc
 50
278.9366101388861
 51
58.0065006541997
  0
LINE
  5
172
330
1004A
100
AcDbEntity
  8
0
100
AcDbLine
 10
95.15611038347355
 20
-1.377676650725888
 30
0.0
 11
100.4427228501113
 21
-4.680284806279104
 31
0.0
  0
ARC
  5
173
330
1004A
100
AcDbEntity
  8
0
100
AcDbCircle
 10
94.62628734033854
 20
-2.225784864908007
 30
0.0
 40
0.9999999999999921
100
AcDbArc
 50
58.00650065419858
 51
164.0355535809355
  0
LINE
  5
174
330
1004A
100
AcDbEntity
  8
0
100
AcDbLine
 10
92.42653888186966
 20
-6.279400605787465
 30
0.0
 11
93.66485478904517
 21
-1.950744051002999
 31
0.0
  0
ARC
  5
175
330
1004A
100
AcDbEntity
  8
0
100
AcDbCircle
 10
93.38797143316305
 20
-6.554441419692417
 30
0.0
 40
1.000000000000007
100
AcDbArc
 50
164.0355535809356
 51
278.9366101388865
  0
ARC
  5
176
330
1004A
100
AcDbEntity
  8
0
100
AcDbCircle
 10
-10.04535590444485
 20
6.838559711649864
 30
0.0
 40
0.5000000000000082
100
AcDbArc
 50
249.999999999997
 51
339.9999999999999
  0
LINE
  5
177
330
1004A
100
AcDbEntity
  8
0
100
AcDbLine
 10
-8.72045923573772
 20
9.016781191951793
 30
0.0
 11
-9.575509594051908
 21
6.66754963998703
 31
0.0
  0
ARC
  5
178
330
1004A
100
AcDbEntity
  8
0
100
AcDbCircle
 10
-9.190305546130702
 20
9.187791263614628
 30
0.0
 40
0.5000000000000241
100
AcDbArc
 50
340.0000000000018
 51
69.99999999999737
  0
LINE
  5
179
330
1004A
100
AcDbEntity
  8
0
100
AcDbLine
 10
-9.489141784860836
 20
9.82864764567043
 30
0.0
 11
-9.019295474467839
 21
9.657637574007595
 31
0.0
  0
ARC
  5
180
330
1004A
100
AcDbEntity
  8
0
100
AcDbCircle
 10
-9.66015185652364
 20
9.35880133527749
 30
0.0
 40
0.4999999999999764
100
AcDbArc
 50
70.00000000000242
 51
160.0000000000007
  0
LINE
  5
181
330
1004A
100
AcDbEntity
  8
0
100
AcDbLine
 10
-10.98504852523075
 20
7.180579854975534
 30
0.0
 11
-10.12999816691656
 21
9.529811406940297
 31
0.0
  0
ARC
  5
182
330
1004A
100
AcDbEntity
  8
0
100
AcDbCircle
 10
-10.51520221483781
 20
7.009569783312699
 30
0.0
 40
0.499999999999993
100
AcDbArc
 50
159.9999999999996
 51
250.0000000000031
  0
LINE
  5
183
330
1004A
100
AcDbEntity
  8
0
100
AcDbLine
 10
-10.21636597610771
 20
6.368713401256912
 30
0.0
 11
-10.68621228650062
 21
6.539723472919746
 31
0.0
  0
LINE
  5
184
330
1004A
100
AcDbEntity
  8
0
100
AcDbLine
 10
76.5590002161445
 20
14.49999999995433
 30
0.0
 11
47.55900021614449
 21
14.49999999995435
 31
0.0
  0
ARC
  5
185
330
1004A
100
AcDbEntity
  8
0
100
AcDbCircle
 10
47.55900021614449
 20
15.49999999995437
 30
0.0
 40
1.000000000000001
100
AcDbArc
 50
90.0
 51
270.0
  0
LINE
  5
186
330
1004A
100
AcDbEntity
  8
0
100
AcDbLine
 10
47.55900021614449
 20
16.49999999995437
 30
0.0
 11
76.55900021614448
 21
16.49999999995437
 31
0.0
  0
ARC
  5
187
330
1004A
100
AcDbEntity
  8
0
100
AcDbCircle
 10
76.5590002161445
 20
15.49999999995437
 30
0.0
 40
1.000000000000001
100
AcDbArc
 50
270.0
 51
90.0
  0
LINE
  5
188
330
1004A
100
AcDbEntity
  8
0
100
AcDbLine
 10
47.55900021614448
 20
-14.49999999995531
 30
0.0
 11
76.55900021614448
 21
-14.49999999995531
 31
0.0
  0
ARC
  5
189
330
1004A
100
AcDbEntity
  8
0
100
AcDbCircle
 10
76.55900021614448
 20
-15.49999999995529
 30
0.0
 40
0.9999999999999987
100
AcDbArc
 50
270.0
 51
90.0
  0
LINE
  5
190
330
1004A
100
AcDbEntity
  8
0
100
AcDbLine
 10
76.55900021614448
 20
-16.4999999999553
 30
0.0
 11
47.55900021614448
 21
-16.49999999995529
 31
0.0
  0
ARC
  5
191
330
1004A
100
AcDbEntity
  8
0
100
AcDbCircle
 10
47.55900021614448
 20
-15.49999999995532
 30
0.0
 40
1.000000000000003
100
AcDbArc
 50
90.0
 51
270.0
  0
LINE
  5
192
330
1004A
100
AcDbEntity
  8
0
100
AcDbLine
 10
49.39801962510015
 20
7.258699702616113
 30
0.0
 11
48.38943121368153
 21
3.612177403998999
 31
0.0
  0
ARC
  5
193
330
1004A
100
AcDbEntity
  8
0
100
AcDbCircle
 10
48.53058814148815
 20
7.498621817559012
 30
0.0
 40
0.9000000000000024
100
AcDbArc
 50
344.5391345917811
 51
90.86354862535818
  0
ELLIPSE
  5
194
330
1004A
100
AcDbEntity
  8
0
100
AcDbEllipse
 10
62.05900021614448
 20
-0.0000000000004832
 30
0.0
 11
87.89932738414979
 21
8.372440165906983E-13
 31
0.0
210
0.0
220
0.0
230
1.0
 40
0.096701536324698
 41
1.725474720943993
 42
1.805337406586172
  0
ARC
  5
195
330
1004A
100
AcDbEntity
  8
0
100
AcDbCircle
 10
41.65228019376724
 20
7.367519456979494
 30
0.0
 40
0.8999999999999951
100
AcDbArc
 50
91.32362455756007
 51
238.006500654199
  0
LINE
  5
196
330
1004A
100
AcDbEntity
  8
0
100
AcDbLine
 10
46.89579541097764
 20
3.030649317531257
 30
0.0
 11
41.17543945494571
 21
6.604222064215648
 31
0.0
  0
ARC
  5
197
330
1004A
100
AcDbEntity
  8
0
100
AcDbCircle
 10
47.42561845411264
 20
3.878757531713376
 30
0.0
 40
1.000000000000002
100
AcDbArc
 50
238.0065006541996
 51
344.5391345917815
  0
LINE
  5
198
330
1004A
100
AcDbEntity
  8
0
100
AcDbLine
 10
-9.01929547446787
 20
-9.657637574008518
 30
0.0
 11
-9.489141784860823
 21
-9.828647645671339
 31
0.0
  0
ARC
  5
199
330
1004A
100
AcDbEntity
  8
0
100
AcDbCircle
 10
-9.660151856523655
 20
-9.358801335278386
 30
0.0
 40
0.5000000000000024
100
AcDbArc
 50
200.0000000000003
 51
289.9999999999999
  0
LINE
  5
200
330
1004A
100
AcDbEntity
  8
0
100
AcDbLine
 10
-10.12999816691661
 20
-9.52981140694122
 30
0.0
 11
-10.98504852523078
 21
-7.180579854976457
 31
0.0
  0
ARC
  5
201
330
1004A
100
AcDbEntity
  8
0
100
AcDbCircle
 10
-10.51520221483781
 20
-7.009569783313623
 30
0.0
 40
0.5000000000000021
100
AcDbArc
 50
110.0000000000001
 51
199.9999999999994
  0
LINE
  5
202
330
1004A
100
AcDbEntity
  8
0
100
AcDbLine
 10
-10.68621228650065
 20
-6.53972347292067
 30
0.0
 11
-10.21636597610771
 21
-6.36871340125785
 31
0.0
  0
ARC
  5
203
330
1004A
100
AcDbEntity
  8
0
100
AcDbCircle
 10
-10.04535590444485
 20
-6.838559711650774
 30
0.0
 40
0.4999999999999808
100
AcDbArc
 50
19.99999999999921
 51
110.0000000000044
  0
LINE
  5
204
330
1004A
100
AcDbEntity
  8
0
100
AcDbLine
 10
-9.575509594051908
 20
-6.667549639987953
 30
0.0
 11
-8.720459235737751
 21
-9.016781191952731
 31
0.0
  0
ARC
  5
205
330
1004A
100
AcDbEntity
  8
0
100
AcDbCircle
 10
-9.19030554613073
 20
-9.187791263615551
 30
0.0
 40
0.5000000000000228
100
AcDbArc
 50
290.0000000000026
 51
19.99999999999748
  0
ARC
  5
206
330
1004A
100
AcDbEntity
  8
0
100
AcDbCircle
 10
89.41073191069368
 20
-0.0000000000005116
 30
0.0
 40
1.000000000000032
100
AcDbArc
 50
344.0355535809369
 51
15.96444641906291
  0
LINE
  5
207
330
1004A
100
AcDbEntity
  8
0
100
AcDbLine
 10
89.21946282980244
 20
4.304424145697624
 30
0.0
 11
90.37216446198711
 21
0.2750408139044964
 31
0.0
  0
ARC
  5
208
330
1004A
100
AcDbEntity
  8
0
100
AcDbCircle
 10
88.25803027850905
 20
4.029383331792687
 30
0.0
 40
0.9999999999999984
100
AcDbArc
 50
15.96444641906362
 51
121.9934993458226
  0
LINE
  5
209
330
1004A
100
AcDbEntity
  8
0
100
AcDbLine
 10
81.27821766610433
 20
0.8481082141814369
 30
0.0
 11
87.72820723537372
 21
4.87749154597465
 31
0.0
  0
ARC
  5
210
330
1004A
100
AcDbEntity
  8
0
100
AcDbCircle
 10
81.80804070923966
 20
-0.000000000000469
 30
0.0
 40
1.000000000000006
100
AcDbArc
 50
121.9934993458228
 51
238.0065006541772
  0
LINE
  5
211
330
1004A
100
AcDbEntity
  8
0
100
AcDbLine
 10
87.72820723537373
 20
-4.877491545975587
 30
0.0
 11
81.27821766610433
 21
-0.848108214182389
 31
0.0
  0
ARC
  5
212
330
1004A
100
AcDbEntity
  8
0
100
AcDbCircle
 10
88.25803027850905
 20
-4.02938333179371
 30
0.0
 40
0.9999999999999993
100
AcDbArc
 50
238.0065006541784
 51
344.0355535809362
  0
LINE
  5
213
330
1004A
100
AcDbEntity
  8
0
100
AcDbLine
 10
90.37216446198711
 20
-0.2750408139053775
 30
0.0
 11
89.21946282980242
 21
-4.304424145698576
 31
0.0
  0
LINE
  5
214
330
1004A
100
AcDbEntity
  8
0
100
AcDbLine
 10
77.22220502131148
 20
-3.030649317532898
 30
0.0
 11
82.94256097733857
 21
-6.604222064217268
 31
0.0
  0
ARC
  5
215
330
1004A
100
AcDbEntity
  8
0
100
AcDbCircle
 10
82.46572023851678
 20
-7.367519456981007
 30
0.0
 40
0.9000000000000004
100
AcDbArc
 50
271.3236245575557
 51
58.00650065417762
  0
ELLIPSE
  5
216
330
1004A
100
AcDbEntity
  8
0
100
AcDbEllipse
 10
62.05900021614448
 20
-0.0000000000004832
 30
0.0
 11
87.89932738414979
 21
-8.803022685619799E-13
 31
0.0
210
0.0
220
0.0
230
1.0
 40
0.096701536324698
 41
4.867067428123363
 42
4.946930060175908
  0
ARC
  5
217
330
1004A
100
AcDbEntity
  8
0
100
AcDbCircle
 10
75.58741229080076
 20
-7.498621817560227
 30
0.0
 40
0.9000000000000006
100
AcDbArc
 50
164.5391345917815
 51
270.8638449589743
  0
LINE
  5
218
330
1004A
100
AcDbEntity
  8
0
100
AcDbLine
 10
74.71998080718873
 20
-7.258699702617328
 30
0.0
 11
75.72856921860729
 21
-3.612177404000469
 31
0.0
  0
ARC
  5
219
330
1004A
100
AcDbEntity
  8
0
100
AcDbCircle
 10
76.69238197817617
 20
-3.878757531714811
 30
0.0
 40
1.000000000000002
100
AcDbArc
 50
58.00650065417787
 51
164.5391345917816
  0
LINE
  5
220
330
1004A
100
AcDbEntity
  8
0
100
AcDbLine
 10
61.52917717300912
 20
4.052453214253134
 30
0.0
 11
57.09011834967997
 21
6.825584773533492
 31
0.0
  0
ARC
  5
221
330
1004A
100
AcDbEntity
  8
0
100
AcDbCircle
 10
62.0590002161444
 20
4.900561428435054
 30
0.0
 40
1.000000000000006
100
AcDbArc
 50
238.0065006541805
 51
301.9934993458195
  0
LINE
  5
222
330
1004A
100
AcDbEntity
  8
0
100
AcDbLine
 10
67.02788208260905
 20
6.825584773533606
 30
0.0
 11
62.58882325927969
 21
4.05245321425312
 31
0.0
  0
ARC
  5
223
330
1004A
100
AcDbEntity
  8
0
100
AcDbCircle
 10
66.55104134378733
 20
7.588882166297338
 30
0.0
 40
0.899999999999997
100
AcDbArc
 50
301.993499345819
 51
89.71620132193318
  0
ELLIPSE
  5
224
330
1004A
100
AcDbEntity
  8
0
100
AcDbEllipse
 10
62.05900021614448
 20
-0.0000000000004832
 30
0.0
 11
87.89932738414979
 21
8.372440165906983E-13
 31
0.0
210
0.0
220
0.0
230
1.0
 40
0.096701536324698
 41
1.519618888220132
 42
1.621973765369658
  0
ARC
  5
225
330
1004A
100
AcDbEntity
  8
0
100
AcDbCircle
 10
57.56695908850173
 20
7.588882166297253
 30
0.0
 40
0.899999999999999
100
AcDbArc
 50
90.28379867806558
 51
238.006500654181
  0
ARC
  5
226
330
1004A
100
AcDbEntity
  8
0
100
AcDbCircle
 10
103.2340002325173
 20
-16.25000000000054
 30
0.0
 40
0.4999999999999893
100
AcDbArc
 50
180.0
 51
0.0
  0
LINE
  5
227
330
1004A
100
AcDbEntity
  8
0
100
AcDbLine
 10
103.7340002325172
 20
-14.25000000000053
 30
0.0
 11
103.7340002325173
 21
-16.25000000000048
 31
0.0
  0
ARC
  5
228
330
1004A
100
AcDbEntity
  8
0
100
AcDbCircle
 10
103.2340002325173
 20
-14.25000000000053
 30
0.0
 40
0.4999999999999893
100
AcDbArc
 50
0.0
 51
180.0
  0
LINE
  5
229
330
1004A
100
AcDbEntity
  8
0
100
AcDbLine
 10
98.73400023251726
 20
-14.25000000000055
 30
0.0
 11
102.7340002325173
 21
-14.25000000000048
 31
0.0
  0
ARC
  5
230
330
1004A
100
AcDbEntity
  8
0
100
AcDbCircle
 10
98.23400023251726
 20
-14.25000000000054
 30
0.0
 40
0.4999999999999982
100
AcDbArc
 50
0.0
 51
180.0
  0
LINE
  5
231
330
1004A
100
AcDbEntity
  8
0
100
AcDbLine
 10
97.73400023251727
 20
-16.25000000000044
 30
0.0
 11
97.73400023251727
 21
-14.25000000000046
 31
0.0
  0
ARC
  5
232
330
1004A
100
AcDbEntity
  8
0
100
AcDbCircle
 10
98.23400023251727
 20
-16.25000000000044
 30
0.0
 40
0.4999999999999982
100
AcDbArc
 50
180.0
 51
0.0
  0
LINE
  5
233
330
1004A
100
AcDbEntity
  8
0
100
AcDbLine
 10
102.7340002325173
 20
-16.25000000000049
 30
0.0
 11
98.73400023251726
 21
-16.25000000000054
 31
0.0
  0
LINE
  5
234
330
1004A
100
AcDbEntity
  8
0
100
AcDbLine
 10
25.15382641866351
 20
14.49999999995445
 30
0.0
 11
0.1538264186635034
 21
14.49999999995426
 31
0.0
  0
ARC
  5
235
330
1004A
100
AcDbEntity
  8
0
100
AcDbCircle
 10
0.1538264186635168
 20
15.49999999995426
 30
0.0
 40
1.000000000000001
100
AcDbArc
 50
90.0
 51
270.0
  0
LINE
  5
236
330
1004A
100
AcDbEntity
  8
0
100
AcDbLine
 10
0.153826418663515
 20
16.49999999995426
 30
0.0
 11
25.15382641866351
 21
16.49999999995445
 31
0.0
  0
ARC
  5
237
330
1004A
100
AcDbEntity
  8
0
100
AcDbCircle
 10
25.15382641866351
 20
15.49999999995447
 30
0.0
 40
1.000000000000001
100
AcDbArc
 50
270.0
 51
90.0
  0
ARC
  5
238
330
1004A
100
AcDbEntity
  8
0
100
AcDbCircle
 10
75.58741229080074
 20
7.498621817559268
 30
0.0
 40
0.8999999999999873
100
AcDbArc
 50
89.13615504102401
 51
195.4608654082185
  0
ELLIPSE
  5
239
330
1004A
100
AcDbEntity
  8
0
100
AcDbEllipse
 10
62.05900021614448
 20
-0.0000000000004832
 30
0.0
 11
87.89932738414979
 21
8.372440165906983E-13
 31
0.0
210
0.0
220
0.0
230
1.0
 40
0.096701536324698
 41
1.336255247003677
 42
1.416117879056223
  0
ARC
  5
240
330
1004A
100
AcDbEntity
  8
0
100
AcDbCircle
 10
82.46572023851678
 20
7.367519456980048
 30
0.0
 40
0.8999999999999958
100
AcDbArc
 50
301.9934993458223
 51
88.67637544244272
  0
LINE
  5
241
330
1004A
100
AcDbEntity
  8
0
100
AcDbLine
 10
82.94256097733857
 20
6.604222064216302
 30
0.0
 11
77.22220502131151
 21
3.030649317531925
 31
0.0
  0
ARC
  5
242
330
1004A
100
AcDbEntity
  8
0
100
AcDbCircle
 10
76.69238197817619
 20
3.878757531713845
 30
0.0
 40
1.000000000000011
100
AcDbArc
 50
195.4608654082183
 51
301.9934993458217
  0
LINE
  5
243
330
1004A
100
AcDbEntity
  8
0
100
AcDbLine
 10
75.72856921860729
 20
3.61217740399951
 30
0.0
 11
74.71998080718878
 21
7.258699702616312
 31
0.0
  0
LINE
  5
244
330
1004A
100
AcDbEntity
  8
0
100
AcDbLine
 10
118.5840002325173
 20
-16.25000000000047
 30
0.0
 11
118.5840002325173
 21
-14.2500000000005
 31
0.0
  0
ARC
  5
245
330
1004A
100
AcDbEntity
  8
0
100
AcDbCircle
 10
119.0840002325173
 20
-14.25000000000046
 30
0.0
 40
0.5000000000000071
100
AcDbArc
 50
0.0
 51
179.9999999999998
  0
LINE
  5
246
330
1004A
100
AcDbEntity
  8
0
100
AcDbLine
 10
119.5840002325173
 20
-14.25000000000053
 30
0.0
 11
123.5840002325173
 21
-14.25000000000045
 31
0.0
  0
ARC
  5
247
330
1004A
100
AcDbEntity
  8
0
100
AcDbCircle
 10
124.0840002325173
 20
-14.2500000000005
 30
0.0
 40
0.5000000000000071
100
AcDbArc
 50
0.0
 51
179.9999999999998
  0
LINE
  5
248
330
1004A
100
AcDbEntity
  8
0
100
AcDbLine
 10
124.5840002325173
 20
-14.2500000000005
 30
0.0
 11
124.5840002325173
 21
-16.2500000000005
 31
0.0
  0
ARC
  5
249
330
1004A
100
AcDbEntity
  8
0
100
AcDbCircle
 10
124.0840002325173
 20
-16.2500000000005
 30
0.0
 40
0.4999999999999982
100
AcDbArc
 50
179.9999999999992
 51
0.0
  0
LINE
  5
250
330
1004A
100
AcDbEntity
  8
0
100
AcDbLine
 10
123.5840002325173
 20
-16.25000000000054
 30
0.0
 11
119.5840002325173
 21
-16.25000000000045
 31
0.0
  0
ARC
  5
251
330
1004A
100
AcDbEntity
  8
0
100
AcDbCircle
 10
119.0840002325173
 20
-16.25000000000053
 30
0.0
 40
0.4999999999999982
100
AcDbArc
 50
179.9999999999992
 51
0.0
  0
LINE
  5
252
330
1004A
100
AcDbEntity
  8
0
100
AcDbLine
 10
71.41654812664883
 20
3.3360396429525
 30
0.0
 11
72.26499845641581
 21
0.2664123474868205
 31
0.0
  0
ARC
  5
253
330
1004A
100
AcDbEntity
  8
0
100
AcDbCircle
 10
71.30113930638076
 20
-0.0000000000004832
 30
0.0
 40
0.9999999999999964
100
AcDbArc
 50
344.5491083832988
 51
15.45089161670069
  0
LINE
  5
254
330
1004A
100
AcDbEntity
  8
0
100
AcDbLine
 10
72.26499845641581
 20
-0.2664123474878011
 30
0.0
 11
71.41654812664882
 21
-3.336039642953459
 31
0.0
  0
ARC
  5
255
330
1004A
100
AcDbEntity
  8
0
100
AcDbCircle
 10
70.45268897661377
 20
-3.069627295466155
 30
0.0
 40
1.000000000000002
100
AcDbArc
 50
238.006500654178
 51
344.5491083832991
  0
LINE
  5
256
330
1004A
100
AcDbEntity
  8
0
100
AcDbLine
 10
69.92286593347845
 20
-3.917735509648068
 30
0.0
 11
65.00919493050463
 21
-0.8481082141824032
 31
0.0
  0
ARC
  5
257
330
1004A
100
AcDbEntity
  8
0
100
AcDbCircle
 10
65.53901797363996
 20
-0.0000000000005116
 30
0.0
 40
1.000000000000001
100
AcDbArc
 50
121.9934993458224
 51
238.0065006541777
  0
LINE
  5
258
330
1004A
100
AcDbEntity
  8
0
100
AcDbLine
 10
65.00919493050463
 20
0.8481082141814085
 30
0.0
 11
69.92286593347845
 21
3.917735509647116
 31
0.0
  0
ARC
  5
259
330
1004A
100
AcDbEntity
  8
0
100
AcDbCircle
 10
70.45268897661379
 20
3.069627295465196
 30
0.0
 40
0.9999999999999999
100
AcDbArc
 50
15.4508916167012
 51
121.9934993458223
  0
ARC
  5
260
330
1004A
100
AcDbEntity
  8
0
100
AcDbCircle
 10
30.7300289991259
 20
-6.554441419692409
 30
0.0
 40
1.000000000000008
100
AcDbArc
 50
261.0633898611149
 51
15.96444641906423
  0
LINE
  5
261
330
1004A
100
AcDbEntity
  8
0
100
AcDbLine
 10
30.57468737024279
 20
-7.542302228883614
 30
0.0
 11
24.04975899642953
 21
-6.516253829652442
 31
0.0
  0
ARC
  5
262
330
1004A
100
AcDbEntity
  8
0
100
AcDbCircle
 10
24.20510062531266
 20
-5.528393020461209
 30
0.0
 40
1.000000000000002
100
AcDbArc
 50
121.9934993458006
 51
261.0633898611135
  0
LINE
  5
263
330
1004A
100
AcDbEntity
  8
0
100
AcDbLine
 10
23.67527758217766
 20
-4.680284806279111
 30
0.0
 11
28.96189004881541
 21
-1.377676650725874
 31
0.0
  0
ARC
  5
264
330
1004A
100
AcDbEntity
  8
0
100
AcDbCircle
 10
29.49171309195042
 20
-2.225784864907979
 30
0.0
 40
1.000000000000005
100
AcDbArc
 50
15.96444641906495
 51
121.9934993458005
  0
LINE
  5
265
330
1004A
100
AcDbEntity
  8
0
100
AcDbLine
 10
30.45314564324381
 20
-1.950744051003021
 30
0.0
 11
31.69146155041929
 21
-6.279400605787451
 31
0.0
  0
LINE
  5
266
330
1004A
100
AcDbEntity
  8
0
100
AcDbLine
 10
17.6499042801361
 20
0.275040813904468
 30
0.0
 11
18.40892658535046
 21
2.928278858942676
 31
0.0
  0
ARC
  5
267
330
1004A
100
AcDbEntity
  8
0
100
AcDbCircle
 10
19.37035913664384
 20
2.653238045037753
 30
0.0
 40
1.000000000000001
100
AcDbArc
 50
58.00650065419838
 51
164.0355535809367
  0
LINE
  5
268
330
1004A
100
AcDbEntity
  8
0
100
AcDbLine
 10
19.90018217977887
 20
3.501346259219844
 30
0.0
 11
24.14732282293123
 21
0.8481082141816358
 31
0.0
  0
ARC
  5
269
330
1004A
100
AcDbEntity
  8
0
100
AcDbCircle
 10
23.61749977979623
 20
-0.0000000000004832
 30
0.0
 40
1.000000000000001
100
AcDbArc
 50
301.9934993458011
 51
58.00650065419975
  0
LINE
  5
270
330
1004A
100
AcDbEntity
  8
0
100
AcDbLine
 10
24.14732282293124
 20
-0.8481082141825595
 30
0.0
 11
19.90018217977885
 21
-3.501346259220782
 31
0.0
  0
ARC
  5
271
330
1004A
100
AcDbEntity
  8
0
100
AcDbCircle
 10
19.37035913664385
 20
-2.653238045038698
 30
0.0
 40
0.9999999999999865
100
AcDbArc
 50
195.9644464190631
 51
301.9934993458003
  0
LINE
  5
272
330
1004A
100
AcDbEntity
  8
0
100
AcDbLine
 10
18.40892658535047
 20
-2.928278858943614
 30
0.0
 11
17.6499042801361
 21
-0.2750408139054059
 31
0.0
  0
ARC
  5
273
330
1004A
100
AcDbEntity
  8
0
100
AcDbCircle
 10
18.61133683142954
 20
-0.000000000000469
 30
0.0
 40
1.00000000000005
100
AcDbArc
 50
164.0355535809372
 51
195.9644464190628
  0
ARC
  5
274
330
1004A
100
AcDbEntity
  8
0
100
AcDbCircle
 10
47.42561845411265
 20
-3.878757531714307
 30
0.0
 40
1.000000000000004
100
AcDbArc
 50
15.46086540821874
 51
121.9934993458004
  0
LINE
  5
275
330
1004A
100
AcDbEntity
  8
0
100
AcDbLine
 10
48.38943121368155
 20
-3.612177403999951
 30
0.0
 11
49.39801962510013
 21
-7.258699702617037
 31
0.0
  0
ARC
  5
276
330
1004A
100
AcDbEntity
  8
0
100
AcDbCircle
 10
48.53058814148814
 20
-7.498621817559929
 30
0.0
 40
0.8999999999999998
100
AcDbArc
 50
269.1361550410186
 51
15.46086540821823
  0
ELLIPSE
  5
277
330
1004A
100
AcDbEntity
  8
0
100
AcDbEllipse
 10
62.05900021614448
 20
-0.0000000000004832
 30
0.0
 11
87.89932738414979
 21
-8.803022685619799E-13
 31
0.0
210
0.0
220
0.0
230
1.0
 40
0.096701536324698
 41
4.477847847002991
 42
4.557710532646015
  0
ARC
  5
278
330
1004A
100
AcDbEntity
  8
0
100
AcDbCircle
 10
41.65228019376723
 20
-7.36751945698046
 30
0.0
 40
0.900000000000002
100
AcDbArc
 50
121.993499345801
 51
268.6760836931011
  0
LINE
  5
279
330
1004A
100
AcDbEntity
  8
0
100
AcDbLine
 10
41.17543945494572
 20
-6.604222064216565
 30
0.0
 11
46.89579541097765
 21
-3.030649317532216
 31
0.0
  0
ARC
  5
280
330
1004A
100
AcDbEntity
  8
0
100
AcDbCircle
 10
119.0840002325173
 20
16.24999999999959
 30
0.0
 40
0.5000000000000071
100
AcDbArc
 50
0.0
 51
180.0
  0
LINE
  5
281
330
1004A
100
AcDbEntity
  8
0
100
AcDbLine
 10
118.5840002325173
 20
14.24999999999956
 30
0.0
 11
118.5840002325173
 21
16.24999999999953
 31
0.0
  0
ARC
  5
282
330
1004A
100
AcDbEntity
  8
0
100
AcDbCircle
 10
119.0840002325173
 20
14.24999999999952
 30
0.0
 40
0.4999999999999982
100
AcDbArc
 50
179.9999999999992
 51
0.0
  0
LINE
  5
283
330
1004A
100
AcDbEntity
  8
0
100
AcDbLine
 10
123.5840002325173
 20
14.24999999999959
 30
0.0
 11
119.5840002325173
 21
14.24999999999947
 31
0.0
  0
ARC
  5
284
330
1004A
100
AcDbEntity
  8
0
100
AcDbCircle
 10
124.0840002325173
 20
14.24999999999953
 30
0.0
 40
0.4999999999999982
100
AcDbArc
 50
179.9999999999992
 51
0.0
  0
LINE
  5
285
330
1004A
100
AcDbEntity
  8
0
100
AcDbLine
 10
124.5840002325173
 20
16.24999999999952
 30
0.0
 11
124.5840002325173
 21
14.24999999999952
 31
0.0
  0
ARC
  5
286
330
1004A
100
AcDbEntity
  8
0
100
AcDbCircle
 10
124.0840002325173
 20
16.24999999999952
 30
0.0
 40
0.5000000000000071
100
AcDbArc
 50
0.0
 51
180.0
  0
LINE
  5
287
330
1004A
100
AcDbEntity
  8
0
100
AcDbLine
 10
119.5840002325173
 20
16.2499999999995
 30
0.0
 11
123.5840002325173
 21
16.24999999999956
 31
0.0
  0
ARC
  5
288
330
1004A
100
AcDbEntity
  8
0
100
AcDbCircle
 10
-11.00099978385556
 20
12.50727450069341
 30
0.0
 40
1.499999999999959
100
AcDbArc
 50
179.9999999999989
 51
228.6041021556287
  0
ARC
  5
289
330
1004A
100
AcDbEntity
  8
0
100
AcDbCircle
 10
-12.98477425961055
 20
10.25679925547455
 30
0.0
 40
1.500000000000031
100
AcDbArc
 50
339.9999999999994
 51
48.60410215562644
  0
LINE
  5
290
330
1004A
100
AcDbEntity
  8
0
100
AcDbLine
 10
-11.57523532843166
 20
9.743769040486015
 30
0.0
 11
-12.18137067402078
 21
8.078425865346688
 31
0.0
  0
ARC
  5
291
330
1004A
100
AcDbEntity
  8
0
100
AcDbCircle
 10
-7.200999783855679
 20
6.265719105720549
 30
0.0
 40
5.299999999999836
100
AcDbArc
 50
159.9999999999983
 51
180.0000000000003
  0
LINE
  5
292
330
1004A
100
AcDbEntity
  8
0
100
AcDbLine
 10
-12.5009997838555
 20
6.265719105720535
 30
0.0
 11
-12.50099978385552
 21
6.249999999999531
 31
0.0
  0
ARC
  5
293
330
1004A
100
AcDbEntity
  8
0
100
AcDbCircle
 10
-9.500999783855503
 20
6.249999999999545
 30
0.0
 40
3.000000000000016
100
AcDbArc
 50
180.0000000000002
 51
270.0
  0
LINE
  5
294
330
1004A
100
AcDbEntity
  8
0
100
AcDbLine
 10
-9.500999783855505
 20
3.249999999999531
 30
0.0
 11
-3.249999999999602
 21
3.249999999999602
 31
0.0
  0
ARC
  5
295
330
1004A
100
AcDbEntity
  8
0
100
AcDbCircle
 10
-3.249999999999602
 20
0.0
 30
0.0
 40
3.249999999999602
100
AcDbArc
 50
270.0
 51
90.0
  0
LINE
  5
296
330
1004A
100
AcDbEntity
  8
0
100
AcDbLine
 10
-3.249999999999603
 20
-3.249999999999602
 30
0.0
 11
-9.50099978385552
 21
-3.250000000000462
 31
0.0
  0
ARC
  5
297
330
1004A
100
AcDbEntity
  8
0
100
AcDbCircle
 10
-9.50099978385552
 20
-6.250000000000469
 30
0.0
 40
3.000000000000009
100
AcDbArc
 50
90.0
 51
179.9999999999998
  0
LINE
  5
298
330
1004A
100
AcDbEntity
  8
0
100
AcDbLine
 10
-12.50099978385552
 20
-6.250000000000462
 30
0.0
 11
-12.50099978385552
 21
-6.265719105721416
 31
0.0
  0
ARC
  5
299
330
1004A
100
AcDbEntity
  8
0
100
AcDbCircle
 10
-7.200999783855252
 20
-6.265719105721359
 30
0.0
 40
5.300000000000269
100
AcDbArc
 50
180.0000000000006
 51
200.0000000000008
  0
LINE
  5
300
330
1004A
100
AcDbEntity
  8
0
100
AcDbLine
 10
-12.1813706740208
 20
-8.078425865347569
 30
0.0
 11
-11.57523532843163
 21
-9.743769040486953
 31
0.0
  0
ARC
  5
301
330
1004A
100
AcDbEntity
  8
0
100
AcDbCircle
 10
-12.9847742596105
 20
-10.25679925547549
 30
0.0
 40
1.499999999999999
100
AcDbArc
 50
311.3958978443719
 51
20.00000000000089
  0
ARC
  5
302
330
1004A
100
AcDbEntity
  8
0
100
AcDbCircle
 10
-11.00099978385548
 20
-12.50727450069439
 30
0.0
 40
1.500000000000036
100
AcDbArc
 50
131.3958978443728
 51
179.9999999999993
  0
LINE
  5
303
330
1004A
100
AcDbEntity
  8
0
100
AcDbLine
 10
-12.50099978385552
 20
-12.50727450069438
 30
0.0
 11
-12.50099978385551
 21
-15.25000000000047
 31
0.0
  0
ARC
  5
304
330
1004A
100
AcDbEntity
  8
0
100
AcDbCircle
 10
-8.50099978385552
 20
-15.25000000000047
 30
0.0
 40
3.999999999999995
100
AcDbArc
 50
180.0
 51
270.0
  0
LINE
  5
305
330
1004A
100
AcDbEntity
  8
0
100
AcDbLine
 10
-8.50099978385553
 20
-19.25000000000046
 30
0.0
 11
132.0090002161445
 21
-19.25000000000048
 31
0.0
  0
ARC
  5
306
330
1004A
100
AcDbEntity
  8
0
100
AcDbCircle
 10
132.0090002161445
 20
-15.25000000000057
 30
0.0
 40
3.999999999999988
100
AcDbArc
 50
270.0
 51
85.00000000000051
  0
LINE
  5
307
330
1004A
100
AcDbEntity
  8
0
100
AcDbLine
 10
132.3576231871351
 20
-11.26522120763347
 30
0.0
 11
116.3336537437471
 21
-9.863305536651211
 31
0.0
  0
ARC
  5
308
330
1004A
100
AcDbEntity
  8
0
100
AcDbCircle
 10
116.6822767147378
 20
-5.878526744283391
 30
0.0
 40
4.000000000000878
100
AcDbArc
 50
193.0674048198873
 51
265.0000000000002
  0
ARC
  5
309
330
1004A
100
AcDbEntity
  8
0
100
AcDbCircle
 10
142.0090002161446
 20
-0.0000000000004263
 30
0.0
 40
30.00000000000009
100
AcDbArc
 50
166.9325951801133
 51
193.067404819887
  0
ARC
  5
310
330
1004A
100
AcDbEntity
  8
0
100
AcDbCircle
 10
116.6822767147378
 20
5.878526744282482
 30
0.0
 40
4.000000000000862
100
AcDbArc
 50
94.9999999999994
 51
166.9325951801133
  0
LINE
  5
311
330
1004A
100
AcDbEntity
  8
0
100
AcDbLine
 10
116.3336537437471
 20
9.863305536650302
 30
0.0
 11
132.3576231871351
 21
11.26522120763256
 31
0.0
  0
ARC
  5
312
330
1004A
100
AcDbEntity
  8
0
100
AcDbCircle
 10
132.0090002161445
 20
15.24999999999953
 30
0.0
 40
3.999999999999999
100
AcDbArc
 50
275.0
 51
90.0
  0
LINE
  5
313
330
1004A
100
AcDbEntity
  8
0
100
AcDbLine
 10
132.0090002161445
 20
19.24999999999956
 30
0.0
 11
-8.500999783855526
 21
19.24999999999955
 31
0.0
  0
ARC
  5
314
330
1004A
100
AcDbEntity
  8
0
100
AcDbCircle
 10
-8.500999783855521
 20
15.24999999999953
 30
0.0
 40
4.000000000000005
100
AcDbArc
 50
90.0
 51
179.9999999999999
  0
LINE
  5
315
330
1004A
100
AcDbEntity
  8
0
100
AcDbLine
 10
-12.50099978385552
 20
15.24999999999955
 30
0.0
 11
-12.50099978385552
 21
12.50727450069344
 31
0.0
  0
VIEWPORT
  5
10108
330
10046
100
AcDbEntity
 67
     1
  8
0
 62
    18
100
AcDbViewport
 10
5.25
 20
4.0
 30
0.0
 40
11.638
 41
8.993
 68
     1
 69
     1
1001
ACAD
1000
MVIEW
1002
{
1070
    16
1010
0.0
1020
0.0
1030
0.0
1010
0.0
1020
0.0
1030
1.0
1040
0.0
1040
8.993
1040
5.25
1040
4.0
1040
50.0
1040
0.0
1040
0.0
1070
     0
1070
   100
1070
     0
1070
     3
1070
     0
1070
     0
1070
     0
1070
     0
1040
0.0
1040
0.0
1040
0.0
1040
0.5
1040
0.5
1040
0.5
1040
0.5
1070
     0
1002
{
1002
}
1002
}
  0
ENDSEC
  0
SECTION
  2
OBJECTS
  0
DICTIONARY
  5
10038
330
0
100
AcDbDictionary
  3
ACAD_GROUP
350
10039
  3
ACAD_LAYOUT
350
10045
  3
ACAD_MATERIAL
350
1006E
  3
ACAD_MLEADERSTYLE
350
10096
  3
ACAD_MLINESTYLE
350
10042
  3
ACAD_PLOTSETTINGS
350
10044
  3
ACAD_SCALELIST
350
10072
  3
ACAD_VISUALSTYLE
350
10055
  3
ACDBHEADERROUNDTRIPXREC
350
1010A
  3
ACDBVARIABLEDICTIONARY
350
1012B
  3
QCAD_OBJECTS
350
1009A
  0
DICTIONARY
  5
10132
330
10034
100
AcDbDictionary
280
     1
  3
ACAD_XREC_ROUNDTRIP
360
10133
  0
DICTIONARY
  5
10039
102
{ACAD_REACTORS
330
10038
102
}
330
10038
100
AcDbDictionary
  0
DICTIONARY
  5
10045
102
{ACAD_REACTORS
330
10038
102
}
330
10038
100
AcDbDictionary
  0
DICTIONARY
  5
1006E
102
{ACAD_REACTORS
330
10038
102
}
330
10038
100
AcDbDictionary
  3
BYBLOCK
350
10070
  3
BYLAYER
350
1006F
  3
GLOBAL
350
10071
  0
DICTIONARY
  5
10096
102
{ACAD_REACTORS
330
10038
102
}
330
10038
100
AcDbDictionary
  3
STANDARD
350
10097
  0
DICTIONARY
  5
10042
102
{ACAD_REACTORS
330
10038
102
}
330
10038
100
AcDbDictionary
  3
STANDARD
350
10043
  0
DICTIONARY
  5
10044
102
{ACAD_REACTORS
330
10038
102
}
330
10038
100
AcDbDictionary
  0
DICTIONARY
  5
10072
102
{ACAD_REACTORS
330
10038
102
}
330
10038
100
AcDbDictionary
  3
A0
350
10073
  3
A1
350
10074
  3
A2
350
10075
  3
A3
350
10076
  3
A4
350
10077
  3
A5
350
10078
  3
A6
350
10079
  3
A7
350
1007A
  3
A8
350
1007B
  3
A9
350
1007C
  3
B0
350
1007D
  3
B1
350
1007E
  3
B2
350
1007F
  3
B3
350
10080
  3
B4
350
10081
  3
B5
350
10082
  3
B6
350
10083
  3
B7
350
10084
  3
B8
350
10085
  3
B9
350
10086
  3
C0
350
10087
  3
C1
350
10088
  3
C2
350
10089
  3
C3
350
1008A
  3
C4
350
1008B
  3
C5
350
1008C
  3
C6
350
1008D
  3
C7
350
1008E
  3
C8
350
1008F
  3
C9
350
10090
  3
D0
350
10091
  3
D1
350
10092
  3
D2
350
10093
  0
DICTIONARY
  5
10055
102
{ACAD_REACTORS
330
10038
102
}
330
10038
100
AcDbDictionary
  3
2DWIREFRAME
350
1005A
  3
BASIC
350
1005D
  3
BRIGHTEN
350
10061
  3
COLORCHANGE
350
10065
  3
CONCEPTUAL
350
1005F
  3
DIM
350
10060
  3
EDGECOLOROFF
350
10068
  3
FACEPATTERN
350
10064
  3
FLAT
350
10056
  3
FLATWITHEDGES
350
10057
  3
GOURAUD
350
10058
  3
GOURAUDWITHEDGES
350
10059
  3
HIDDEN
350
1005C
  3
JITTEROFF
350
10066
  3
LINEPATTERN
350
10063
  3
OVERHANGOFF
350
10067
  3
REALISTIC
350
1005E
  3
SHADED
350
1006D
  3
SHADED_WITH_EDGES
350
1006C
  3
SHADES_OF_GRAY
350
10069
  3
SKETCHY
350
1006A
  3
THICKEN
350
10062
  3
WIREFRAME
350
1005B
  3
X-RAY
350
1006B
  0
DICTIONARY
  5
1010A
102
{ACAD_REACTORS
330
10038
102
}
330
10038
100
AcDbDictionary
  3
CEPSNID
350
10114
  3
CEPSNTYPE
350
10113
  3
DIMSTYLEDATA
350
1012A
  3
FINGERPRINTGUID
350
10115
  3
HYPERLINKBASE
350
1010D
  3
INSUNITS
350
10112
  3
LAYOUTDICT
350
1010F
  3
LWETCUNION
350
10111
  3
PLOTSETDICT
350
10110
  3
PSVPSCALE
350
10117
  3
PUCSBASE
350
1011A
  3
PUCSORGBACK
350
10120
  3
PUCSORGBOTTOM
350
1011C
  3
PUCSORGFRONT
350
1011F
  3
PUCSORGLEFT
350
1011D
  3
PUCSORGRIGHT
350
1011E
  3
PUCSORGTOP
350
1011B
  3
PUCSORTHOREF
350
10118
  3
PUCSORTHOVIEW
350
10119
  3
STYLESHEET
350
1010E
  3
TSTACKALIGN
350
1010B
  3
TSTACKSIZE
350
1010C
  3
UCSBASE
350
10123
  3
UCSORGBACK
350
10129
  3
UCSORGBOTTOM
350
10125
  3
UCSORGFRONT
350
10128
  3
UCSORGLEFT
350
10126
  3
UCSORGRIGHT
350
10127
  3
UCSORGTOP
350
10124
  3
UCSORTHOREF
350
10121
  3
UCSORTHOVIEW
350
10122
  3
VERSIONGUID
350
10116
  0
DICTIONARY
  5
1012B
102
{ACAD_REACTORS
330
10038
102
}
330
10038
100
AcDbDictionary
  3
CANNOSCALE
350
10134
  3
CMLEADERSTYLE
350
1012D
  3
CTABLESTYLE
350
1012C
  3
DIMASSOC
350
10130
  3
HIDETEXT
350
10131
  3
MSLTSCALE
350
10135
  0
DICTIONARY
  5
1009A
102
{ACAD_REACTORS
330
10038
102
}
330
10038
100
AcDbDictionary
  3
COLORSETTINGS/BACKGROUNDCOLOR
350
1009C
  3
COLORSETTINGS/COLORMODE
350
1009D
  3
GRID/DISPLAYGRID00
350
1009E
  3
GRID/DISPLAYGRID01
350
1009F
  3
GRID/DISPLAYGRID02
350
100A0
  3
GRID/DISPLAYGRID03
350
100A1
  3
GRID/GRIDSPACINGX00
350
100A2
  3
GRID/GRIDSPACINGX01
350
100A3
  3
GRID/GRIDSPACINGX02
350
100A4
  3
GRID/GRIDSPACINGX03
350
100A5
  3
GRID/GRIDSPACINGY00
350
100A6
  3
GRID/GRIDSPACINGY01
350
100A7
  3
GRID/GRIDSPACINGY02
350
100A8
  3
GRID/GRIDSPACINGY03
350
100A9
  3
GRID/ISOMETRICGRID00
350
100AA
  3
GRID/ISOMETRICGRID01
350
100AB
  3
GRID/ISOMETRICGRID02
350
100AC
  3
GRID/ISOMETRICGRID03
350
100AD
  3
GRID/ISOMETRICPROJECTION00
350
100AE
  3
GRID/ISOMETRICPROJECTION01
350
100AF
  3
GRID/ISOMETRICPROJECTION02
350
100B0
  3
GRID/ISOMETRICPROJECTION03
350
100B1
  3
GRID/METAGRIDSPACINGX00
350
100B2
  3
GRID/METAGRIDSPACINGX01
350
100B3
  3
GRID/METAGRIDSPACINGX02
350
100B4
  3
GRID/METAGRIDSPACINGX03
350
100B5
  3
GRID/METAGRIDSPACINGY00
350
100B6
  3
GRID/METAGRIDSPACINGY01
350
100B7
  3
GRID/METAGRIDSPACINGY02
350
100B8
  3
GRID/METAGRIDSPACINGY03
350
100B9
  3
MULTIPAGESETTINGS/COLUMNS
350
100BA
  3
MULTIPAGESETTINGS/GLUEMAR0
350
100BC
  3
MULTIPAGESETTINGS/GLUEMAR1
350
100BD
  3
MULTIPAGESETTINGS/GLUEMAR2
350
100BE
  3
MULTIPAGESETTINGS/GLUEMARG
350
100BB
  3
MULTIPAGESETTINGS/PRINTCRO
350
100BF
  3
MULTIPAGESETTINGS/ROWS
350
100C0
  3
PAGESETTINGS/OFFSETX
350
100C1
  3
PAGESETTINGS/OFFSETY
350
100C2
  3
PAGESETTINGS/PAGEORIENTATION
350
100C3
  3
PAGESETTINGS/PAPERHEIGHT
350
100C4
  3
PAGESETTINGS/PAPERWIDTH
350
100C5
  3
PAGESETTINGS/SCALE
350
100C6
  3
PAGESETTINGS/SHOWPAPERBORDERS
350
100C7
  3
QCADVERSION
350
1009B
  3
UNITSETTINGS/PAPERUNIT
350
100C8
  3
VIEWPORTCENTER
350
100C9
  3
VIEWPORTHEIGHT
350
100CA
  3
VIEWPORTWIDTH
350
100CB
  0
XRECORD
  5
10133
102
{ACAD_REACTORS
330
10132
102
}
330
10132
100
AcDbXrecord
102
VTR_0.000_0.000_1.000_1.000_VISUALSTYLE
340
1005A
102
VTR_0.000_0.000_1.000_1.000_GRIDDISPLAY
 70
     3
102
VTR_0.000_0.000_1.000_1.000_GRIDMAJOR
 70
     5
102
VTR_0.000_0.000_1.000_1.000_DEFAULTLIGHTING
280
     1
102
VTR_0.000_0.000_1.000_1.000_DEFAULTLIGHTINGTYPE
 70
     1
102
VTR_0.000_0.000_1.000_1.000_BRIGHTNESS
141
0.0
102
VTR_0.000_0.000_1.000_1.000_CONTRAST
142
0.0
  0
MATERIAL
  5
10070
102
{ACAD_REACTORS
330
1006E
102
}
102
{ACAD_XDICTIONARY
360
10138
102
}
330
1006E
100
AcDbMaterial
  1
BYBLOCK
  0
MATERIAL
  5
1006F
102
{ACAD_REACTORS
330
1006E
102
}
102
{ACAD_XDICTIONARY
360
10136
102
}
330
1006E
100
AcDbMaterial
  1
BYLAYER
  0
MATERIAL
  5
10071
102
{ACAD_REACTORS
330
1006E
102
}
102
{ACAD_XDICTIONARY
360
1013A
102
}
330
1006E
100
AcDbMaterial
  1
GLOBAL
  0
ACAD_PROXY_OBJECT
  5
10097
102
{ACAD_REACTORS
330
10096
102
}
330
10096
100
AcDbProxyObject
 90
      499
 91
      505
 93
      610
310
40901902A4063FBFFFFFE056BD1B81E855B9FC0AD7A3703D0AD73F4214DD185B99185C9900AD7A3703D0AC73F90141901A02B5E8DC0F42B1CFC02B5E8DC0F42B1CFE5764000000000000300FC0
340
1003F
340
0
340
1003D
340
0
 94
        0
1001
ACAD_MLEADERVER
1070
     2
  0
MLINESTYLE
  5
10043
102
{ACAD_REACTORS
330
10042
102
}
330
10042
100
AcDbMlineStyle
  2
Standard
 70
     0
  3

 62
   256
 51
90.0
 52
90.0
 71
     2
 49
0.5
 62
   256
  6
BYLAYER
 49
-0.5
 62
   256
  6
BYLAYER
  0
ACAD_PROXY_OBJECT
  5
10073
102
{ACAD_REACTORS
330
10072
102
}
330
10072
100
AcDbProxyObject
 90
      499
 91
      503
 93
       41
310
903313A31580
  0
ACAD_PROXY_OBJECT
  5
10074
102
{ACAD_REACTORS
330
10072
102
}
330
10072
100
AcDbProxyObject
 90
      499
 91
      503
 93
      105
310
903313A324000000000000004000
  0
ACAD_PROXY_OBJECT
  5
10075
102
{ACAD_REACTORS
330
10072
102
}
330
10072
100
AcDbProxyObject
 90
      499
 91
      503
 93
      105
310
903313A344000000000000104000
  0
ACAD_PROXY_OBJECT
  5
10076
102
{ACAD_REACTORS
330
10072
102
}
330
10072
100
AcDbProxyObject
 90
      499
 91
      503
 93
      105
310
903313A354000000000000144000
  0
ACAD_PROXY_OBJECT
  5
10077
102
{ACAD_REACTORS
330
10072
102
}
330
10072
100
AcDbProxyObject
 90
      499
 91
      503
 93
      105
310
903313A384000000000000204000
  0
ACAD_PROXY_OBJECT
  5
10078
102
{ACAD_REACTORS
330
10072
102
}
330
10072
100
AcDbProxyObject
 90
      499
 91
      503
 93
      113
310
904313A31304000000000000244000
  0
ACAD_PROXY_OBJECT
  5
10079
102
{ACAD_REACTORS
330
10072
102
}
330
10072
100
AcDbProxyObject
 90
      499
 91
      503
 93
      113
310
904313A31364000000000000304000
  0
ACAD_PROXY_OBJECT
  5
1007A
102
{ACAD_REACTORS
330
10072
102
}
330
10072
100
AcDbProxyObject
 90
      499
 91
      503
 93
      113
310
904313A32304000000000000344000
  0
ACAD_PROXY_OBJECT
  5
1007B
102
{ACAD_REACTORS
330
10072
102
}
330
10072
100
AcDbProxyObject
 90
      499
 91
      503
 93
      113
310
904313A333040000000000003E4000
  0
ACAD_PROXY_OBJECT
  5
1007C
102
{ACAD_REACTORS
330
10072
102
}
330
10072
100
AcDbProxyObject
 90
      499
 91
      503
 93
      113
310
904313A34304000000000000444000
  0
ACAD_PROXY_OBJECT
  5
1007D
102
{ACAD_REACTORS
330
10072
102
}
330
10072
100
AcDbProxyObject
 90
      499
 91
      503
 93
      113
310
904313A35304000000000000494000
  0
ACAD_PROXY_OBJECT
  5
1007E
102
{ACAD_REACTORS
330
10072
102
}
330
10072
100
AcDbProxyObject
 90
      499
 91
      503
 93
      121
310
905313A3130304000000000000594000
  0
ACAD_PROXY_OBJECT
  5
1007F
102
{ACAD_REACTORS
330
10072
102
}
330
10072
100
AcDbProxyObject
 90
      499
 91
      503
 93
      105
310
903323A310000000000000010100
  0
ACAD_PROXY_OBJECT
  5
10080
102
{ACAD_REACTORS
330
10072
102
}
330
10072
100
AcDbProxyObject
 90
      499
 91
      503
 93
      105
310
903343A310000000000000410100
  0
ACAD_PROXY_OBJECT
  5
10081
102
{ACAD_REACTORS
330
10072
102
}
330
10072
100
AcDbProxyObject
 90
      499
 91
      503
 93
      105
310
903383A310000000000000810100
  0
ACAD_PROXY_OBJECT
  5
10082
102
{ACAD_REACTORS
330
10072
102
}
330
10072
100
AcDbProxyObject
 90
      499
 91
      503
 93
      113
310
90431303A310000000000000910100
  0
ACAD_PROXY_OBJECT
  5
10083
102
{ACAD_REACTORS
330
10072
102
}
330
10072
100
AcDbProxyObject
 90
      499
 91
      503
 93
      121
310
9053130303A310000000000001650100
  0
ACAD_PROXY_OBJECT
  5
10084
102
{ACAD_REACTORS
330
10072
102
}
330
10072
100
AcDbProxyObject
 90
      499
 91
      503
 93
      257
310
90E312F31323822203D2031272D3022000000000000200FC000000000000284000
  0
ACAD_PROXY_OBJECT
  5
10085
102
{ACAD_REACTORS
330
10072
102
}
330
10072
100
AcDbProxyObject
 90
      499
 91
      503
 93
      249
310
90D312F363422203D2031272D3022000000000000240FC000000000000284000
  0
ACAD_PROXY_OBJECT
  5
10086
102
{ACAD_REACTORS
330
10072
102
}
330
10072
100
AcDbProxyObject
 90
      499
 91
      503
 93
      249
310
90D312F333222203D2031272D3022000000000000280FC000000000000284000
  0
ACAD_PROXY_OBJECT
  5
10087
102
{ACAD_REACTORS
330
10072
102
}
330
10072
100
AcDbProxyObject
 90
      499
 91
      503
 93
      249
310
90D312F313622203D2031272D30220000000000002C0FC000000000000284000
  0
ACAD_PROXY_OBJECT
  5
10088
102
{ACAD_REACTORS
330
10072
102
}
330
10072
100
AcDbProxyObject
 90
      499
 91
      503
 93
      249
310
90D332F333222203D2031272D30220000000000002E0FC000000000000284000
  0
ACAD_PROXY_OBJECT
  5
10089
102
{ACAD_REACTORS
330
10072
102
}
330
10072
100
AcDbProxyObject
 90
      499
 91
      503
 93
      241
310
90C312F3822203D2031272D3022000000000000300FC000000000000284000
  0
ACAD_PROXY_OBJECT
  5
1008A
102
{ACAD_REACTORS
330
10072
102
}
330
10072
100
AcDbProxyObject
 90
      499
 91
      503
 93
      249
310
90D332F313622203D2031272D3022000000000000320FC000000000000284000
  0
ACAD_PROXY_OBJECT
  5
1008B
102
{ACAD_REACTORS
330
10072
102
}
330
10072
100
AcDbProxyObject
 90
      499
 91
      503
 93
      241
310
90C312F3422203D2031272D3022000000000000340FC000000000000284000
  0
ACAD_PROXY_OBJECT
  5
1008C
102
{ACAD_REACTORS
330
10072
102
}
330
10072
100
AcDbProxyObject
 90
      499
 91
      503
 93
      241
310
90C332F3822203D2031272D3022000000000000360FC000000000000284000
  0
ACAD_PROXY_OBJECT
  5
1008D
102
{ACAD_REACTORS
330
10072
102
}
330
10072
100
AcDbProxyObject
 90
      499
 91
      503
 93
      241
310
90C312F3222203D2031272D3022000000000000380FC000000000000284000
  0
ACAD_PROXY_OBJECT
  5
1008E
102
{ACAD_REACTORS
330
10072
102
}
330
10072
100
AcDbProxyObject
 90
      499
 91
      503
 93
      241
310
90C332F3422203D2031272D30220000000000003A0FC000000000000284000
  0
ACAD_PROXY_OBJECT
  5
1008F
102
{ACAD_REACTORS
330
10072
102
}
330
10072
100
AcDbProxyObject
 90
      499
 91
      503
 93
      161
310
90A3122203D2031272D30224000000000000284000
  0
ACAD_PROXY_OBJECT
  5
10090
102
{ACAD_REACTORS
330
10072
102
}
330
10072
100
AcDbProxyObject
 90
      499
 91
      503
 93
      257
310
90E312D312F3222203D2031272D30220000000000003E0FC000000000000284000
  0
ACAD_PROXY_OBJECT
  5
10091
102
{ACAD_REACTORS
330
10072
102
}
330
10072
100
AcDbProxyObject
 90
      499
 91
      503
 93
      225
310
90A3322203D2031272D302200000000000002100000000000000284000
  0
ACAD_PROXY_OBJECT
  5
10092
102
{ACAD_REACTORS
330
10072
102
}
330
10072
100
AcDbProxyObject
 90
      499
 91
      503
 93
      225
310
90A3622203D2031272D302200000000000006100000000000000284000
  0
ACAD_PROXY_OBJECT
  5
10093
102
{ACAD_REACTORS
330
10072
102
}
330
10072
100
AcDbProxyObject
 90
      499
 91
      503
 93
      249
310
90D31272D3022203D2031272D30220000000000000A100000000000000284000
  0
ACAD_PROXY_OBJECT
  5
1005A
102
{ACAD_REACTORS
330
10055
102
}
330
10055
100
AcDbProxyObject
 90
      499
 91
      501
 93
      436
310
42CC9915DA5C99599C985B595049028333333333333E33F0000000000000F90107901411070040501600405405064090741402480A0340
1001
ACAD
1000
AcDbSavedByObjectVersion
1070
     0
  0
ACAD_PROXY_OBJECT
  5
1005D
102
{ACAD_REACTORS
330
10055
102
}
330
10055
100
AcDbProxyObject
 90
      499
 91
      501
 93
      388
310
4150985CDA58D07406404333333333333E33F0000000000000F90107A41107004050150841D405064090741402480A0350
1001
ACAD
1000
AcDbSavedByObjectVersion
1070
     0
  0
ACAD_PROXY_OBJECT
  5
10061
102
{ACAD_REACTORS
330
10055
102
}
330
10055
100
AcDbProxyObject
 90
      499
 91
      501
 93
      428
310
42109C9A59DA1D195B90C409028333333333333E33F0000000000000F9010790141107004050150841D405064090741402480A029950
1001
ACAD
1000
AcDbSavedByObjectVersion
1070
     0
  0
ACAD_PROXY_OBJECT
  5
10065
102
{ACAD_REACTORS
330
10055
102
}
330
10055
100
AcDbProxyObject
 90
      499
 91
      501
 93
      452
310
42D0DBDB1BDC90DA185B99D95104090240C333333333333E33F0000000000000F90108901411070040501508421405064090741402480A0350
1001
ACAD
1000
AcDbSavedByObjectVersion
1070
     0
  0
ACAD_PROXY_OBJECT
  5
1005F
102
{ACAD_REACTORS
330
10055
102
}
330
10055
100
AcDbProxyObject
 90
      499
 91
      501
 93
      500
310
4290DBDB98D95C1D1D585B10940D028333333333333E33F0000000000000F90107902409070040501000000000018199010841D405064090740C02480A0340
1001
ACAD
1000
AcDbSavedByObjectVersion
1070
     0
  0
ACAD_PROXY_OBJECT
  5
10060
102
{ACAD_REACTORS
330
10055
102
}
330
10055
100
AcDbProxyObject
 90
      499
 91
      501
 93
      412
310
40D11A5B50B409028333333333333E33F0000000000000F9010790141107004050150841D405064090741402480A02677FFFFFD0
1001
ACAD
1000
AcDbSavedByObjectVersion
1070
     0
  0
ACAD_PROXY_OBJECT
  5
10068
102
{ACAD_REACTORS
330
10055
102
}
330
10055
100
AcDbProxyObject
 90
      499
 91
      501
 93
      452
310
43115919D950DBDB1BDC93D999916409028333333333333E33F0000000000000F9010790141107004050150841D405064090741402480A0350
1001
ACAD
1000
AcDbSavedByObjectVersion
1070
     0
  0
ACAD_PROXY_OBJECT
  5
10064
102
{ACAD_REACTORS
330
10055
102
}
330
10055
100
AcDbProxyObject
 90
      499
 91
      501
 93
      444
310
42D19858D95C185D1D195C9B90F409028333333333333E33F0000000000000F9010790141107004050150841D405064090741402480A0350
1001
ACAD
1000
AcDbSavedByObjectVersion
1070
     0
  0
ACAD_PROXY_OBJECT
  5
10056
102
{ACAD_REACTORS
330
10055
102
}
330
10055
100
AcDbProxyObject
 90
      499
 91
      501
 93
      380
310
41119B185D240901404333333333333E33F0000000000000F9010740A907004050150841D405064090741402480A1B50
1001
ACAD
1000
AcDbSavedByObjectVersion
1070
     0
  0
ACAD_PROXY_OBJECT
  5
10057
102
{ACAD_REACTORS
330
10055
102
}
330
10055
100
AcDbProxyObject
 90
      499
 91
      501
 93
      468
310
43519B185D15DA5D1A115919D95CD0140901404333333333333E33F0000000000000F90107409019070040501600405405064090741402480A1B50
1001
ACAD
1000
AcDbSavedByObjectVersion
1070
     0
  0
ACAD_PROXY_OBJECT
  5
10058
102
{ACAD_REACTORS
330
10055
102
}
330
10055
100
AcDbProxyObject
 90
      499
 91
      501
 93
      404
310
41D1DBDD5C985D5910240902404333333333333E33F0000000000000F9010740A9070040501641D405064090741402480A1B50
1001
ACAD
1000
AcDbSavedByObjectVersion
1070
     0
  0
ACAD_PROXY_OBJECT
  5
10059
102
{ACAD_REACTORS
330
10055
102
}
330
10055
100
AcDbProxyObject
 90
      499
 91
      501
 93
      492
310
4411DBDD5C985D5915DA5D1A115919D95CD0340902404333333333333E33F0000000000000F90107409019070040501600405405064090741402480A1B50
1001
ACAD
1000
AcDbSavedByObjectVersion
1070
     0
  0
ACAD_PROXY_OBJECT
  5
1005C
102
{ACAD_REACTORS
330
10055
102
}
330
10055
100
AcDbProxyObject
 90
      499
 91
      501
 93
      476
310
41921A5919195B90640502408333333333333E33F0000000000000F901079024090700405020000000000001110200405405064090740C02480A0340
1001
ACAD
1000
AcDbSavedByObjectVersion
1070
     0
  0
ACAD_PROXY_OBJECT
  5
10066
102
{ACAD_REACTORS
330
10055
102
}
330
10055
100
AcDbProxyObject
 90
      499
 91
      501
 93
      428
310
42529A5D1D195C93D999914409028333333333333E33F0000000000000F9010790141107004050150A41D405064090741402480A0350
1001
ACAD
1000
AcDbSavedByObjectVersion
1070
     0
  0
ACAD_PROXY_OBJECT
  5
10063
102
{ACAD_REACTORS
330
10055
102
}
330
10055
100
AcDbProxyObject
 90
      499
 91
      501
 93
      444
310
42D31A5B995C185D1D195C9B90E409028333333333333E33F0000000000000F9010790141107004050750841D405064090741402483A0350
1001
ACAD
1000
AcDbSavedByObjectVersion
1070
     0
  0
ACAD_PROXY_OBJECT
  5
10067
102
{ACAD_REACTORS
330
10055
102
}
330
10055
100
AcDbProxyObject
 90
      499
 91
      501
 93
      444
310
42D3DD995C9A185B99D3D999915409028333333333333E33F0000000000000F9010790141107004050150941D405064090741402480A0350
1001
ACAD
1000
AcDbSavedByObjectVersion
1070
     0
  0
ACAD_PROXY_OBJECT
  5
1005E
102
{ACAD_REACTORS
330
10055
102
}
330
10055
100
AcDbProxyObject
 90
      499
 91
      501
 93
      428
310
425499585B1A5CDD1A58D08409038333333333333E33F0000000000000F9010740A907004050150800405405064090740C02480A1B40
1001
ACAD
1000
AcDbSavedByObjectVersion
1070
     0
  0
ACAD_PROXY_OBJECT
  5
1006D
102
{ACAD_REACTORS
330
10055
102
}
330
10055
100
AcDbProxyObject
 90
      499
 91
      501
 93
      420
310
4194DA1859195911B40902404333333333333E33F0000000000000F9010740A41107004050150800405405064090840C02480A0B40
1001
ACAD
1000
AcDbSavedByObjectVersion
1070
     0
  0
ACAD_PROXY_OBJECT
  5
1006C
102
{ACAD_REACTORS
330
10055
102
}
330
10055
100
AcDbProxyObject
 90
      499
 91
      501
 93
      516
310
4454DA18591959081DDA5D1A08195919D95CD1A40902404333333333333E33F0000000000000F901074090142907004050250800405405064090740C02480A0B40
1001
ACAD
1000
AcDbSavedByObjectVersion
1070
     0
  0
ACAD_PROXY_OBJECT
  5
10069
102
{ACAD_REACTORS
330
10055
102
}
330
10055
100
AcDbProxyObject
 90
      499
 91
      501
 93
      532
310
4394DA1859195CC81BD98811DC985E5174090240C333333333333E33F0000000000000F901079024090741D01000000000000111010841D405064090740C02480A0340
1001
ACAD
1000
AcDbSavedByObjectVersion
1070
     0
  0
ACAD_PROXY_OBJECT
  5
1006A
102
{ACAD_REACTORS
330
10055
102
}
330
10055
100
AcDbProxyObject
 90
      499
 91
      501
 93
      476
310
41D4DAD95D18DA1E51840502408333333333333E33F0000000000000F901079024090741D01000000000000111010B41D405064090741802480A0340
1001
ACAD
1000
AcDbSavedByObjectVersion
1070
     0
  0
ACAD_PROXY_OBJECT
  5
10062
102
{ACAD_REACTORS
330
10055
102
}
330
10055
100
AcDbProxyObject
 90
      499
 91
      501
 93
      412
310
41D51A1A58DAD95B90D409028333333333333E33F0000000000000F9010790141107004050150C41D405064090741402480A0350
1001
ACAD
1000
AcDbSavedByObjectVersion
1070
     0
  0
ACAD_PROXY_OBJECT
  5
1005B
102
{ACAD_REACTORS
330
10055
102
}
330
10055
100
AcDbProxyObject
 90
      499
 91
      501
 93
      420
310
4255DA5C99599C985B595059028333333333333E33F0000000000000F90107901411070040501600405405064090740C02480A0340
1001
ACAD
1000
AcDbSavedByObjectVersion
1070
     0
  0
ACAD_PROXY_OBJECT
  5
1006B
102
{ACAD_REACTORS
330
10055
102
}
330
10055
100
AcDbProxyObject
 90
      499
 91
      501
 93
      404
310
41560B54985E51940902404000000000000E03F0000000000000F9010740501907004050150841D405064090740C02480A1B40
1001
ACAD
1000
AcDbSavedByObjectVersion
1070
     0
  0
XRECORD
  5
10114
102
{ACAD_REACTORS
330
1010A
102
}
330
1010A
100
AcDbXrecord
340
0
  0
XRECORD
  5
10113
102
{ACAD_REACTORS
330
1010A
102
}
330
1010A
100
AcDbXrecord
 90
        0
  0
XRECORD
  5
1012A
102
{ACAD_REACTORS
330
1010A
102
}
330
1010A
100
AcDbXrecord
1000
DSTYLE
1002
{
1070
   176
 70
    18
1070
   177
 70
    18
1070
   178
 70
    18
1070
   340
340
1003D
1002
}
  0
XRECORD
  5
10115
102
{ACAD_REACTORS
330
1010A
102
}
330
1010A
100
AcDbXrecord
  1
{bfc09869-f6c2-4b47-af5e-a85f89684e18}
  0
XRECORD
  5
1010D
102
{ACAD_REACTORS
330
1010A
102
}
330
1010A
100
AcDbXrecord
  1

  0
XRECORD
  5
10112
102
{ACAD_REACTORS
330
1010A
102
}
330
1010A
100
AcDbXrecord
 90
        4
  0
XRECORD
  5
1010F
102
{ACAD_REACTORS
330
1010A
102
}
330
1010A
100
AcDbXrecord
340
10045
  0
XRECORD
  5
10111
102
{ACAD_REACTORS
330
1010A
102
}
330
1010A
100
AcDbXrecord
 90
    10781
  0
XRECORD
  5
10110
102
{ACAD_REACTORS
330
1010A
102
}
330
1010A
100
AcDbXrecord
340
10044
  0
XRECORD
  5
10117
102
{ACAD_REACTORS
330
1010A
102
}
330
1010A
100
AcDbXrecord
 40
0.0
  0
XRECORD
  5
1011A
102
{ACAD_REACTORS
330
1010A
102
}
330
1010A
100
AcDbXrecord
340
0
  0
XRECORD
  5
10120
102
{ACAD_REACTORS
330
1010A
102
}
330
1010A
100
AcDbXrecord
 10
0.0
 20
0.0
 30
0.0
  0
XRECORD
  5
1011C
102
{ACAD_REACTORS
330
1010A
102
}
330
1010A
100
AcDbXrecord
 10
0.0
 20
0.0
 30
0.0
  0
XRECORD
  5
1011F
102
{ACAD_REACTORS
330
1010A
102
}
330
1010A
100
AcDbXrecord
 10
0.0
 20
0.0
 30
0.0
  0
XRECORD
  5
1011D
102
{ACAD_REACTORS
330
1010A
102
}
330
1010A
100
AcDbXrecord
 10
0.0
 20
0.0
 30
0.0
  0
XRECORD
  5
1011E
102
{ACAD_REACTORS
330
1010A
102
}
330
1010A
100
AcDbXrecord
 10
0.0
 20
0.0
 30
0.0
  0
XRECORD
  5
1011B
102
{ACAD_REACTORS
330
1010A
102
}
330
1010A
100
AcDbXrecord
 10
0.0
 20
0.0
 30
0.0
  0
XRECORD
  5
10118
102
{ACAD_REACTORS
330
1010A
102
}
330
1010A
100
AcDbXrecord
340
0
  0
XRECORD
  5
10119
102
{ACAD_REACTORS
330
1010A
102
}
330
1010A
100
AcDbXrecord
 70
     0
  0
XRECORD
  5
1010E
102
{ACAD_REACTORS
330
1010A
102
}
330
1010A
100
AcDbXrecord
  1

  0
XRECORD
  5
1010B
102
{ACAD_REACTORS
330
1010A
102
}
330
1010A
100
AcDbXrecord
 90
        1
  0
XRECORD
  5
1010C
102
{ACAD_REACTORS
330
1010A
102
}
330
1010A
100
AcDbXrecord
 90
       70
  0
XRECORD
  5
10123
102
{ACAD_REACTORS
330
1010A
102
}
330
1010A
100
AcDbXrecord
340
0
  0
XRECORD
  5
10129
102
{ACAD_REACTORS
330
1010A
102
}
330
1010A
100
AcDbXrecord
 10
0.0
 20
0.0
 30
0.0
  0
XRECORD
  5
10125
102
{ACAD_REACTORS
330
1010A
102
}
330
1010A
100
AcDbXrecord
 10
0.0
 20
0.0
 30
0.0
  0
XRECORD
  5
10128
102
{ACAD_REACTORS
330
1010A
102
}
330
1010A
100
AcDbXrecord
 10
0.0
 20
0.0
 30
0.0
  0
XRECORD
  5
10126
102
{ACAD_REACTORS
330
1010A
102
}
330
1010A
100
AcDbXrecord
 10
0.0
 20
0.0
 30
0.0
  0
XRECORD
  5
10127
102
{ACAD_REACTORS
330
1010A
102
}
330
1010A
100
AcDbXrecord
 10
0.0
 20
0.0
 30
0.0
  0
XRECORD
  5
10124
102
{ACAD_REACTORS
330
1010A
102
}
330
1010A
100
AcDbXrecord
 10
0.0
 20
0.0
 30
0.0
  0
XRECORD
  5
10121
102
{ACAD_REACTORS
330
1010A
102
}
330
1010A
100
AcDbXrecord
340
0
  0
XRECORD
  5
10122
102
{ACAD_REACTORS
330
1010A
102
}
330
1010A
100
AcDbXrecord
 70
     0
  0
XRECORD
  5
10116
102
{ACAD_REACTORS
330
1010A
102
}
330
1010A
100
AcDbXrecord
  1
{FAEB1C32-E019-11D5-929B-00C0DF256EC4}
  0
DICTIONARYVAR
  5
10134
102
{ACAD_REACTORS
330
1012B
102
}
330
1012B
100
DictionaryVariables
280
     0
  1
1:1
  0
DICTIONARYVAR
  5
1012D
102
{ACAD_REACTORS
330
1012B
102
}
330
1012B
100
DictionaryVariables
280
     0
  1
Standard
  0
DICTIONARYVAR
  5
1012C
102
{ACAD_REACTORS
330
1012B
102
}
330
1012B
100
DictionaryVariables
280
     0
  1
Standard
  0
DICTIONARYVAR
  5
10130
102
{ACAD_REACTORS
330
1012B
102
}
330
1012B
100
DictionaryVariables
280
     0
  1
2
  0
DICTIONARYVAR
  5
10131
102
{ACAD_REACTORS
330
1012B
102
}
330
1012B
100
DictionaryVariables
280
     0
  1
1
  0
DICTIONARYVAR
  5
10135
102
{ACAD_REACTORS
330
1012B
102
}
330
1012B
100
DictionaryVariables
280
     0
  1
1
  0
XRECORD
  5
1009C
102
{ACAD_REACTORS
330
1009A
102
}
330
1009A
100
AcDbXrecord
1000
#ffffff
  0
XRECORD
  5
1009D
102
{ACAD_REACTORS
330
1009A
102
}
330
1009A
100
AcDbXrecord
1000
FullColor
  0
ACAD_PROXY_OBJECT
  5
1009E
102
{ACAD_REACTORS
330
1009A
102
}
330
1009A
100
AcDbProxyObject
 90
      499
 91
      508
 93
       34
310
40C8804040
  0
ACAD_PROXY_OBJECT
  5
1009F
102
{ACAD_REACTORS
330
1009A
102
}
330
1009A
100
AcDbProxyObject
 90
      499
 91
      508
 93
       34
310
40C8804040
  0
ACAD_PROXY_OBJECT
  5
100A0
102
{ACAD_REACTORS
330
1009A
102
}
330
1009A
100
AcDbProxyObject
 90
      499
 91
      508
 93
       34
310
40C8804040
  0
ACAD_PROXY_OBJECT
  5
100A1
102
{ACAD_REACTORS
330
1009A
102
}
330
1009A
100
AcDbProxyObject
 90
      499
 91
      508
 93
       34
310
40C8804040
  0
XRECORD
  5
100A2
102
{ACAD_REACTORS
330
1009A
102
}
330
1009A
100
AcDbXrecord
1000
auto
  0
XRECORD
  5
100A3
102
{ACAD_REACTORS
330
1009A
102
}
330
1009A
100
AcDbXrecord
1000
auto
  0
XRECORD
  5
100A4
102
{ACAD_REACTORS
330
1009A
102
}
330
1009A
100
AcDbXrecord
1000
auto
  0
XRECORD
  5
100A5
102
{ACAD_REACTORS
330
1009A
102
}
330
1009A
100
AcDbXrecord
1000
auto
  0
XRECORD
  5
100A6
102
{ACAD_REACTORS
330
1009A
102
}
330
1009A
100
AcDbXrecord
1000
auto
  0
XRECORD
  5
100A7
102
{ACAD_REACTORS
330
1009A
102
}
330
1009A
100
AcDbXrecord
1000
auto
  0
XRECORD
  5
100A8
102
{ACAD_REACTORS
330
1009A
102
}
330
1009A
100
AcDbXrecord
1000
auto
  0
XRECORD
  5
100A9
102
{ACAD_REACTORS
330
1009A
102
}
330
1009A
100
AcDbXrecord
1000
auto
  0
ACAD_PROXY_OBJECT
  5
100AA
102
{ACAD_REACTORS
330
1009A
102
}
330
1009A
100
AcDbProxyObject
 90
      499
 91
      508
 93
       34
310
40C8804000
  0
ACAD_PROXY_OBJECT
  5
100AB
102
{ACAD_REACTORS
330
1009A
102
}
330
1009A
100
AcDbProxyObject
 90
      499
 91
      508
 93
       34
310
40C8804000
  0
ACAD_PROXY_OBJECT
  5
100AC
102
{ACAD_REACTORS
330
1009A
102
}
330
1009A
100
AcDbProxyObject
 90
      499
 91
      508
 93
       34
310
40C8804000
  0
ACAD_PROXY_OBJECT
  5
100AD
102
{ACAD_REACTORS
330
1009A
102
}
330
1009A
100
AcDbProxyObject
 90
      499
 91
      508
 93
       34
310
40C8804000
  0
XRECORD
  5
100AE
102
{ACAD_REACTORS
330
1009A
102
}
330
1009A
100
AcDbXrecord
 90
    65537
  0
XRECORD
  5
100AF
102
{ACAD_REACTORS
330
1009A
102
}
330
1009A
100
AcDbXrecord
 90
    65537
  0
XRECORD
  5
100B0
102
{ACAD_REACTORS
330
1009A
102
}
330
1009A
100
AcDbXrecord
 90
    65537
  0
XRECORD
  5
100B1
102
{ACAD_REACTORS
330
1009A
102
}
330
1009A
100
AcDbXrecord
 90
    65537
  0
XRECORD
  5
100B2
102
{ACAD_REACTORS
330
1009A
102
}
330
1009A
100
AcDbXrecord
1000
auto
  0
XRECORD
  5
100B3
102
{ACAD_REACTORS
330
1009A
102
}
330
1009A
100
AcDbXrecord
1000
auto
  0
XRECORD
  5
100B4
102
{ACAD_REACTORS
330
1009A
102
}
330
1009A
100
AcDbXrecord
1000
auto
  0
XRECORD
  5
100B5
102
{ACAD_REACTORS
330
1009A
102
}
330
1009A
100
AcDbXrecord
1000
auto
  0
XRECORD
  5
100B6
102
{ACAD_REACTORS
330
1009A
102
}
330
1009A
100
AcDbXrecord
1000
auto
  0
XRECORD
  5
100B7
102
{ACAD_REACTORS
330
1009A
102
}
330
1009A
100
AcDbXrecord
1000
auto
  0
XRECORD
  5
100B8
102
{ACAD_REACTORS
330
1009A
102
}
330
1009A
100
AcDbXrecord
1000
auto
  0
XRECORD
  5
100B9
102
{ACAD_REACTORS
330
1009A
102
}
330
1009A
100
AcDbXrecord
1000
auto
  0
XRECORD
  5
100BA
102
{ACAD_REACTORS
330
1009A
102
}
330
1009A
100
AcDbXrecord
 90
        1
  0
XRECORD
  5
100BC
102
{ACAD_REACTORS
330
1009A
102
}
330
1009A
100
AcDbXrecord
 40
10.0
  0
XRECORD
  5
100BD
102
{ACAD_REACTORS
330
1009A
102
}
330
1009A
100
AcDbXrecord
 40
10.0
  0
XRECORD
  5
100BE
102
{ACAD_REACTORS
330
1009A
102
}
330
1009A
100
AcDbXrecord
 40
10.0
  0
XRECORD
  5
100BB
102
{ACAD_REACTORS
330
1009A
102
}
330
1009A
100
AcDbXrecord
 40
10.0
  0
ACAD_PROXY_OBJECT
  5
100BF
102
{ACAD_REACTORS
330
1009A
102
}
330
1009A
100
AcDbProxyObject
 90
      499
 91
      508
 93
       34
310
40C8804000
  0
XRECORD
  5
100C0
102
{ACAD_REACTORS
330
1009A
102
}
330
1009A
100
AcDbXrecord
 90
        1
  0
XRECORD
  5
100C1
102
{ACAD_REACTORS
330
1009A
102
}
330
1009A
100
AcDbXrecord
 40
0.0
  0
XRECORD
  5
100C2
102
{ACAD_REACTORS
330
1009A
102
}
330
1009A
100
AcDbXrecord
 40
0.0
  0
XRECORD
  5
100C3
102
{ACAD_REACTORS
330
1009A
102
}
330
1009A
100
AcDbXrecord
1000
Portrait
  0
XRECORD
  5
100C4
102
{ACAD_REACTORS
330
1009A
102
}
330
1009A
100
AcDbXrecord
 40
297.0
  0
XRECORD
  5
100C5
102
{ACAD_REACTORS
330
1009A
102
}
330
1009A
100
AcDbXrecord
 40
210.0
  0
XRECORD
  5
100C6
102
{ACAD_REACTORS
330
1009A
102
}
330
1009A
100
AcDbXrecord
1000
1:1
  0
ACAD_PROXY_OBJECT
  5
100C7
102
{ACAD_REACTORS
330
1009A
102
}
330
1009A
100
AcDbProxyObject
 90
      499
 91
      508
 93
       34
310
40C8804040
  0
XRECORD
  5
1009B
102
{ACAD_REACTORS
330
1009A
102
}
330
1009A
100
AcDbXrecord
1000
3.20.1
  0
XRECORD
  5
100C8
102
{ACAD_REACTORS
330
1009A
102
}
330
1009A
100
AcDbXrecord
 90
        4
  0
XRECORD
  5
100C9
102
{ACAD_REACTORS
330
1009A
102
}
330
1009A
100
AcDbXrecord
  0
XRECORD
  5
100CA
102
{ACAD_REACTORS
330
1009A
102
}
330
1009A
100
AcDbXrecord
 40
127.5522736562437
  0
XRECORD
  5
100CB
102
{ACAD_REACTORS
330
1009A
102
}
330
1009A
100
AcDbXrecord
 40
257.4567903126917
  0
DICTIONARY
  5
10138
330
10070
100
AcDbDictionary
280
     1
  3
ACAD_XREC_ROUNDTRIP
360
10139
  0
DICTIONARY
  5
10136
330
1006F
100
AcDbDictionary
280
     1
  3
ACAD_XREC_ROUNDTRIP
360
10137
  0
DICTIONARY
  5
1013A
330
10071
100
AcDbDictionary
280
     1
  3
ACAD_XREC_ROUNDTRIP
360
1013B
  0
XRECORD
  5
10139
102
{ACAD_REACTORS
330
10138
102
}
330
10138
100
AcDbXrecord
102
MATERIAL
148
0.0
149
0.0
149
0.0
 93
        0
 94
      127
282
     0
 72
     1
 77
     1
171
     1
175
     1
179
     1
273
     0
  0
XRECORD
  5
10137
102
{ACAD_REACTORS
330
10136
102
}
330
10136
100
AcDbXrecord
102
MATERIAL
148
0.0
149
0.0
149
0.0
 93
        0
 94
      127
282
     0
 72
     1
 77
     1
171
     1
175
     1
179
     1
273
     0
  0
XRECORD
  5
1013B
102
{ACAD_REACTORS
330
1013A
102
}
330
1013A
100
AcDbXrecord
102
MATERIAL
148
0.0
149
0.0
149
0.0
 93
        0
 94
      127
282
     0
 72
     1
 77
     1
171
     1
175
     1
179
     1
273
     0
  0
ENDSEC
  0
EOF
