  0
SECTION
  2
HEADER
  9
$ACADVER
  1
AC1009
  9
$INSBASE
 10
0.0
 20
0.0
 30
0.0
  9
$EXTMIN
 10
0.0
 20
0.0
 30
0.0
  9
$EXTMAX
 10
0.0
 20
0.0
 30
0.0
  0
ENDSEC
  0
SECTION
  2
TABLES
  0
TABLE
  2
VPORT
 70
0
  0
ENDTAB
  0
TABLE
  2
LTYPE
 70
1
  0
LTYPE
  2
CONTINUOUS
 70
0
  3
Solid line
 72
65
 73
0
 40
0.0
  0
ENDTAB
  0
TABLE
  2
LAYER
 70
1
  0
LAYER
  2
0
 70
64
 62
7
  6
continuous
  0
ENDTAB
  0
TABLE
  2
STYLE
 70
1
  0
STYLE
  2
STANDARD
 70
0
 40
0
 41
1.0
 50
0.0
 71
0
 42
1
 3
ARIAL.TTF
 4

  0
ENDTAB
  0
TABLE
  2
VIEW
 70
0
  0
ENDTAB
  0
ENDSEC
  0
SECTION
  2
BLOCKS
  0
BLOCK
  8
0
  2
EXTRUDE008
 70
0
 10
0.0
 20
0.0
 30
0.0
  3
EXTRUDE008
  0
ARC
  8
0
 62
251
 10
-30.0
 20
-45.0
 30
0.0
 40
7.07106781187
 50
45.0
 51
-133.770626207
  0
ARC
  8
0
 62
251
 10
0.0
 20
-9.42834745404
 30
0.0
 40
53.5920092101
 50
-130.621513717
 51
-49.4841158728
  0
ARC
  8
0
 62
251
 10
29.998356558
 20
-44.9982295043
 30
0.0
 40
7.06865354619
 50
-47.0293035504
 51
135.000708186
  0
ARC
  8
0
 62
251
 10
0.0
 20
-9.42834745404
 30
0.0
 40
39.4920997086
 50
-129.274618369
 51
-50.7253780279
  0
LINE
  8
0
 62
251
 10
-20.15
 20
-51.85
 30
0.0
 11
-15.85
 21
-51.85
 31
0.0
  0
LINE
  8
0
 62
251
 10
-15.85
 20
-51.85
 30
0.0
 11
-15.85
 21
-54.15
 31
0.0
  0
LINE
  8
0
 62
251
 10
-15.85
 20
-54.15
 30
0.0
 11
-20.15
 21
-54.15
 31
0.0
  0
LINE
  8
0
 62
251
 10
-20.15
 20
-54.15
 30
0.0
 11
-20.15
 21
-51.85
 31
0.0
  0
LINE
  8
0
 62
251
 10
15.85
 20
-51.85
 30
0.0
 11
20.15
 21
-51.85
 31
0.0
  0
LINE
  8
0
 62
251
 10
20.15
 20
-51.85
 30
0.0
 11
20.15
 21
-54.15
 31
0.0
  0
LINE
  8
0
 62
251
 10
20.15
 20
-54.15
 30
0.0
 11
15.85
 21
-54.15
 31
0.0
  0
LINE
  8
0
 62
251
 10
15.85
 20
-54.15
 30
0.0
 11
15.85
 21
-51.85
 31
0.0
  0
CIRCLE
  8
0
 62
251
 10
29.998356558
 20
-44.9982295043
 30
0.0
 40
1.5
  0
CIRCLE
  8
0
 62
251
 10
-30.0
 20
-45.0
 30
0.0
 40
1.5
  0
ENDBLK
  0
ENDSEC
  0
SECTION
  2
ENTITIES
  0
INSERT
  2
EXTRUDE008
  8
0
 62
251
 10
0.0
 20
0.0
 30
0.0
  0
ENDSEC
  0
EOF
