  0
SECTION
  2
HEADER
  9
$ACADVER
  1
AC1009
  9
$INSBASE
 10
0.0
 20
0.0
 30
0.0
  9
$EXTMIN
 10
0.0
 20
0.0
 30
0.0
  9
$EXTMAX
 10
0.0
 20
0.0
 30
0.0
  0
ENDSEC
  0
SECTION
  2
TABLES
  0
TABLE
  2
VPORT
 70
0
  0
ENDTAB
  0
TABLE
  2
LTYPE
 70
1
  0
LTYPE
  2
CONTINUOUS
 70
0
  3
Solid line
 72
65
 73
0
 40
0.0
  0
ENDTAB
  0
TABLE
  2
LAYER
 70
1
  0
LAYER
  2
0
 70
64
 62
7
  6
continuous
  0
ENDTAB
  0
TABLE
  2
STYLE
 70
1
  0
STYLE
  2
STANDARD
 70
0
 40
0
 41
1.0
 50
0.0
 71
0
 42
1
 3
ARIAL.TTF
 4

  0
ENDTAB
  0
TABLE
  2
VIEW
 70
0
  0
ENDTAB
  0
ENDSEC
  0
SECTION
  2
BLOCKS
  0
BLOCK
  8
0
  2
EXTRUDE024
 70
0
 10
0.0
 20
0.0
 30
0.0
  3
EXTRUDE024
  0
ARC
  8
0
 62
251
 10
30.0
 20
45.0000005369
 30
0.0
 40
4.99942486948
 50
-90.0
 51
90.0
  0
LINE
  8
0
 62
251
 10
-30.0000034555
 20
49.9994254064
 30
0.0
 11
30.0
 21
49.9994254064
 31
0.0
  0
ARC
  8
0
 62
251
 10
-30.0000036629
 20
45.0000005369
 30
0.0
 40
4.99942486948
 50
89.9999976231
 51
-90.0
  0
LINE
  8
0
 62
251
 10
30.0
 20
40.0005756675
 30
0.0
 11
-30.0000036629
 21
40.0005756675
 31
0.0
  0
LINE
  8
0
 62
251
 10
15.85
 20
44.15
 30
0.0
 11
20.15
 21
44.15
 31
0.0
  0
LINE
  8
0
 62
251
 10
20.15
 20
44.15
 30
0.0
 11
20.15
 21
41.85
 31
0.0
  0
LINE
  8
0
 62
251
 10
20.15
 20
41.85
 30
0.0
 11
15.85
 21
41.85
 31
0.0
  0
LINE
  8
0
 62
251
 10
15.85
 20
41.85
 30
0.0
 11
15.85
 21
44.15
 31
0.0
  0
LINE
  8
0
 62
251
 10
-20.15
 20
44.15
 30
0.0
 11
-15.85
 21
44.15
 31
0.0
  0
LINE
  8
0
 62
251
 10
-15.85
 20
44.15
 30
0.0
 11
-15.85
 21
41.85
 31
0.0
  0
LINE
  8
0
 62
251
 10
-15.85
 20
41.85
 30
0.0
 11
-20.15
 21
41.85
 31
0.0
  0
LINE
  8
0
 62
251
 10
-20.15
 20
41.85
 30
0.0
 11
-20.15
 21
44.15
 31
0.0
  0
CIRCLE
  8
0
 62
251
 10
30.0
 20
45.0000005369
 30
0.0
 40
1.5
  0
CIRCLE
  8
0
 62
251
 10
-30.0000036629
 20
45.0000005369
 30
0.0
 40
1.5
  0
ENDBLK
  0
ENDSEC
  0
SECTION
  2
ENTITIES
  0
INSERT
  2
EXTRUDE024
  8
0
 62
251
 10
0.0
 20
0.0
 30
0.0
  0
ENDSEC
  0
EOF
