  0
SECTION
  2
HEADER
  9
$ACADVER
  1
AC1009
  9
$INSBASE
 10
0.0
 20
0.0
 30
0.0
  9
$EXTMIN
 10
0.0
 20
0.0
 30
0.0
  9
$EXTMAX
 10
0.0
 20
0.0
 30
0.0
  0
ENDSEC
  0
SECTION
  2
TABLES
  0
TABLE
  2
VPORT
 70
0
  0
ENDTAB
  0
TABLE
  2
LTYPE
 70
1
  0
LTYPE
  2
CONTINUOUS
 70
0
  3
Solid line
 72
65
 73
0
 40
0.0
  0
ENDTAB
  0
TABLE
  2
LAYER
 70
1
  0
LAYER
  2
0
 70
64
 62
7
  6
continuous
  0
ENDTAB
  0
TABLE
  2
STYLE
 70
1
  0
STYLE
  2
STANDARD
 70
0
 40
0
 41
1.0
 50
0.0
 71
0
 42
1
 3
ARIAL.TTF
 4

  0
ENDTAB
  0
TABLE
  2
VIEW
 70
0
  0
ENDTAB
  0
ENDSEC
  0
SECTION
  2
BLOCKS
  0
BLOCK
  8
0
  2
EXTRUDE023
 70
0
 10
0.0
 20
0.0
 30
0.0
  3
EXTRUDE023
  0
LINE
  8
0
 62
250
 10
20.029718
 20
-53.0
 30
0.0
 11
16.0
 21
-53.0
 31
0.0
  0
LINE
  8
0
 62
250
 10
20.029718
 20
-53.0
 30
0.0
 11
20.029718
 21
-2.13162820728e-14
 31
0.0
  0
LINE
  8
0
 62
250
 10
20.029718
 20
-9.7699626167e-15
 30
0.0
 11
16.0
 21
-9.7699626167e-15
 31
0.0
  0
LINE
  8
0
 62
250
 10
16.0
 20
-9.7699626167e-15
 30
0.0
 11
16.0
 21
-4.0
 31
0.0
  0
LINE
  8
0
 62
250
 10
16.0
 20
-4.0
 30
0.0
 11
-16.0
 21
-4.0
 31
0.0
  0
LINE
  8
0
 62
250
 10
-16.0
 20
-4.0
 30
0.0
 11
-16.0
 21
-1.06581410364e-14
 31
0.0
  0
LINE
  8
0
 62
250
 10
-20.0
 20
-9.7699626167e-15
 30
0.0
 11
-16.0
 21
-9.7699626167e-15
 31
0.0
  0
LINE
  8
0
 62
250
 10
-20.0
 20
-9.7699626167e-15
 30
0.0
 11
-20.0
 21
-53.0
 31
0.0
  0
LINE
  8
0
 62
250
 10
-16.0
 20
-53.0
 30
0.0
 11
-20.0
 21
-53.0
 31
0.0
  0
LINE
  8
0
 62
250
 10
-16.0
 20
-51.00866
 30
0.0
 11
-16.0
 21
-53.0
 31
0.0
  0
LINE
  8
0
 62
250
 10
16.0
 20
-51.00866
 30
0.0
 11
-16.0
 21
-51.00866
 31
0.0
  0
LINE
  8
0
 62
250
 10
16.0
 20
-53.0
 30
0.0
 11
16.0
 21
-51.00866
 31
0.0
  0
CIRCLE
  8
0
 62
250
 10
0.0
 20
-35.0
 30
0.0
 40
10.0
  0
ARC
  8
0
 62
250
 10
-7.5
 20
-15.0
 30
0.0
 40
5.0
 50
90.0
 51
-90.0
  0
LINE
  8
0
 62
250
 10
-7.5
 20
-10.0
 30
0.0
 11
7.5
 21
-10.0
 31
0.0
  0
ARC
  8
0
 62
250
 10
7.5
 20
-15.0
 30
0.0
 40
5.0
 50
-90.0
 51
90.0
  0
LINE
  8
0
 62
250
 10
-7.5
 20
-20.0
 30
0.0
 11
7.5
 21
-20.0
 31
0.0
  0
ENDBLK
  0
ENDSEC
  0
SECTION
  2
ENTITIES
  0
INSERT
  2
EXTRUDE023
  8
0
 62
250
 10
0.0
 20
0.0
 30
0.0
  0
ENDSEC
  0
EOF
