  0
SECTION
  2
HEADER
  9
$ACADVER
  1
AC1009
  9
$INSBASE
 10
0.0
 20
0.0
 30
0.0
  9
$EXTMIN
 10
0.0
 20
0.0
 30
0.0
  9
$EXTMAX
 10
0.0
 20
0.0
 30
0.0
  0
ENDSEC
  0
SECTION
  2
TABLES
  0
TABLE
  2
VPORT
 70
0
  0
ENDTAB
  0
TABLE
  2
LTYPE
 70
1
  0
LTYPE
  2
CONTINUOUS
 70
0
  3
Solid line
 72
65
 73
0
 40
0.0
  0
ENDTAB
  0
TABLE
  2
LAYER
 70
1
  0
LAYER
  2
0
 70
64
 62
7
  6
continuous
  0
ENDTAB
  0
TABLE
  2
STYLE
 70
1
  0
STYLE
  2
STANDARD
 70
0
 40
0
 41
1.0
 50
0.0
 71
0
 42
1
 3
ARIAL.TTF
 4

  0
ENDTAB
  0
TABLE
  2
VIEW
 70
0
  0
ENDTAB
  0
ENDSEC
  0
SECTION
  2
BLOCKS
  0
BLOCK
  8
0
  2
EXTRUDE023
 70
0
 10
0.0
 20
0.0
 30
0.0
  3
EXTRUDE023
  0
LINE
  8
0
 62
8
 10
22.0000139128
 20
-4.014399
 30
0.0
 11
22.0000139128
 21
26.883672
 31
0.0
  0
LINE
  8
0
 62
8
 10
22.0000139128
 20
-4.014399
 30
0.0
 11
18.0000139128
 21
-4.014399
 31
0.0
  0
LINE
  8
0
 62
8
 10
18.0000139128
 20
-4.014399
 30
0.0
 11
18.0000139128
 21
0.00180699999999
 31
0.0
  0
LINE
  8
0
 62
8
 10
18.0000139128
 20
0.00180699999999
 30
0.0
 11
15.0
 21
6.45040010988e-13
 31
0.0
  0
ARC
  8
0
 62
8
 10
9.0
 20
1.0
 30
0.0
 40
6.0827625303
 50
-9.46232220801
 51
-170.537677792
  0
LINE
  8
0
 62
8
 10
3.0
 20
6.45039577307e-13
 30
0.0
 11
-3.00266277608
 21
6.45039577307e-13
 31
0.0
  0
ARC
  8
0
 62
8
 10
-9.0
 20
1.0
 30
0.0
 40
6.08013599991
 50
-9.46644739012
 51
-170.53355261
  0
LINE
  8
0
 62
8
 10
-14.9973372239
 20
6.45039577307e-13
 30
0.0
 11
-18.0013372875
 21
-0.00135900000001
 31
0.0
  0
LINE
  8
0
 62
8
 10
-18.0013372875
 20
-0.00135900000001
 30
0.0
 11
-18.0013372875
 21
-4.004253
 31
0.0
  0
LINE
  8
0
 62
8
 10
-18.0013372875
 20
-4.004253
 30
0.0
 11
-22.0013372875
 21
-4.004253
 31
0.0
  0
LINE
  8
0
 62
8
 10
-22.0013372875
 20
26.967648
 30
0.0
 11
-22.0013372875
 21
-4.004253
 31
0.0
  0
LINE
  8
0
 62
8
 10
-18.0013372875
 20
26.967648
 30
0.0
 11
-22.0013372875
 21
26.967648
 31
0.0
  0
LINE
  8
0
 62
8
 10
-18.0013372875
 20
24.967648
 30
0.0
 11
-18.0013372875
 21
26.967648
 31
0.0
  0
LINE
  8
0
 62
8
 10
18.0000139128
 20
24.967648
 30
0.0
 11
-18.0013372875
 21
24.967648
 31
0.0
  0
LINE
  8
0
 62
8
 10
18.0000139128
 20
26.883672
 30
0.0
 11
18.0000139128
 21
24.967648
 31
0.0
  0
LINE
  8
0
 62
8
 10
22.0000139128
 20
26.883672
 30
0.0
 11
18.0000139128
 21
26.883672
 31
0.0
  0
CIRCLE
  8
0
 62
8
 10
-10.0
 20
17.5
 30
0.0
 40
5.0
  0
CIRCLE
  8
0
 62
8
 10
10.0
 20
17.5
 30
0.0
 40
5.0
  0
CIRCLE
  8
0
 62
8
 10
0.0
 20
9.999750025
 30
0.0
 40
3.0
  0
ENDBLK
  0
ENDSEC
  0
SECTION
  2
ENTITIES
  0
INSERT
  2
EXTRUDE023
  8
0
 62
8
 10
0.0
 20
0.0
 30
0.0
  0
ENDSEC
  0
EOF
