  0
SECTION
  2
HEADER
  9
$ACADVER
  1
AC1009
  9
$INSBASE
 10
0.0
 20
0.0
 30
0.0
  9
$EXTMIN
 10
0.0
 20
0.0
 30
0.0
  9
$EXTMAX
 10
0.0
 20
0.0
 30
0.0
  0
ENDSEC
  0
SECTION
  2
TABLES
  0
TABLE
  2
VPORT
 70
0
  0
ENDTAB
  0
TABLE
  2
LTYPE
 70
1
  0
LTYPE
  2
CONTINUOUS
 70
0
  3
Solid line
 72
65
 73
0
 40
0.0
  0
ENDTAB
  0
TABLE
  2
LAYER
 70
1
  0
LAYER
  2
0
 70
64
 62
7
  6
continuous
  0
ENDTAB
  0
TABLE
  2
STYLE
 70
1
  0
STYLE
  2
STANDARD
 70
0
 40
0
 41
1.0
 50
0.0
 71
0
 42
1
 3
ARIAL.TTF
 4

  0
ENDTAB
  0
TABLE
  2
VIEW
 70
0
  0
ENDTAB
  0
ENDSEC
  0
SECTION
  2
BLOCKS
  0
BLOCK
  8
0
  2
EXTRUDE013
 70
0
 10
0.0
 20
0.0
 30
0.0
  3
EXTRUDE013
  0
ARC
  8
0
 62
250
 10
15.0
 20
-125.0
 30
0.0
 40
10.0
 50
179.999987165
 51
0.0
  0
LINE
  8
0
 62
250
 10
25.0
 20
-125.0
 30
0.0
 11
25.0
 21
45.0
 31
0.0
  0
ARC
  8
0
 62
250
 10
15.0
 20
45.0
 30
0.0
 40
10.0
 50
-0.0
 51
90.0
  0
LINE
  8
0
 62
250
 10
15.0
 20
55.0
 30
0.0
 11
-15.0
 21
55.0
 31
0.0
  0
ARC
  8
0
 62
250
 10
-15.0
 20
45.0
 30
0.0
 40
10.0
 50
90.0
 51
-180.0
  0
LINE
  8
0
 62
250
 10
-25.0
 20
45.0
 30
0.0
 11
-25.0
 21
-125.0
 31
0.0
  0
ARC
  8
0
 62
250
 10
-15.0
 20
-125.000729652
 30
0.0
 40
10.0000000266
 50
179.995819404
 51
0.0041805956602
  0
ARC
  8
0
 62
250
 10
9.98312543743e-13
 20
-125.0
 30
0.0
 40
5.0
 50
2.55989758719e-05
 51
180.0
  0
CIRCLE
  8
0
 62
250
 10
0.0
 20
-80.0
 30
0.0
 40
7.0
  0
CIRCLE
  8
0
 62
250
 10
0.0
 20
-60.0
 30
0.0
 40
7.0
  0
CIRCLE
  8
0
 62
250
 10
0.0
 20
-40.0
 30
0.0
 40
7.0
  0
CIRCLE
  8
0
 62
250
 10
0.0
 20
-20.0
 30
0.0
 40
7.0
  0
CIRCLE
  8
0
 62
250
 10
0.0
 20
0.0
 30
0.0
 40
7.0
  0
CIRCLE
  8
0
 62
250
 10
0.0
 20
40.0
 30
0.0
 40
7.0
  0
CIRCLE
  8
0
 62
250
 10
0.0
 20
20.0
 30
0.0
 40
7.0
  0
CIRCLE
  8
0
 62
250
 10
-10.0
 20
-70.0
 30
0.0
 40
5.0
  0
CIRCLE
  8
0
 62
250
 10
10.0
 20
-70.0
 30
0.0
 40
5.0
  0
CIRCLE
  8
0
 62
250
 10
-10.0
 20
-50.0
 30
0.0
 40
5.0
  0
CIRCLE
  8
0
 62
250
 10
10.0
 20
-50.0
 30
0.0
 40
5.0
  0
CIRCLE
  8
0
 62
250
 10
-10.0
 20
-10.0
 30
0.0
 40
5.0
  0
CIRCLE
  8
0
 62
250
 10
10.0
 20
-10.0
 30
0.0
 40
5.0
  0
CIRCLE
  8
0
 62
250
 10
-10.0
 20
10.0
 30
0.0
 40
5.0
  0
CIRCLE
  8
0
 62
250
 10
10.0
 20
10.0
 30
0.0
 40
5.0
  0
CIRCLE
  8
0
 62
250
 10
10.0
 20
30.0
 30
0.0
 40
5.0
  0
CIRCLE
  8
0
 62
250
 10
-10.0
 20
30.0
 30
0.0
 40
5.0
  0
LINE
  8
0
 62
250
 10
16.1
 20
-104.9
 30
0.0
 11
13.9
 21
-104.9
 31
0.0
  0
LINE
  8
0
 62
250
 10
13.9
 20
-104.9
 30
0.0
 11
13.9
 21
-115.1
 31
0.0
  0
LINE
  8
0
 62
250
 10
13.9
 20
-115.1
 30
0.0
 11
16.1
 21
-115.1
 31
0.0
  0
LINE
  8
0
 62
250
 10
16.1
 20
-115.1
 30
0.0
 11
16.1
 21
-104.9
 31
0.0
  0
LINE
  8
0
 62
250
 10
-13.9
 20
-104.9
 30
0.0
 11
-16.1
 21
-104.9
 31
0.0
  0
LINE
  8
0
 62
250
 10
-16.1
 20
-104.9
 30
0.0
 11
-16.1
 21
-115.1
 31
0.0
  0
LINE
  8
0
 62
250
 10
-16.1
 20
-115.1
 30
0.0
 11
-13.9
 21
-115.1
 31
0.0
  0
LINE
  8
0
 62
250
 10
-13.9
 20
-115.1
 30
0.0
 11
-13.9
 21
-104.9
 31
0.0
  0
ARC
  8
0
 62
250
 10
-8.0
 20
-106.0
 30
0.0
 40
1.5
 50
-0.0
 51
-180.0
  0
LINE
  8
0
 62
250
 10
-9.5
 20
-106.0
 30
0.0
 11
-9.5
 21
-111.0
 31
0.0
  0
ARC
  8
0
 62
250
 10
-8.0
 20
-111.0
 30
0.0
 40
1.5
 50
-180.0
 51
0.0
  0
LINE
  8
0
 62
250
 10
-6.5
 20
-106.0
 30
0.0
 11
-6.5
 21
-111.0
 31
0.0
  0
ARC
  8
0
 62
250
 10
8.0
 20
-106.0
 30
0.0
 40
1.5
 50
-0.0
 51
-180.0
  0
LINE
  8
0
 62
250
 10
6.5
 20
-106.0
 30
0.0
 11
6.5
 21
-111.0
 31
0.0
  0
ARC
  8
0
 62
250
 10
8.0
 20
-111.0
 30
0.0
 40
1.5
 50
-180.0
 51
0.0
  0
LINE
  8
0
 62
250
 10
9.5
 20
-106.0
 30
0.0
 11
9.5
 21
-111.0
 31
0.0
  0
ARC
  8
0
 62
250
 10
0.0
 20
-106.0
 30
0.0
 40
1.5
 50
-0.0
 51
-180.0
  0
LINE
  8
0
 62
250
 10
-1.5
 20
-106.0
 30
0.0
 11
-1.5
 21
-111.0
 31
0.0
  0
ARC
  8
0
 62
250
 10
0.0
 20
-111.0
 30
0.0
 40
1.5
 50
-180.0
 51
0.0
  0
LINE
  8
0
 62
250
 10
1.5
 20
-106.0
 30
0.0
 11
1.5
 21
-111.0
 31
0.0
  0
CIRCLE
  8
0
 62
250
 10
-10.0
 20
-30.0
 30
0.0
 40
3.0
  0
CIRCLE
  8
0
 62
250
 10
10.0
 20
-30.0
 30
0.0
 40
3.0
  0
CIRCLE
  8
0
 62
250
 10
15.0
 20
-60.0
 30
0.0
 40
3.0
  0
CIRCLE
  8
0
 62
250
 10
-15.0
 20
-60.0
 30
0.0
 40
3.0
  0
CIRCLE
  8
0
 62
250
 10
-15.0
 20
-40.0
 30
0.0
 40
3.0
  0
CIRCLE
  8
0
 62
250
 10
15.0
 20
-40.0
 30
0.0
 40
3.0
  0
CIRCLE
  8
0
 62
250
 10
-15.0
 20
0.0
 30
0.0
 40
3.0
  0
CIRCLE
  8
0
 62
250
 10
15.0
 20
0.0
 30
0.0
 40
3.0
  0
CIRCLE
  8
0
 62
250
 10
-15.0
 20
20.0
 30
0.0
 40
3.0
  0
CIRCLE
  8
0
 62
250
 10
15.0
 20
20.0
 30
0.0
 40
3.0
  0
LINE
  8
0
 62
250
 10
16.1
 20
-95.1
 30
0.0
 11
13.9
 21
-95.1
 31
0.0
  0
LINE
  8
0
 62
250
 10
13.9
 20
-95.1
 30
0.0
 11
13.9
 21
-89.9
 31
0.0
  0
LINE
  8
0
 62
250
 10
13.9
 20
-89.9
 30
0.0
 11
16.1
 21
-89.9
 31
0.0
  0
LINE
  8
0
 62
250
 10
16.1
 20
-89.9
 30
0.0
 11
16.1
 21
-95.1
 31
0.0
  0
LINE
  8
0
 62
250
 10
16.1
 20
-85.1
 30
0.0
 11
13.9
 21
-85.1
 31
0.0
  0
LINE
  8
0
 62
250
 10
13.9
 20
-85.1
 30
0.0
 11
13.9
 21
-79.9
 31
0.0
  0
LINE
  8
0
 62
250
 10
13.9
 20
-79.9
 30
0.0
 11
16.1
 21
-79.9
 31
0.0
  0
LINE
  8
0
 62
250
 10
16.1
 20
-79.9
 30
0.0
 11
16.1
 21
-85.1
 31
0.0
  0
LINE
  8
0
 62
250
 10
-13.9
 20
-85.1
 30
0.0
 11
-16.1
 21
-85.1
 31
0.0
  0
LINE
  8
0
 62
250
 10
-16.1
 20
-85.1
 30
0.0
 11
-16.1
 21
-79.9
 31
0.0
  0
LINE
  8
0
 62
250
 10
-16.1
 20
-79.9
 30
0.0
 11
-13.9
 21
-79.9
 31
0.0
  0
LINE
  8
0
 62
250
 10
-13.9
 20
-79.9
 30
0.0
 11
-13.9
 21
-85.1
 31
0.0
  0
LINE
  8
0
 62
250
 10
-13.9
 20
-95.0519085766
 30
0.0
 11
-16.1
 21
-95.0519085766
 31
0.0
  0
LINE
  8
0
 62
250
 10
-16.1
 20
-95.0519085766
 30
0.0
 11
-16.1
 21
-89.8519085766
 31
0.0
  0
LINE
  8
0
 62
250
 10
-16.1
 20
-89.8519085766
 30
0.0
 11
-13.9
 21
-89.8519085766
 31
0.0
  0
LINE
  8
0
 62
250
 10
-13.9
 20
-89.8519085766
 30
0.0
 11
-13.9
 21
-95.0519085766
 31
0.0
  0
LINE
  8
0
 62
250
 10
-16.1292893219
 20
-130.129289322
 30
0.0
 11
-13.9292893219
 21
-130.129289322
 31
0.0
  0
LINE
  8
0
 62
250
 10
-13.9292893219
 20
-130.129289322
 30
0.0
 11
-13.9292893219
 21
-124.929289322
 31
0.0
  0
LINE
  8
0
 62
250
 10
-13.9292893219
 20
-124.929289322
 30
0.0
 11
-16.1292893219
 21
-124.929289322
 31
0.0
  0
LINE
  8
0
 62
250
 10
-16.1292893219
 20
-124.929289322
 30
0.0
 11
-16.1292893219
 21
-130.129289322
 31
0.0
  0
LINE
  8
0
 62
250
 10
16.0707106781
 20
-124.929289322
 30
0.0
 11
13.8707106781
 21
-124.929289322
 31
0.0
  0
LINE
  8
0
 62
250
 10
13.8707106781
 20
-124.929289322
 30
0.0
 11
13.8707106781
 21
-130.129289322
 31
0.0
  0
LINE
  8
0
 62
250
 10
13.8707106781
 20
-130.129289322
 30
0.0
 11
16.0707106781
 21
-130.129289322
 31
0.0
  0
LINE
  8
0
 62
250
 10
16.0707106781
 20
-130.129289322
 30
0.0
 11
16.0707106781
 21
-124.929289322
 31
0.0
  0
LINE
  8
0
 62
250
 10
-17.85
 20
35.15
 30
0.0
 11
-22.15
 21
35.15
 31
0.0
  0
LINE
  8
0
 62
250
 10
-22.15
 20
35.15
 30
0.0
 11
-22.15
 21
32.85
 31
0.0
  0
LINE
  8
0
 62
250
 10
-22.15
 20
32.85
 30
0.0
 11
-17.85
 21
32.85
 31
0.0
  0
LINE
  8
0
 62
250
 10
-17.85
 20
32.85
 30
0.0
 11
-17.85
 21
35.15
 31
0.0
  0
LINE
  8
0
 62
250
 10
22.15
 20
35.15
 30
0.0
 11
17.85
 21
35.15
 31
0.0
  0
LINE
  8
0
 62
250
 10
17.85
 20
35.15
 30
0.0
 11
17.85
 21
32.85
 31
0.0
  0
LINE
  8
0
 62
250
 10
17.85
 20
32.85
 30
0.0
 11
22.15
 21
32.85
 31
0.0
  0
LINE
  8
0
 62
250
 10
22.15
 20
32.85
 30
0.0
 11
22.15
 21
35.15
 31
0.0
  0
CIRCLE
  8
0
 62
250
 10
20.0
 20
-95.0
 30
0.0
 40
1.5
  0
CIRCLE
  8
0
 62
250
 10
-20.0
 20
-95.0
 30
0.0
 40
1.5
  0
CIRCLE
  8
0
 62
250
 10
-20.0
 20
-25.0
 30
0.0
 40
1.5
  0
CIRCLE
  8
0
 62
250
 10
-19.0
 20
49.0
 30
0.0
 40
1.5
  0
CIRCLE
  8
0
 62
250
 10
19.0
 20
49.0
 30
0.0
 40
1.5
  0
CIRCLE
  8
0
 62
250
 10
20.0
 20
-25.0
 30
0.0
 40
1.5
  0
ENDBLK
  0
ENDSEC
  0
SECTION
  2
ENTITIES
  0
INSERT
  2
EXTRUDE013
  8
0
 62
250
 10
0.0
 20
0.0
 30
0.0
  0
ENDSEC
  0
EOF
